ISO-10303-21;
HEADER;
FILE_DESCRIPTION (( 'STEP AP214' ),
    '1' );
FILE_NAME ('24512.STEP',
    '2023-06-22T17:17:32',
    ( '' ),
    ( '' ),
    'SwSTEP 2.0',
    'SolidWorks 2023',
    '' );
FILE_SCHEMA (( 'AUTOMOTIVE_DESIGN' ));
ENDSEC;

DATA;
#1 = DIRECTION ( 'NONE',  ( -0.000000000000000000, -1.000000000000000000, -0.000000000000000000 ) ) ;
#2 = DIMENSIONAL_EXPONENTS ( 1.000000000000000000, 0.000000000000000000, 0.000000000000000000, 0.000000000000000000, 0.000000000000000000, 0.000000000000000000, 0.000000000000000000 ) ;
#3 = SURFACE_SIDE_STYLE ('',( #219 ) ) ;
#4 =( NAMED_UNIT ( * ) PLANE_ANGLE_UNIT ( ) SI_UNIT ( $, .RADIAN. ) );
#5 = EDGE_CURVE ( 'NONE', #106, #76, #165, .T. ) ;
#6 = APPLICATION_PROTOCOL_DEFINITION ( 'draft international standard', 'automotive_design', 1998, #267 ) ;
#7 = ORIENTED_EDGE ( 'NONE', *, *, #167, .T. ) ;
#8 = SURFACE_STYLE_USAGE ( .BOTH. , #123 ) ;
#9 =( CONVERSION_BASED_UNIT ( 'INCH', #224 ) LENGTH_UNIT ( ) NAMED_UNIT ( #192 ) );
#10 = ORIENTED_EDGE ( 'NONE', *, *, #105, .F. ) ;
#11 = EDGE_LOOP ( 'NONE', ( #293, #62, #107, #270 ) ) ;
#12 = APPLICATION_CONTEXT ( 'automotive_design' ) ;
#13 = ORIENTED_EDGE ( 'NONE', *, *, #105, .T. ) ;
#14 = ADVANCED_FACE ( 'NONE', ( #195 ), #19, .F. ) ;
#15 = APPLICATION_PROTOCOL_DEFINITION ( 'draft international standard', 'automotive_design', 1998, #12 ) ;
#16 = COLOUR_RGB ( '',1.000000000000000000, 0.000000000000000000, 0.000000000000000000 ) ;
#17 =( GEOMETRIC_REPRESENTATION_CONTEXT ( 3 ) GLOBAL_UNCERTAINTY_ASSIGNED_CONTEXT ( ( #85 ) ) GLOBAL_UNIT_ASSIGNED_CONTEXT ( ( #249, #243, #87 ) ) REPRESENTATION_CONTEXT ( 'NONE', 'WORKASPACE' ) );
#18 = PRODUCT_CONTEXT ( 'NONE', #267, 'mechanical' ) ;
#19 = PLANE ( 'NONE',  #160 ) ;
#20 = ADVANCED_BREP_SHAPE_REPRESENTATION ( '24512', ( #180, #273, #75 ), #83 ) ;
#21 = ORIENTED_EDGE ( 'NONE', *, *, #194, .F. ) ;
#22 = DIRECTION ( 'NONE',  ( -1.000000000000000000, -4.453261087808560759E-17, 0.000000000000000000 ) ) ;
#23 = SURFACE_SIDE_STYLE ('',( #44 ) ) ;
#24 = AXIS2_PLACEMENT_3D ( 'NONE', #255, #209, #92 ) ;
#25 = CIRCLE ( 'NONE', #241, 0.3750000000000001665 ) ;
#26 = DIRECTION ( 'NONE',  ( -4.453261087808560759E-17, 1.000000000000000000, -0.000000000000000000 ) ) ;
#27 = FILL_AREA_STYLE ('',( #29 ) ) ;
#28 = LENGTH_MEASURE_WITH_UNIT ( LENGTH_MEASURE( 0.02539999999999999897 ), #118 );
#29 = FILL_AREA_STYLE_COLOUR ( '', #262 ) ;
#30 = LINE ( 'NONE', #71, #65 ) ;
#31 = AXIS2_PLACEMENT_3D ( 'NONE', #100, #285, #73 ) ;
#32 = SURFACE_SIDE_STYLE ('',( #121 ) ) ;
#33 =( NAMED_UNIT ( * ) SI_UNIT ( $, .STERADIAN. ) SOLID_ANGLE_UNIT ( ) );
#34 = PRESENTATION_STYLE_ASSIGNMENT (( #147 ) ) ;
#35 = DIRECTION ( 'NONE',  ( 0.000000000000000000, 0.000000000000000000, -1.000000000000000000 ) ) ;
#36 = FACE_OUTER_BOUND ( 'NONE', #245, .T. ) ;
#37 = COLOUR_RGB ( '',1.000000000000000000, 0.000000000000000000, 0.000000000000000000 ) ;
#38 = SURFACE_STYLE_USAGE ( .BOTH. , #222 ) ;
#39 = ORIENTED_EDGE ( 'NONE', *, *, #96, .T. ) ;
#40 = MECHANICAL_DESIGN_GEOMETRIC_PRESENTATION_REPRESENTATION (  '', ( #239 ), #210 ) ;
#41 = AXIS2_PLACEMENT_3D ( 'NONE', #93, #94, #177 ) ;
#42 = CIRCLE ( 'NONE', #156, 0.3750000000000000555 ) ;
#43 = AXIS2_PLACEMENT_3D ( 'NONE', #308, #244, #55 ) ;
#44 = SURFACE_STYLE_FILL_AREA ( #175 ) ;
#45 = DIRECTION ( 'NONE',  ( 4.453261087808560759E-17, -1.000000000000000000, 0.000000000000000000 ) ) ;
#46 = FILL_AREA_STYLE_COLOUR ( '', #234 ) ;
#47 = DIRECTION ( 'NONE',  ( 0.000000000000000000, -0.000000000000000000, 1.000000000000000000 ) ) ;
#48 = PRESENTATION_LAYER_ASSIGNMENT (  '', '', ( #161 ) ) ;
#49 = LINE ( 'NONE', #169, #288 ) ;
#50 = DIRECTION ( 'NONE',  ( 0.000000000000000000, 1.000000000000000000, 0.000000000000000000 ) ) ;
#51 = FACE_OUTER_BOUND ( 'NONE', #178, .T. ) ;
#52 = FILL_AREA_STYLE ('',( #98 ) ) ;
#53 = AXIS2_PLACEMENT_3D ( 'NONE', #228, #186, #35 ) ;
#54 = ADVANCED_FACE ( 'NONE', ( #259 ), #277, .T. ) ;
#55 = DIRECTION ( 'NONE',  ( 0.000000000000000000, 0.000000000000000000, -1.000000000000000000 ) ) ;
#56 = PRESENTATION_STYLE_ASSIGNMENT (( #38 ) ) ;
#57 =( GEOMETRIC_REPRESENTATION_CONTEXT ( 3 ) GLOBAL_UNCERTAINTY_ASSIGNED_CONTEXT ( ( #291 ) ) GLOBAL_UNIT_ASSIGNED_CONTEXT ( ( #289, #4, #264 ) ) REPRESENTATION_CONTEXT ( 'NONE', 'WORKASPACE' ) );
#58 =( NAMED_UNIT ( * ) PLANE_ANGLE_UNIT ( ) SI_UNIT ( $, .RADIAN. ) );
#59 = UNCERTAINTY_MEASURE_WITH_UNIT (LENGTH_MEASURE( 1.000000000000000082E-05 ), #116, 'distance_accuracy_value', 'NONE');
#60 = DIMENSIONAL_EXPONENTS ( 1.000000000000000000, 0.000000000000000000, 0.000000000000000000, 0.000000000000000000, 0.000000000000000000, 0.000000000000000000, 0.000000000000000000 ) ;
#61 = FILL_AREA_STYLE_COLOUR ( '', #37 ) ;
#62 = ORIENTED_EDGE ( 'NONE', *, *, #227, .T. ) ;
#63 = CIRCLE ( 'NONE', #269, 0.3750000000000001665 ) ;
#64 = UNCERTAINTY_MEASURE_WITH_UNIT (LENGTH_MEASURE( 1.000000000000000082E-05 ), #294, 'distance_accuracy_value', 'NONE');
#65 = VECTOR ( 'NONE', #137, 39.37007874015748143 ) ;
#66 = CARTESIAN_POINT ( 'NONE',  ( 0.000000000000000000, 0.000000000000000000, -0.3750000000000000555 ) ) ;
#67 = PRESENTATION_STYLE_ASSIGNMENT (( #212 ) ) ;
#68 = CARTESIAN_POINT ( 'NONE',  ( 0.3750000000000000555, 6.000000000000000888, 0.000000000000000000 ) ) ;
#69 = FACE_OUTER_BOUND ( 'NONE', #230, .T. ) ;
#70 = DIRECTION ( 'NONE',  ( -1.000000000000000000, 0.000000000000000000, 0.000000000000000000 ) ) ;
#71 = CARTESIAN_POINT ( 'NONE',  ( -0.3750000000000002220, 6.000000000000000888, 0.000000000000000000 ) ) ;
#72 = CYLINDRICAL_SURFACE ( 'NONE', #53, 0.3750000000000000555 ) ;
#73 = DIRECTION ( 'NONE',  ( 0.000000000000000000, 0.000000000000000000, -1.000000000000000000 ) ) ;
#74 = AXIS2_PLACEMENT_3D ( 'NONE', #171, #50, #47 ) ;
#75 = AXIS2_PLACEMENT_3D ( 'NONE', #287, #231, #300 ) ;
#76 = VERTEX_POINT ( 'NONE', #110 ) ;
#77 = LENGTH_MEASURE_WITH_UNIT ( LENGTH_MEASURE( 0.02539999999999999897 ), #122 );
#78 = LENGTH_MEASURE_WITH_UNIT ( LENGTH_MEASURE( 0.02539999999999999897 ), #268 );
#79 = PRODUCT ( '24512', '24512', '', ( #18 ) ) ;
#80 = ORIENTED_EDGE ( 'NONE', *, *, #109, .F. ) ;
#81 = CARTESIAN_POINT ( 'NONE',  ( -1.224646799147354440E-16, 6.000000000000000888, 0.000000000000000000 ) ) ;
#82 = DIMENSIONAL_EXPONENTS ( 1.000000000000000000, 0.000000000000000000, 0.000000000000000000, 0.000000000000000000, 0.000000000000000000, 0.000000000000000000, 0.000000000000000000 ) ;
#83 =( GEOMETRIC_REPRESENTATION_CONTEXT ( 3 ) GLOBAL_UNCERTAINTY_ASSIGNED_CONTEXT ( ( #64 ) ) GLOBAL_UNIT_ASSIGNED_CONTEXT ( ( #294, #181, #33 ) ) REPRESENTATION_CONTEXT ( 'NONE', 'WORKASPACE' ) );
#84 = FACE_OUTER_BOUND ( 'NONE', #11, .T. ) ;
#85 = UNCERTAINTY_MEASURE_WITH_UNIT (LENGTH_MEASURE( 1.000000000000000082E-05 ), #249, 'distance_accuracy_value', 'NONE');
#86 = ORIENTED_EDGE ( 'NONE', *, *, #272, .T. ) ;
#87 =( NAMED_UNIT ( * ) SI_UNIT ( $, .STERADIAN. ) SOLID_ANGLE_UNIT ( ) );
#88 = PRESENTATION_LAYER_ASSIGNMENT (  '', '', ( #140 ) ) ;
#89 = MECHANICAL_DESIGN_GEOMETRIC_PRESENTATION_REPRESENTATION (  '', ( #103 ), #148 ) ;
#90 = VECTOR ( 'NONE', #1, 39.37007874015748143 ) ;
#91 = DIRECTION ( 'NONE',  ( -4.453261087808560759E-17, 1.000000000000000000, -0.000000000000000000 ) ) ;
#92 = DIRECTION ( 'NONE',  ( -1.000000000000000000, 0.000000000000000000, 0.000000000000000000 ) ) ;
#93 = CARTESIAN_POINT ( 'NONE',  ( 0.000000000000000000, 0.000000000000000000, 0.000000000000000000 ) ) ;
#94 = DIRECTION ( 'NONE',  ( -0.000000000000000000, -1.000000000000000000, -0.000000000000000000 ) ) ;
#95 = DIRECTION ( 'NONE',  ( -1.000000000000000000, 0.000000000000000000, 0.000000000000000000 ) ) ;
#96 = EDGE_CURVE ( 'NONE', #299, #132, #203, .T. ) ;
#97 =( LENGTH_UNIT ( ) NAMED_UNIT ( * ) SI_UNIT ( $, .METRE. ) );
#98 = FILL_AREA_STYLE_COLOUR ( '', #99 ) ;
#99 = COLOUR_RGB ( '',0.7921568627450980005, 0.8196078431372548767, 0.9333333333333333481 ) ;
#100 = CARTESIAN_POINT ( 'NONE',  ( 0.000000000000000000, 0.000000000000000000, 0.000000000000000000 ) ) ;
#101 = UNCERTAINTY_MEASURE_WITH_UNIT (LENGTH_MEASURE( 1.000000000000000082E-05 ), #135, 'distance_accuracy_value', 'NONE');
#102 =( NAMED_UNIT ( * ) SI_UNIT ( $, .STERADIAN. ) SOLID_ANGLE_UNIT ( ) );
#103 = STYLED_ITEM ( 'NONE', ( #144 ), #273 ) ;
#104 = FACE_OUTER_BOUND ( 'NONE', #150, .T. ) ;
#105 = EDGE_CURVE ( 'NONE', #299, #274, #232, .T. ) ;
#106 = VERTEX_POINT ( 'NONE', #307 ) ;
#107 = ORIENTED_EDGE ( 'NONE', *, *, #229, .F. ) ;
#108 = AXIS2_PLACEMENT_3D ( 'NONE', #143, #237, #117 ) ;
#109 = EDGE_CURVE ( 'NONE', #132, #127, #30, .T. ) ;
#110 = CARTESIAN_POINT ( 'NONE',  ( 4.592425496802575451E-17, 3.250000000000000000, 0.3750000000000000555 ) ) ;
#111 = FILL_AREA_STYLE ('',( #46 ) ) ;
#112 = AXIS2_PLACEMENT_3D ( 'NONE', #81, #128, #126 ) ;
#113 = PRESENTATION_STYLE_ASSIGNMENT (( #173 ) ) ;
#114 = FACE_OUTER_BOUND ( 'NONE', #199, .T. ) ;
#115 = DIRECTION ( 'NONE',  ( -1.000000000000000000, 0.000000000000000000, 0.000000000000000000 ) ) ;
#116 =( CONVERSION_BASED_UNIT ( 'INCH', #216 ) LENGTH_UNIT ( ) NAMED_UNIT ( #82 ) );
#117 = DIRECTION ( 'NONE',  ( 0.000000000000000000, 0.000000000000000000, -1.000000000000000000 ) ) ;
#118 =( LENGTH_UNIT ( ) NAMED_UNIT ( * ) SI_UNIT ( $, .METRE. ) );
#119 = CIRCLE ( 'NONE', #41, 0.3750000000000000555 ) ;
#120 = DIRECTION ( 'NONE',  ( 0.000000000000000000, -1.000000000000000000, -0.000000000000000000 ) ) ;
#121 = SURFACE_STYLE_FILL_AREA ( #52 ) ;
#122 =( LENGTH_UNIT ( ) NAMED_UNIT ( * ) SI_UNIT ( $, .METRE. ) );
#123 = SURFACE_SIDE_STYLE ('',( #226 ) ) ;
#124 = SURFACE_STYLE_FILL_AREA ( #263 ) ;
#125 = AXIS2_PLACEMENT_3D ( 'NONE', #139, #256, #22 ) ;
#126 = DIRECTION ( 'NONE',  ( -1.000000000000000000, 0.000000000000000000, 0.000000000000000000 ) ) ;
#127 = VERTEX_POINT ( 'NONE', #254 ) ;
#128 = DIRECTION ( 'NONE',  ( -4.453261087808560759E-17, 1.000000000000000000, -0.000000000000000000 ) ) ;
#129 = ORIENTED_EDGE ( 'NONE', *, *, #208, .F. ) ;
#130 =( GEOMETRIC_REPRESENTATION_CONTEXT ( 3 ) GLOBAL_UNCERTAINTY_ASSIGNED_CONTEXT ( ( #182 ) ) GLOBAL_UNIT_ASSIGNED_CONTEXT ( ( #9, #292, #220 ) ) REPRESENTATION_CONTEXT ( 'NONE', 'WORKASPACE' ) );
#131 = PRODUCT_DEFINITION_CONTEXT ( 'detailed design', #12, 'design' ) ;
#132 = VERTEX_POINT ( 'NONE', #303 ) ;
#133 = ORIENTED_EDGE ( 'NONE', *, *, #176, .F. ) ;
#134 = ORIENTED_EDGE ( 'NONE', *, *, #194, .T. ) ;
#135 =( CONVERSION_BASED_UNIT ( 'INCH', #28 ) LENGTH_UNIT ( ) NAMED_UNIT ( #138 ) );
#136 = EDGE_CURVE ( 'NONE', #106, #207, #189, .T. ) ;
#137 = DIRECTION ( 'NONE',  ( -4.453261087808560759E-17, 1.000000000000000000, -0.000000000000000000 ) ) ;
#138 = DIMENSIONAL_EXPONENTS ( 1.000000000000000000, 0.000000000000000000, 0.000000000000000000, 0.000000000000000000, 0.000000000000000000, 0.000000000000000000, 0.000000000000000000 ) ;
#139 = CARTESIAN_POINT ( 'NONE',  ( 3.718412684285603637E-34, 3.250000000000000000, 0.000000000000000000 ) ) ;
#140 = STYLED_ITEM ( 'NONE', ( #34 ), #180 ) ;
#141 = CARTESIAN_POINT ( 'NONE',  ( 4.592425496802575451E-17, 0.000000000000000000, 0.3750000000000000555 ) ) ;
#142 =( NAMED_UNIT ( * ) PLANE_ANGLE_UNIT ( ) SI_UNIT ( $, .RADIAN. ) );
#143 = CARTESIAN_POINT ( 'NONE',  ( 0.000000000000000000, 3.250000000000000000, 0.000000000000000000 ) ) ;
#144 = PRESENTATION_STYLE_ASSIGNMENT (( #280 ) ) ;
#145 = CARTESIAN_POINT ( 'NONE',  ( -1.224646799147354440E-16, 6.000000000000000888, 0.000000000000000000 ) ) ;
#146 = PLANE ( 'NONE',  #125 ) ;
#147 = SURFACE_STYLE_USAGE ( .BOTH. , #32 ) ;
#148 =( GEOMETRIC_REPRESENTATION_CONTEXT ( 3 ) GLOBAL_UNCERTAINTY_ASSIGNED_CONTEXT ( ( #188 ) ) GLOBAL_UNIT_ASSIGNED_CONTEXT ( ( #309, #58, #102 ) ) REPRESENTATION_CONTEXT ( 'NONE', 'WORKASPACE' ) );
#149 = CYLINDRICAL_SURFACE ( 'NONE', #112, 0.3750000000000001110 ) ;
#150 = EDGE_LOOP ( 'NONE', ( #250, #13, #225, #80 ) ) ;
#151 = LENGTH_MEASURE_WITH_UNIT ( LENGTH_MEASURE( 0.02539999999999999897 ), #158 );
#152 = ADVANCED_FACE ( 'NONE', ( #69 ), #168, .T. ) ;
#153 = ORIENTED_EDGE ( 'NONE', *, *, #176, .T. ) ;
#154 = FILL_AREA_STYLE ('',( #61 ) ) ;
#155 =( LENGTH_UNIT ( ) NAMED_UNIT ( * ) SI_UNIT ( $, .METRE. ) );
#156 = AXIS2_PLACEMENT_3D ( 'NONE', #305, #261, #172 ) ;
#157 = ORIENTED_EDGE ( 'NONE', *, *, #96, .F. ) ;
#158 =( LENGTH_UNIT ( ) NAMED_UNIT ( * ) SI_UNIT ( $, .METRE. ) );
#159 = VERTEX_POINT ( 'NONE', #141 ) ;
#160 = AXIS2_PLACEMENT_3D ( 'NONE', #68, #45, #283 ) ;
#161 = STYLED_ITEM ( 'NONE', ( #67 ), #266 ) ;
#162 = EDGE_LOOP ( 'NONE', ( #10, #39, #253, #205 ) ) ;
#163 = ORIENTED_EDGE ( 'NONE', *, *, #229, .T. ) ;
#164 = ORIENTED_EDGE ( 'NONE', *, *, #227, .F. ) ;
#165 = CIRCLE ( 'NONE', #304, 0.3750000000000000555 ) ;
#166 = PRESENTATION_LAYER_ASSIGNMENT (  '', '', ( #103 ) ) ;
#167 = EDGE_CURVE ( 'NONE', #127, #274, #63, .T. ) ;
#168 = PLANE ( 'NONE',  #74 ) ;
#169 = CARTESIAN_POINT ( 'NONE',  ( 4.592425496802575451E-17, 0.000000000000000000, 0.3750000000000000555 ) ) ;
#170 = DIMENSIONAL_EXPONENTS ( 1.000000000000000000, 0.000000000000000000, 0.000000000000000000, 0.000000000000000000, 0.000000000000000000, 0.000000000000000000, 0.000000000000000000 ) ;
#171 = CARTESIAN_POINT ( 'NONE',  ( 0.000000000000000000, 3.250000000000000000, 0.000000000000000000 ) ) ;
#172 = DIRECTION ( 'NONE',  ( -1.000000000000000000, 0.000000000000000000, 0.000000000000000000 ) ) ;
#173 = SURFACE_STYLE_USAGE ( .BOTH. , #23 ) ;
#174 = CARTESIAN_POINT ( 'NONE',  ( -1.224646799147354440E-16, 6.000000000000000888, 0.000000000000000000 ) ) ;
#175 = FILL_AREA_STYLE ('',( #233 ) ) ;
#176 = EDGE_CURVE ( 'NONE', #76, #106, #247, .T. ) ;
#177 = DIRECTION ( 'NONE',  ( 0.000000000000000000, 0.000000000000000000, -1.000000000000000000 ) ) ;
#178 = EDGE_LOOP ( 'NONE', ( #129, #157 ) ) ;
#179 = ORIENTED_EDGE ( 'NONE', *, *, #136, .T. ) ;
#180 = MANIFOLD_SOLID_BREP ( 'Revolve - Cutting Edge', #286 ) ;
#181 =( NAMED_UNIT ( * ) PLANE_ANGLE_UNIT ( ) SI_UNIT ( $, .RADIAN. ) );
#182 = UNCERTAINTY_MEASURE_WITH_UNIT (LENGTH_MEASURE( 1.000000000000000082E-05 ), #9, 'distance_accuracy_value', 'NONE');
#183 = PRESENTATION_LAYER_ASSIGNMENT (  '', '', ( #276 ) ) ;
#184 = PRODUCT_RELATED_PRODUCT_CATEGORY ( 'part', '', ( #79 ) ) ;
#185 = COLOUR_RGB ( '',1.000000000000000000, 0.000000000000000000, 0.000000000000000000 ) ;
#186 = DIRECTION ( 'NONE',  ( -0.000000000000000000, -1.000000000000000000, -0.000000000000000000 ) ) ;
#187 = AXIS2_PLACEMENT_3D ( 'NONE', #240, #120, #214 ) ;
#188 = UNCERTAINTY_MEASURE_WITH_UNIT (LENGTH_MEASURE( 1.000000000000000082E-05 ), #309, 'distance_accuracy_value', 'NONE');
#189 = LINE ( 'NONE', #66, #90 ) ;
#190 = SURFACE_SIDE_STYLE ('',( #279 ) ) ;
#191 = CARTESIAN_POINT ( 'NONE',  ( 0.3749999999999999445, 6.000000000000000888, 4.592425496802576068E-17 ) ) ;
#192 = DIMENSIONAL_EXPONENTS ( 1.000000000000000000, 0.000000000000000000, 0.000000000000000000, 0.000000000000000000, 0.000000000000000000, 0.000000000000000000, 0.000000000000000000 ) ;
#193 =( NAMED_UNIT ( * ) SI_UNIT ( $, .STERADIAN. ) SOLID_ANGLE_UNIT ( ) );
#194 = EDGE_CURVE ( 'NONE', #159, #207, #251, .T. ) ;
#195 = FACE_OUTER_BOUND ( 'NONE', #271, .T. ) ;
#196 = CYLINDRICAL_SURFACE ( 'NONE', #31, 0.3750000000000000555 ) ;
#197 = PRODUCT_DEFINITION ( 'UNKNOWN', '', #296, #131 ) ;
#198 = CARTESIAN_POINT ( 'NONE',  ( 0.3750000000000000555, 3.250000000000000000, 4.592425496802576684E-17 ) ) ;
#199 = EDGE_LOOP ( 'NONE', ( #163, #134 ) ) ;
#200 = PRODUCT_DEFINITION_SHAPE ( 'NONE', 'NONE',  #197 ) ;
#201 = ADVANCED_FACE ( 'NONE', ( #36 ), #196, .T. ) ;
#202 = CARTESIAN_POINT ( 'NONE',  ( 0.3750000000000000555, 6.000000000000000888, 4.592425496802576684E-17 ) ) ;
#203 = CIRCLE ( 'NONE', #24, 0.3750000000000000555 ) ;
#204 = MECHANICAL_DESIGN_GEOMETRIC_PRESENTATION_REPRESENTATION (  '', ( #276 ), #130 ) ;
#205 = ORIENTED_EDGE ( 'NONE', *, *, #272, .F. ) ;
#206 = PRESENTATION_LAYER_ASSIGNMENT (  '', '', ( #281 ) ) ;
#207 = VERTEX_POINT ( 'NONE', #242 ) ;
#208 = EDGE_CURVE ( 'NONE', #132, #299, #42, .T. ) ;
#209 = DIRECTION ( 'NONE',  ( -4.453261087808560759E-17, 1.000000000000000000, -0.000000000000000000 ) ) ;
#210 =( GEOMETRIC_REPRESENTATION_CONTEXT ( 3 ) GLOBAL_UNCERTAINTY_ASSIGNED_CONTEXT ( ( #101 ) ) GLOBAL_UNIT_ASSIGNED_CONTEXT ( ( #135, #238, #218 ) ) REPRESENTATION_CONTEXT ( 'NONE', 'WORKASPACE' ) );
#211 = MECHANICAL_DESIGN_GEOMETRIC_PRESENTATION_REPRESENTATION (  '', ( #281 ), #17 ) ;
#212 = SURFACE_STYLE_USAGE ( .BOTH. , #190 ) ;
#213 = CARTESIAN_POINT ( 'NONE',  ( 0.000000000000000000, 3.250000000000000000, 0.000000000000000000 ) ) ;
#214 = DIRECTION ( 'NONE',  ( 0.000000000000000000, 0.000000000000000000, -1.000000000000000000 ) ) ;
#215 = DIRECTION ( 'NONE',  ( -0.000000000000000000, -1.000000000000000000, -0.000000000000000000 ) ) ;
#216 = LENGTH_MEASURE_WITH_UNIT ( LENGTH_MEASURE( 0.02539999999999999897 ), #258 );
#217 = DIRECTION ( 'NONE',  ( -4.453261087808560759E-17, 1.000000000000000000, -0.000000000000000000 ) ) ;
#218 =( NAMED_UNIT ( * ) SI_UNIT ( $, .STERADIAN. ) SOLID_ANGLE_UNIT ( ) );
#219 = SURFACE_STYLE_FILL_AREA ( #27 ) ;
#220 =( NAMED_UNIT ( * ) SI_UNIT ( $, .STERADIAN. ) SOLID_ANGLE_UNIT ( ) );
#221 = VECTOR ( 'NONE', #91, 39.37007874015748143 ) ;
#222 = SURFACE_SIDE_STYLE ('',( #124 ) ) ;
#223 = MECHANICAL_DESIGN_GEOMETRIC_PRESENTATION_REPRESENTATION (  '', ( #161 ), #302 ) ;
#224 = LENGTH_MEASURE_WITH_UNIT ( LENGTH_MEASURE( 0.02539999999999999897 ), #155 );
#225 = ORIENTED_EDGE ( 'NONE', *, *, #167, .F. ) ;
#226 = SURFACE_STYLE_FILL_AREA ( #154 ) ;
#227 = EDGE_CURVE ( 'NONE', #76, #159, #49, .T. ) ;
#228 = CARTESIAN_POINT ( 'NONE',  ( 0.000000000000000000, 0.000000000000000000, 0.000000000000000000 ) ) ;
#229 = EDGE_CURVE ( 'NONE', #207, #159, #119, .T. ) ;
#230 = EDGE_LOOP ( 'NONE', ( #298, #133 ) ) ;
#231 = DIRECTION ( 'NONE',  ( 0.000000000000000000, 0.000000000000000000, 1.000000000000000000 ) ) ;
#232 = LINE ( 'NONE', #191, #221 ) ;
#233 = FILL_AREA_STYLE_COLOUR ( '', #16 ) ;
#234 = COLOUR_RGB ( '',1.000000000000000000, 0.000000000000000000, 0.000000000000000000 ) ;
#235 = PLANE ( 'NONE',  #187 ) ;
#236 = CARTESIAN_POINT ( 'NONE',  ( -1.224646799147354440E-16, 6.000000000000000888, 0.000000000000000000 ) ) ;
#237 = DIRECTION ( 'NONE',  ( -0.000000000000000000, -1.000000000000000000, -0.000000000000000000 ) ) ;
#238 =( NAMED_UNIT ( * ) PLANE_ANGLE_UNIT ( ) SI_UNIT ( $, .RADIAN. ) );
#239 = STYLED_ITEM ( 'NONE', ( #113 ), #152 ) ;
#240 = CARTESIAN_POINT ( 'NONE',  ( 0.000000000000000000, 0.000000000000000000, 0.000000000000000000 ) ) ;
#241 = AXIS2_PLACEMENT_3D ( 'NONE', #174, #306, #70 ) ;
#242 = CARTESIAN_POINT ( 'NONE',  ( 0.000000000000000000, 0.000000000000000000, -0.3750000000000000555 ) ) ;
#243 =( NAMED_UNIT ( * ) PLANE_ANGLE_UNIT ( ) SI_UNIT ( $, .RADIAN. ) );
#244 = DIRECTION ( 'NONE',  ( -0.000000000000000000, -1.000000000000000000, -0.000000000000000000 ) ) ;
#245 = EDGE_LOOP ( 'NONE', ( #164, #153, #179, #21 ) ) ;
#246 = PRESENTATION_STYLE_ASSIGNMENT (( #8 ) ) ;
#247 = CIRCLE ( 'NONE', #108, 0.3750000000000000555 ) ;
#248 = ADVANCED_FACE ( 'NONE', ( #51 ), #146, .F. ) ;
#249 =( CONVERSION_BASED_UNIT ( 'INCH', #151 ) LENGTH_UNIT ( ) NAMED_UNIT ( #265 ) );
#250 = ORIENTED_EDGE ( 'NONE', *, *, #208, .T. ) ;
#251 = CIRCLE ( 'NONE', #43, 0.3750000000000000555 ) ;
#252 = SHAPE_DEFINITION_REPRESENTATION ( #200, #20 ) ;
#253 = ORIENTED_EDGE ( 'NONE', *, *, #109, .T. ) ;
#254 = CARTESIAN_POINT ( 'NONE',  ( -0.3750000000000002776, 6.000000000000000888, 0.000000000000000000 ) ) ;
#255 = CARTESIAN_POINT ( 'NONE',  ( 0.000000000000000000, 3.250000000000000000, 0.000000000000000000 ) ) ;
#256 = DIRECTION ( 'NONE',  ( -4.453261087808560759E-17, 1.000000000000000000, 0.000000000000000000 ) ) ;
#257 = MECHANICAL_DESIGN_GEOMETRIC_PRESENTATION_REPRESENTATION (  '', ( #140 ), #57 ) ;
#258 =( LENGTH_UNIT ( ) NAMED_UNIT ( * ) SI_UNIT ( $, .METRE. ) );
#259 = FACE_OUTER_BOUND ( 'NONE', #162, .T. ) ;
#260 = DIRECTION ( 'NONE',  ( -0.000000000000000000, -1.000000000000000000, -0.000000000000000000 ) ) ;
#261 = DIRECTION ( 'NONE',  ( -4.453261087808560759E-17, 1.000000000000000000, -0.000000000000000000 ) ) ;
#262 = COLOUR_RGB ( '',0.7921568627450980005, 0.8196078431372548767, 0.9333333333333333481 ) ;
#263 = FILL_AREA_STYLE ('',( #290 ) ) ;
#264 =( NAMED_UNIT ( * ) SI_UNIT ( $, .STERADIAN. ) SOLID_ANGLE_UNIT ( ) );
#265 = DIMENSIONAL_EXPONENTS ( 1.000000000000000000, 0.000000000000000000, 0.000000000000000000, 0.000000000000000000, 0.000000000000000000, 0.000000000000000000, 0.000000000000000000 ) ;
#266 = ADVANCED_FACE ( 'NONE', ( #114 ), #235, .T. ) ;
#267 = APPLICATION_CONTEXT ( 'automotive_design' ) ;
#268 =( LENGTH_UNIT ( ) NAMED_UNIT ( * ) SI_UNIT ( $, .METRE. ) );
#269 = AXIS2_PLACEMENT_3D ( 'NONE', #236, #26, #115 ) ;
#270 = ORIENTED_EDGE ( 'NONE', *, *, #136, .F. ) ;
#271 = EDGE_LOOP ( 'NONE', ( #7, #86 ) ) ;
#272 = EDGE_CURVE ( 'NONE', #274, #127, #25, .T. ) ;
#273 = MANIFOLD_SOLID_BREP ( 'Revolve - Tool Body (Straight Shanked)', #295 ) ;
#274 = VERTEX_POINT ( 'NONE', #202 ) ;
#275 = PRESENTATION_LAYER_ASSIGNMENT (  '', '', ( #239 ) ) ;
#276 = STYLED_ITEM ( 'NONE', ( #56 ), #201 ) ;
#277 = CYLINDRICAL_SURFACE ( 'NONE', #301, 0.3750000000000001110 ) ;
#278 = ADVANCED_FACE ( 'NONE', ( #84 ), #72, .T. ) ;
#279 = SURFACE_STYLE_FILL_AREA ( #111 ) ;
#280 = SURFACE_STYLE_USAGE ( .BOTH. , #3 ) ;
#281 = STYLED_ITEM ( 'NONE', ( #246 ), #278 ) ;
#282 = DIRECTION ( 'NONE',  ( 0.000000000000000000, 0.000000000000000000, -1.000000000000000000 ) ) ;
#283 = DIRECTION ( 'NONE',  ( 1.000000000000000000, 4.453261087808560759E-17, 0.000000000000000000 ) ) ;
#284 = LENGTH_MEASURE_WITH_UNIT ( LENGTH_MEASURE( 0.02539999999999999897 ), #97 );
#285 = DIRECTION ( 'NONE',  ( -0.000000000000000000, -1.000000000000000000, -0.000000000000000000 ) ) ;
#286 = CLOSED_SHELL ( 'NONE', ( #278, #152, #201, #266 ) ) ;
#287 = CARTESIAN_POINT ( 'NONE',  ( 0.000000000000000000, 0.000000000000000000, 0.000000000000000000 ) ) ;
#288 = VECTOR ( 'NONE', #260, 39.37007874015748143 ) ;
#289 =( CONVERSION_BASED_UNIT ( 'INCH', #77 ) LENGTH_UNIT ( ) NAMED_UNIT ( #170 ) );
#290 = FILL_AREA_STYLE_COLOUR ( '', #185 ) ;
#291 = UNCERTAINTY_MEASURE_WITH_UNIT (LENGTH_MEASURE( 1.000000000000000082E-05 ), #289, 'distance_accuracy_value', 'NONE');
#292 =( NAMED_UNIT ( * ) PLANE_ANGLE_UNIT ( ) SI_UNIT ( $, .RADIAN. ) );
#293 = ORIENTED_EDGE ( 'NONE', *, *, #5, .T. ) ;
#294 =( CONVERSION_BASED_UNIT ( 'INCH', #78 ) LENGTH_UNIT ( ) NAMED_UNIT ( #2 ) );
#295 = CLOSED_SHELL ( 'NONE', ( #297, #248, #54, #14 ) ) ;
#296 = PRODUCT_DEFINITION_FORMATION_WITH_SPECIFIED_SOURCE ( 'ANY', '', #79, .NOT_KNOWN. ) ;
#297 = ADVANCED_FACE ( 'NONE', ( #104 ), #149, .T. ) ;
#298 = ORIENTED_EDGE ( 'NONE', *, *, #5, .F. ) ;
#299 = VERTEX_POINT ( 'NONE', #198 ) ;
#300 = DIRECTION ( 'NONE',  ( 1.000000000000000000, 0.000000000000000000, 0.000000000000000000 ) ) ;
#301 = AXIS2_PLACEMENT_3D ( 'NONE', #145, #217, #95 ) ;
#302 =( GEOMETRIC_REPRESENTATION_CONTEXT ( 3 ) GLOBAL_UNCERTAINTY_ASSIGNED_CONTEXT ( ( #59 ) ) GLOBAL_UNIT_ASSIGNED_CONTEXT ( ( #116, #142, #193 ) ) REPRESENTATION_CONTEXT ( 'NONE', 'WORKASPACE' ) );
#303 = CARTESIAN_POINT ( 'NONE',  ( -0.3750000000000000555, 3.250000000000000000, 0.000000000000000000 ) ) ;
#304 = AXIS2_PLACEMENT_3D ( 'NONE', #213, #215, #282 ) ;
#305 = CARTESIAN_POINT ( 'NONE',  ( 0.000000000000000000, 3.250000000000000000, 0.000000000000000000 ) ) ;
#306 = DIRECTION ( 'NONE',  ( -4.453261087808560759E-17, 1.000000000000000000, -0.000000000000000000 ) ) ;
#307 = CARTESIAN_POINT ( 'NONE',  ( 0.000000000000000000, 3.250000000000000000, -0.3750000000000000555 ) ) ;
#308 = CARTESIAN_POINT ( 'NONE',  ( 0.000000000000000000, 0.000000000000000000, 0.000000000000000000 ) ) ;
#309 =( CONVERSION_BASED_UNIT ( 'INCH', #284 ) LENGTH_UNIT ( ) NAMED_UNIT ( #60 ) );
ENDSEC;
END-ISO-10303-21;
