ISO-10303-21;
HEADER;
FILE_DESCRIPTION (( 'STEP AP214' ),
    '1' );
FILE_NAME ('Micro_SEM-500-02.STEP',
    '2021-09-02T03:21:23',
    ( '' ),
    ( '' ),
    'SwSTEP 2.0',
    'SolidWorks 2020',
    '' );
FILE_SCHEMA (( 'AUTOMOTIVE_DESIGN' ));
ENDSEC;

DATA;
#1 = PLANE ( 'NONE',  #227 ) ;
#2 = ADVANCED_FACE ( 'NONE', ( #21 ), #248, .T. ) ;
#3 = CIRCLE ( 'NONE', #72, 0.2500000000000000000 ) ;
#4 = EDGE_CURVE ( 'NONE', #67, #149, #134, .T. ) ;
#5 =( NAMED_UNIT ( * ) SI_UNIT ( $, .STERADIAN. ) SOLID_ANGLE_UNIT ( ) );
#6 = AXIS2_PLACEMENT_3D ( 'NONE', #196, #202, #268 ) ;
#7 =( GEOMETRIC_REPRESENTATION_CONTEXT ( 3 ) GLOBAL_UNCERTAINTY_ASSIGNED_CONTEXT ( ( #281 ) ) GLOBAL_UNIT_ASSIGNED_CONTEXT ( ( #279, #206, #5 ) ) REPRESENTATION_CONTEXT ( 'NONE', 'WORKASPACE' ) );
#8 = SURFACE_STYLE_FILL_AREA ( #47 ) ;
#9 = ORIENTED_EDGE ( 'NONE', *, *, #172, .F. ) ;
#10 =( CONVERSION_BASED_UNIT ( 'INCH', #291 ) LENGTH_UNIT ( ) NAMED_UNIT ( #80 ) );
#11 = EDGE_CURVE ( 'NONE', #103, #189, #84, .T. ) ;
#12 = AXIS2_PLACEMENT_3D ( 'NONE', #213, #115, #60 ) ;
#13 = VERTEX_POINT ( 'NONE', #58 ) ;
#14 = FILL_AREA_STYLE_COLOUR ( '', #66 ) ;
#15 = ORIENTED_EDGE ( 'NONE', *, *, #4, .F. ) ;
#16 = EDGE_LOOP ( 'NONE', ( #236, #230, #183, #124 ) ) ;
#17 = CARTESIAN_POINT ( 'NONE',  ( 0.0000000000000000000, 0.0000000000000000000, 2.500000000000000000 ) ) ;
#18 = VERTEX_POINT ( 'NONE', #158 ) ;
#19 = CARTESIAN_POINT ( 'NONE',  ( 0.2500000000000000000, 3.061616997868383018E-17, 2.500000000000000000 ) ) ;
#20 = DIRECTION ( 'NONE',  ( -1.000000000000000000, 0.0000000000000000000, 0.0000000000000000000 ) ) ;
#21 = FACE_OUTER_BOUND ( 'NONE', #293, .T. ) ;
#22 = ADVANCED_BREP_SHAPE_REPRESENTATION ( 'Micro_SEM-500-02', ( #160, #6 ), #180 ) ;
#23 = CARTESIAN_POINT ( 'NONE',  ( 7.671405787489599085E-17, 0.0000000000000000000, 0.6264178204549043505 ) ) ;
#24 = AXIS2_PLACEMENT_3D ( 'NONE', #70, #91, #178 ) ;
#25 = MECHANICAL_DESIGN_GEOMETRIC_PRESENTATION_REPRESENTATION (  '', ( #111 ), #151 ) ;
#26 = ORIENTED_EDGE ( 'NONE', *, *, #186, .T. ) ;
#27 = VECTOR ( 'NONE', #61, 39.37007874015748143 ) ;
#28 = DIRECTION ( 'NONE',  ( -1.000000000000000000, 0.0000000000000000000, 1.224646799147353454E-16 ) ) ;
#29 = CARTESIAN_POINT ( 'NONE',  ( 0.2497500000000000830, 0.0000000000000000000, 0.6250000000000000000 ) ) ;
#30 = VERTEX_POINT ( 'NONE', #207 ) ;
#31 = ORIENTED_EDGE ( 'NONE', *, *, #186, .F. ) ;
#32 = STYLED_ITEM ( 'NONE', ( #242 ), #160 ) ;
#33 = ORIENTED_EDGE ( 'NONE', *, *, #264, .T. ) ;
#34 = ORIENTED_EDGE ( 'NONE', *, *, #104, .T. ) ;
#35 = PRESENTATION_STYLE_ASSIGNMENT (( #162 ) ) ;
#36 = DIRECTION ( 'NONE',  ( -0.0000000000000000000, -0.0000000000000000000, -1.000000000000000000 ) ) ;
#37 = DIRECTION ( 'NONE',  ( -1.224646799147353207E-16, -0.0000000000000000000, -1.000000000000000000 ) ) ;
#38 =( NAMED_UNIT ( * ) SI_UNIT ( $, .STERADIAN. ) SOLID_ANGLE_UNIT ( ) );
#39 = ORIENTED_EDGE ( 'NONE', *, *, #129, .F. ) ;
#40 = AXIS2_PLACEMENT_3D ( 'NONE', #282, #259, #140 ) ;
#41 = LENGTH_MEASURE_WITH_UNIT ( LENGTH_MEASURE( 0.02539999999999999897 ), #168 );
#42 = AXIS2_PLACEMENT_3D ( 'NONE', #97, #286, #265 ) ;
#43 = CARTESIAN_POINT ( 'NONE',  ( -0.2500000000000000000, 0.0000000000000000000, 2.500000000000000000 ) ) ;
#44 = EDGE_CURVE ( 'NONE', #30, #98, #297, .T. ) ;
#45 = FACE_OUTER_BOUND ( 'NONE', #116, .T. ) ;
#46 = CARTESIAN_POINT ( 'NONE',  ( 0.2497500000000000830, 0.0000000000000000000, 0.6250000000000000000 ) ) ;
#47 = FILL_AREA_STYLE ('',( #74 ) ) ;
#48 = PRODUCT_DEFINITION_CONTEXT ( 'detailed design', #65, 'design' ) ;
#49 = EDGE_LOOP ( 'NONE', ( #101, #26, #33, #252 ) ) ;
#50 = ORIENTED_EDGE ( 'NONE', *, *, #182, .T. ) ;
#51 = SURFACE_SIDE_STYLE ('',( #8 ) ) ;
#52 = PRESENTATION_LAYER_ASSIGNMENT (  '', '', ( #32 ) ) ;
#53 =( CONVERSION_BASED_UNIT ( 'INCH', #82 ) LENGTH_UNIT ( ) NAMED_UNIT ( #274 ) );
#54 = DIRECTION ( 'NONE',  ( 1.000000000000000000, 0.0000000000000000000, 0.0000000000000000000 ) ) ;
#55 = FACE_OUTER_BOUND ( 'NONE', #16, .T. ) ;
#56 = ORIENTED_EDGE ( 'NONE', *, *, #129, .T. ) ;
#57 = DIMENSIONAL_EXPONENTS ( 1.000000000000000000, 0.0000000000000000000, 0.0000000000000000000, 0.0000000000000000000, 0.0000000000000000000, 0.0000000000000000000, 0.0000000000000000000 ) ;
#58 = CARTESIAN_POINT ( 'NONE',  ( 0.2500000000000000555, 3.061616997868383634E-17, 0.6264178204549043505 ) ) ;
#59 = DIRECTION ( 'NONE',  ( -1.000000000000000000, 0.0000000000000000000, 0.0000000000000000000 ) ) ;
#60 = DIRECTION ( 'NONE',  ( -1.000000000000000000, 0.0000000000000000000, 0.0000000000000000000 ) ) ;
#61 = DIRECTION ( 'NONE',  ( -0.0000000000000000000, -0.0000000000000000000, -1.000000000000000000 ) ) ;
#62 = FACE_OUTER_BOUND ( 'NONE', #76, .T. ) ;
#63 = CARTESIAN_POINT ( 'NONE',  ( 3.745650057197989622E-33, 0.0000000000000000000, 3.058555380870514950E-17 ) ) ;
#64 = LINE ( 'NONE', #46, #137 ) ;
#65 = APPLICATION_CONTEXT ( 'automotive_design' ) ;
#66 = COLOUR_RGB ( '',0.7921568627450980005, 0.8196078431372548767, 0.9333333333333333481 ) ;
#67 = VERTEX_POINT ( 'NONE', #109 ) ;
#68 = FACE_OUTER_BOUND ( 'NONE', #155, .T. ) ;
#69 = DIRECTION ( 'NONE',  ( -0.0000000000000000000, -0.0000000000000000000, -1.000000000000000000 ) ) ;
#70 = CARTESIAN_POINT ( 'NONE',  ( 0.0000000000000000000, 0.0000000000000000000, 0.0000000000000000000 ) ) ;
#71 = DIRECTION ( 'NONE',  ( 1.000000000000000000, 0.0000000000000000000, 0.0000000000000000000 ) ) ;
#72 = AXIS2_PLACEMENT_3D ( 'NONE', #23, #89, #192 ) ;
#73 = AXIS2_PLACEMENT_3D ( 'NONE', #83, #166, #139 ) ;
#74 = FILL_AREA_STYLE_COLOUR ( '', #278 ) ;
#75 =( NAMED_UNIT ( * ) SI_UNIT ( $, .STERADIAN. ) SOLID_ANGLE_UNIT ( ) );
#76 = EDGE_LOOP ( 'NONE', ( #201, #226 ) ) ;
#77 = CYLINDRICAL_SURFACE ( 'NONE', #258, 0.2500000000000000000 ) ;
#78 = ORIENTED_EDGE ( 'NONE', *, *, #44, .T. ) ;
#79 = ORIENTED_EDGE ( 'NONE', *, *, #204, .T. ) ;
#80 = DIMENSIONAL_EXPONENTS ( 1.000000000000000000, 0.0000000000000000000, 0.0000000000000000000, 0.0000000000000000000, 0.0000000000000000000, 0.0000000000000000000, 0.0000000000000000000 ) ;
#81 = PRODUCT_DEFINITION ( 'UNKNOWN', '', #128, #48 ) ;
#82 = LENGTH_MEASURE_WITH_UNIT ( LENGTH_MEASURE( 0.02539999999999999897 ), #270 );
#83 = CARTESIAN_POINT ( 'NONE',  ( 0.0000000000000000000, 0.0000000000000000000, 2.500000000000000000 ) ) ;
#84 = LINE ( 'NONE', #110, #169 ) ;
#85 = CONICAL_SURFACE ( 'NONE', #261, 0.2497499999999999998, 0.1745329251994339192 ) ;
#86 = ADVANCED_FACE ( 'NONE', ( #62 ), #1, .T. ) ;
#87 = UNCERTAINTY_MEASURE_WITH_UNIT (LENGTH_MEASURE( 1.000000000000000082E-05 ), #10, 'distance_accuracy_value', 'NONE');
#88 = CIRCLE ( 'NONE', #42, 0.2500000000000000000 ) ;
#89 = DIRECTION ( 'NONE',  ( -1.224646799147353207E-16, -0.0000000000000000000, -1.000000000000000000 ) ) ;
#90 = EDGE_CURVE ( 'NONE', #18, #149, #256, .T. ) ;
#91 = DIRECTION ( 'NONE',  ( -1.224646799147353207E-16, -0.0000000000000000000, -1.000000000000000000 ) ) ;
#92 = DIRECTION ( 'NONE',  ( 1.224646799147353207E-16, 0.0000000000000000000, 1.000000000000000000 ) ) ;
#93 = DIRECTION ( 'NONE',  ( -0.7071067811865330288, 0.0000000000000000000, -0.7071067811865618946 ) ) ;
#94 = PRODUCT_RELATED_PRODUCT_CATEGORY ( 'part', '', ( #273 ) ) ;
#95 = ORIENTED_EDGE ( 'NONE', *, *, #114, .T. ) ;
#96 = CARTESIAN_POINT ( 'NONE',  ( 0.0000000000000000000, 0.0000000000000000000, 2.500000000000000000 ) ) ;
#97 = CARTESIAN_POINT ( 'NONE',  ( 0.0000000000000000000, 0.0000000000000000000, 2.484999999999999876 ) ) ;
#98 = VERTEX_POINT ( 'NONE', #217 ) ;
#99 = AXIS2_PLACEMENT_3D ( 'NONE', #132, #161, #59 ) ;
#100 = DIRECTION ( 'NONE',  ( -1.000000000000000000, 0.0000000000000000000, 0.0000000000000000000 ) ) ;
#101 = ORIENTED_EDGE ( 'NONE', *, *, #294, .F. ) ;
#102 = ORIENTED_EDGE ( 'NONE', *, *, #172, .T. ) ;
#103 = VERTEX_POINT ( 'NONE', #239 ) ;
#104 = EDGE_CURVE ( 'NONE', #149, #13, #235, .T. ) ;
#105 = DIRECTION ( 'NONE',  ( 1.000000000000000000, 0.0000000000000000000, 0.0000000000000000000 ) ) ;
#106 = DIRECTION ( 'NONE',  ( 0.7071067811865330288, 8.659560562354755364E-17, -0.7071067811865618946 ) ) ;
#107 = CARTESIAN_POINT ( 'NONE',  ( 7.654042494670957853E-17, 0.0000000000000000000, 0.6250000000000000000 ) ) ;
#108 = FILL_AREA_STYLE ('',( #14 ) ) ;
#109 = CARTESIAN_POINT ( 'NONE',  ( -0.2497499999999999443, 3.060086189369449292E-17, 0.6250000000000000000 ) ) ;
#110 = CARTESIAN_POINT ( 'NONE',  ( 0.2350000000000003753, 2.877919977996284141E-17, 2.500000000000000000 ) ) ;
#111 = STYLED_ITEM ( 'NONE', ( #35 ), #22 ) ;
#112 = CIRCLE ( 'NONE', #254, 0.2350000000000003753 ) ;
#113 = CIRCLE ( 'NONE', #280, 0.2497499999999999998 ) ;
#114 = EDGE_CURVE ( 'NONE', #18, #189, #127, .T. ) ;
#115 = DIRECTION ( 'NONE',  ( 0.0000000000000000000, 0.0000000000000000000, -1.000000000000000000 ) ) ;
#116 = EDGE_LOOP ( 'NONE', ( #95, #79, #121, #185 ) ) ;
#117 = EDGE_CURVE ( 'NONE', #269, #13, #64, .T. ) ;
#118 = AXIS2_PLACEMENT_3D ( 'NONE', #17, #157, #100 ) ;
#119 = DIRECTION ( 'NONE',  ( -1.224646799147353207E-16, -0.0000000000000000000, -1.000000000000000000 ) ) ;
#120 = CARTESIAN_POINT ( 'NONE',  ( 0.0000000000000000000, 0.0000000000000000000, 0.0000000000000000000 ) ) ;
#121 = ORIENTED_EDGE ( 'NONE', *, *, #104, .F. ) ;
#122 = FACE_OUTER_BOUND ( 'NONE', #152, .T. ) ;
#123 = CARTESIAN_POINT ( 'NONE',  ( 0.2497499999999999998, 3.058555380870514950E-17, -3.058555380870514950E-17 ) ) ;
#124 = ORIENTED_EDGE ( 'NONE', *, *, #182, .F. ) ;
#125 = LINE ( 'NONE', #123, #190 ) ;
#126 = VERTEX_POINT ( 'NONE', #240 ) ;
#127 = CIRCLE ( 'NONE', #40, 0.2500000000000000000 ) ;
#128 = PRODUCT_DEFINITION_FORMATION_WITH_SPECIFIED_SOURCE ( 'ANY', '', #273, .NOT_KNOWN. ) ;
#129 = EDGE_CURVE ( 'NONE', #13, #149, #3, .T. ) ;
#130 = ORIENTED_EDGE ( 'NONE', *, *, #90, .T. ) ;
#131 = ORIENTED_EDGE ( 'NONE', *, *, #194, .T. ) ;
#132 = CARTESIAN_POINT ( 'NONE',  ( 7.654042494670957853E-17, 0.0000000000000000000, 0.6250000000000000000 ) ) ;
#133 = PRODUCT_CONTEXT ( 'NONE', #246, 'mechanical' ) ;
#134 = LINE ( 'NONE', #272, #218 ) ;
#135 =( LENGTH_UNIT ( ) NAMED_UNIT ( * ) SI_UNIT ( $, .METRE. ) );
#136 = EDGE_CURVE ( 'NONE', #126, #103, #112, .T. ) ;
#137 = VECTOR ( 'NONE', #145, 39.37007874015748143 ) ;
#138 = ORIENTED_EDGE ( 'NONE', *, *, #114, .F. ) ;
#139 = DIRECTION ( 'NONE',  ( 1.000000000000000000, 0.0000000000000000000, 0.0000000000000000000 ) ) ;
#140 = DIRECTION ( 'NONE',  ( 1.000000000000000000, 0.0000000000000000000, 0.0000000000000000000 ) ) ;
#141 = CARTESIAN_POINT ( 'NONE',  ( 0.2500000000000000000, 3.061616997868383018E-17, 2.484999999999999876 ) ) ;
#142 = VECTOR ( 'NONE', #171, 39.37007874015748143 ) ;
#143 = UNCERTAINTY_MEASURE_WITH_UNIT (LENGTH_MEASURE( 1.000000000000000082E-05 ), #53, 'distance_accuracy_value', 'NONE');
#144 = FACE_OUTER_BOUND ( 'NONE', #224, .T. ) ;
#145 = DIRECTION ( 'NONE',  ( 0.1736481776669314137, 0.0000000000000000000, 0.9848077530122077983 ) ) ;
#146 = CONICAL_SURFACE ( 'NONE', #12, 0.2350000000000003753, 0.7853981633974278509 ) ;
#147 = LINE ( 'NONE', #220, #170 ) ;
#148 = ADVANCED_FACE ( 'NONE', ( #195 ), #153, .T. ) ;
#149 = VERTEX_POINT ( 'NONE', #285 ) ;
#150 = PLANE ( 'NONE',  #284 ) ;
#151 =( GEOMETRIC_REPRESENTATION_CONTEXT ( 3 ) GLOBAL_UNCERTAINTY_ASSIGNED_CONTEXT ( ( #87 ) ) GLOBAL_UNIT_ASSIGNED_CONTEXT ( ( #10, #244, #75 ) ) REPRESENTATION_CONTEXT ( 'NONE', 'WORKASPACE' ) );
#152 = EDGE_LOOP ( 'NONE', ( #131, #210, #9, #289 ) ) ;
#153 = CYLINDRICAL_SURFACE ( 'NONE', #24, 0.2497499999999999998 ) ;
#154 = LINE ( 'NONE', #234, #288 ) ;
#155 = EDGE_LOOP ( 'NONE', ( #164, #245, #34, #247 ) ) ;
#156 = ADVANCED_FACE ( 'NONE', ( #68 ), #85, .T. ) ;
#157 = DIRECTION ( 'NONE',  ( 0.0000000000000000000, 0.0000000000000000000, -1.000000000000000000 ) ) ;
#158 = CARTESIAN_POINT ( 'NONE',  ( -0.2500000000000000000, 0.0000000000000000000, 2.484999999999999876 ) ) ;
#159 =( NAMED_UNIT ( * ) PLANE_ANGLE_UNIT ( ) SI_UNIT ( $, .RADIAN. ) );
#160 = MANIFOLD_SOLID_BREP ( 'Cut-Revolve1', #208 ) ;
#161 = DIRECTION ( 'NONE',  ( -1.224646799147353207E-16, -0.0000000000000000000, -1.000000000000000000 ) ) ;
#162 = SURFACE_STYLE_USAGE ( .BOTH. , #276 ) ;
#163 = EDGE_CURVE ( 'NONE', #126, #18, #147, .T. ) ;
#164 = ORIENTED_EDGE ( 'NONE', *, *, #194, .F. ) ;
#165 = CARTESIAN_POINT ( 'NONE',  ( 0.0000000000000000000, 0.0000000000000000000, 0.0000000000000000000 ) ) ;
#166 = DIRECTION ( 'NONE',  ( 0.0000000000000000000, 0.0000000000000000000, 1.000000000000000000 ) ) ;
#167 = EDGE_LOOP ( 'NONE', ( #197, #271, #138, #221 ) ) ;
#168 =( LENGTH_UNIT ( ) NAMED_UNIT ( * ) SI_UNIT ( $, .METRE. ) );
#169 = VECTOR ( 'NONE', #106, 39.37007874015748854 ) ;
#170 = VECTOR ( 'NONE', #93, 39.37007874015748854 ) ;
#171 = DIRECTION ( 'NONE',  ( -0.0000000000000000000, -0.0000000000000000000, -1.000000000000000000 ) ) ;
#172 = EDGE_CURVE ( 'NONE', #98, #30, #249, .T. ) ;
#173 = AXIS2_PLACEMENT_3D ( 'NONE', #298, #299, #187 ) ;
#174 = ADVANCED_FACE ( 'NONE', ( #122 ), #177, .T. ) ;
#175 = MECHANICAL_DESIGN_GEOMETRIC_PRESENTATION_REPRESENTATION (  '', ( #32 ), #7 ) ;
#176 = CARTESIAN_POINT ( 'NONE',  ( 7.654042494670957853E-17, 0.0000000000000000000, 0.6250000000000000000 ) ) ;
#177 = CYLINDRICAL_SURFACE ( 'NONE', #191, 0.2497499999999999998 ) ;
#178 = DIRECTION ( 'NONE',  ( -1.000000000000000000, 0.0000000000000000000, 1.224646799147353454E-16 ) ) ;
#179 = AXIS2_PLACEMENT_3D ( 'NONE', #184, #36, #20 ) ;
#180 =( GEOMETRIC_REPRESENTATION_CONTEXT ( 3 ) GLOBAL_UNCERTAINTY_ASSIGNED_CONTEXT ( ( #143 ) ) GLOBAL_UNIT_ASSIGNED_CONTEXT ( ( #53, #159, #38 ) ) REPRESENTATION_CONTEXT ( 'NONE', 'WORKASPACE' ) );
#181 = DIRECTION ( 'NONE',  ( 0.0000000000000000000, 0.0000000000000000000, 1.000000000000000000 ) ) ;
#182 = EDGE_CURVE ( 'NONE', #189, #18, #88, .T. ) ;
#183 = ORIENTED_EDGE ( 'NONE', *, *, #163, .T. ) ;
#184 = CARTESIAN_POINT ( 'NONE',  ( 0.0000000000000000000, 0.0000000000000000000, 2.500000000000000000 ) ) ;
#185 = ORIENTED_EDGE ( 'NONE', *, *, #90, .F. ) ;
#186 = EDGE_CURVE ( 'NONE', #269, #67, #266, .T. ) ;
#187 = DIRECTION ( 'NONE',  ( -1.000000000000000000, 0.0000000000000000000, 1.224646799147353454E-16 ) ) ;
#188 = DIRECTION ( 'NONE',  ( 1.000000000000000000, 0.0000000000000000000, -0.0000000000000000000 ) ) ;
#189 = VERTEX_POINT ( 'NONE', #141 ) ;
#190 = VECTOR ( 'NONE', #199, 39.37007874015748143 ) ;
#191 = AXIS2_PLACEMENT_3D ( 'NONE', #165, #222, #263 ) ;
#192 = DIRECTION ( 'NONE',  ( 1.000000000000000000, 0.0000000000000000000, 0.0000000000000000000 ) ) ;
#193 = FACE_OUTER_BOUND ( 'NONE', #203, .T. ) ;
#194 = EDGE_CURVE ( 'NONE', #67, #269, #113, .T. ) ;
#195 = FACE_OUTER_BOUND ( 'NONE', #49, .T. ) ;
#196 = CARTESIAN_POINT ( 'NONE',  ( 0.0000000000000000000, 0.0000000000000000000, 0.0000000000000000000 ) ) ;
#197 = ORIENTED_EDGE ( 'NONE', *, *, #223, .F. ) ;
#198 = PRESENTATION_LAYER_ASSIGNMENT (  '', '', ( #111 ) ) ;
#199 = DIRECTION ( 'NONE',  ( -1.224646799147353207E-16, -0.0000000000000000000, -1.000000000000000000 ) ) ;
#200 = PRODUCT_DEFINITION_SHAPE ( 'NONE', 'NONE',  #81 ) ;
#201 = ORIENTED_EDGE ( 'NONE', *, *, #136, .T. ) ;
#202 = DIRECTION ( 'NONE',  ( 0.0000000000000000000, 0.0000000000000000000, 1.000000000000000000 ) ) ;
#203 = EDGE_LOOP ( 'NONE', ( #15, #31, #292, #56 ) ) ;
#204 = EDGE_CURVE ( 'NONE', #189, #13, #250, .T. ) ;
#205 = CARTESIAN_POINT ( 'NONE',  ( 7.654042494670957853E-17, 0.0000000000000000000, 0.6250000000000000000 ) ) ;
#206 =( NAMED_UNIT ( * ) PLANE_ANGLE_UNIT ( ) SI_UNIT ( $, .RADIAN. ) );
#207 = CARTESIAN_POINT ( 'NONE',  ( 0.2497499999999999998, 3.058555380870514950E-17, 0.0000000000000000000 ) ) ;
#208 = CLOSED_SHELL ( 'NONE', ( #174, #156, #211, #257, #2, #86, #277, #260, #148, #238 ) ) ;
#209 = DIRECTION ( 'NONE',  ( 0.0000000000000000000, 0.0000000000000000000, 1.000000000000000000 ) ) ;
#210 = ORIENTED_EDGE ( 'NONE', *, *, #294, .T. ) ;
#211 = ADVANCED_FACE ( 'NONE', ( #237 ), #146, .T. ) ;
#212 = DIRECTION ( 'NONE',  ( 1.000000000000000000, 0.0000000000000000000, 0.0000000000000000000 ) ) ;
#213 = CARTESIAN_POINT ( 'NONE',  ( 0.0000000000000000000, 0.0000000000000000000, 2.500000000000000000 ) ) ;
#214 = DIRECTION ( 'NONE',  ( 1.000000000000000000, 0.0000000000000000000, -0.0000000000000000000 ) ) ;
#215 = CARTESIAN_POINT ( 'NONE',  ( 7.671405787489599085E-17, 0.0000000000000000000, 0.6264178204549043505 ) ) ;
#216 = CIRCLE ( 'NONE', #73, 0.2350000000000003753 ) ;
#217 = CARTESIAN_POINT ( 'NONE',  ( -0.2497499999999999998, 0.0000000000000000000, 6.117110761741029900E-17 ) ) ;
#218 = VECTOR ( 'NONE', #232, 39.37007874015747433 ) ;
#219 = ORIENTED_EDGE ( 'NONE', *, *, #204, .F. ) ;
#220 = CARTESIAN_POINT ( 'NONE',  ( -0.2350000000000003753, 0.0000000000000000000, 2.500000000000000000 ) ) ;
#221 = ORIENTED_EDGE ( 'NONE', *, *, #163, .F. ) ;
#222 = DIRECTION ( 'NONE',  ( -1.224646799147353207E-16, -0.0000000000000000000, -1.000000000000000000 ) ) ;
#223 = EDGE_CURVE ( 'NONE', #103, #126, #216, .T. ) ;
#224 = EDGE_LOOP ( 'NONE', ( #102, #78 ) ) ;
#225 = SURFACE_STYLE_USAGE ( .BOTH. , #51 ) ;
#226 = ORIENTED_EDGE ( 'NONE', *, *, #223, .T. ) ;
#227 = AXIS2_PLACEMENT_3D ( 'NONE', #253, #209, #188 ) ;
#228 = AXIS2_PLACEMENT_3D ( 'NONE', #63, #119, #28 ) ;
#229 = APPLICATION_PROTOCOL_DEFINITION ( 'draft international standard', 'automotive_design', 1998, #246 ) ;
#230 = ORIENTED_EDGE ( 'NONE', *, *, #136, .F. ) ;
#231 = DIRECTION ( 'NONE',  ( -1.224646799147353207E-16, -0.0000000000000000000, -1.000000000000000000 ) ) ;
#232 = DIRECTION ( 'NONE',  ( -0.1736481776669312194, 2.126576849575783625E-17, 0.9848077530122080203 ) ) ;
#233 = DIRECTION ( 'NONE',  ( -1.000000000000000000, 0.0000000000000000000, 0.0000000000000000000 ) ) ;
#234 = CARTESIAN_POINT ( 'NONE',  ( -0.2497499999999999998, 0.0000000000000000000, 3.058555380870514950E-17 ) ) ;
#235 = CIRCLE ( 'NONE', #243, 0.2500000000000000000 ) ;
#236 = ORIENTED_EDGE ( 'NONE', *, *, #11, .F. ) ;
#237 = FACE_OUTER_BOUND ( 'NONE', #167, .T. ) ;
#238 = ADVANCED_FACE ( 'NONE', ( #144 ), #150, .F. ) ;
#239 = CARTESIAN_POINT ( 'NONE',  ( 0.2350000000000003753, 2.969768487932332963E-17, 2.500000000000000000 ) ) ;
#240 = CARTESIAN_POINT ( 'NONE',  ( -0.2350000000000003753, 0.0000000000000000000, 2.500000000000000000 ) ) ;
#241 = CONICAL_SURFACE ( 'NONE', #118, 0.2350000000000003753, 0.7853981633974278509 ) ;
#242 = PRESENTATION_STYLE_ASSIGNMENT (( #225 ) ) ;
#243 = AXIS2_PLACEMENT_3D ( 'NONE', #215, #283, #212 ) ;
#244 =( NAMED_UNIT ( * ) PLANE_ANGLE_UNIT ( ) SI_UNIT ( $, .RADIAN. ) );
#245 = ORIENTED_EDGE ( 'NONE', *, *, #4, .T. ) ;
#246 = APPLICATION_CONTEXT ( 'automotive_design' ) ;
#247 = ORIENTED_EDGE ( 'NONE', *, *, #117, .F. ) ;
#248 = CYLINDRICAL_SURFACE ( 'NONE', #179, 0.2500000000000000000 ) ;
#249 = CIRCLE ( 'NONE', #228, 0.2497499999999999998 ) ;
#250 = LINE ( 'NONE', #19, #142 ) ;
#251 = SURFACE_STYLE_FILL_AREA ( #108 ) ;
#252 = ORIENTED_EDGE ( 'NONE', *, *, #44, .F. ) ;
#253 = CARTESIAN_POINT ( 'NONE',  ( 0.0000000000000000000, 0.0000000000000000000, 2.500000000000000000 ) ) ;
#254 = AXIS2_PLACEMENT_3D ( 'NONE', #96, #181, #54 ) ;
#255 = CONICAL_SURFACE ( 'NONE', #275, 0.2497499999999999998, 0.1745329251994339192 ) ;
#256 = LINE ( 'NONE', #43, #27 ) ;
#257 = ADVANCED_FACE ( 'NONE', ( #45 ), #77, .T. ) ;
#258 = AXIS2_PLACEMENT_3D ( 'NONE', #290, #69, #267 ) ;
#259 = DIRECTION ( 'NONE',  ( 0.0000000000000000000, 0.0000000000000000000, -1.000000000000000000 ) ) ;
#260 = ADVANCED_FACE ( 'NONE', ( #193 ), #255, .T. ) ;
#261 = AXIS2_PLACEMENT_3D ( 'NONE', #176, #92, #71 ) ;
#262 = DIRECTION ( 'NONE',  ( 0.0000000000000000000, 0.0000000000000000000, 1.000000000000000000 ) ) ;
#263 = DIRECTION ( 'NONE',  ( -1.000000000000000000, 0.0000000000000000000, 1.224646799147353454E-16 ) ) ;
#264 = EDGE_CURVE ( 'NONE', #67, #98, #154, .T. ) ;
#265 = DIRECTION ( 'NONE',  ( 1.000000000000000000, 0.0000000000000000000, 0.0000000000000000000 ) ) ;
#266 = CIRCLE ( 'NONE', #99, 0.2497499999999999998 ) ;
#267 = DIRECTION ( 'NONE',  ( -1.000000000000000000, 0.0000000000000000000, 0.0000000000000000000 ) ) ;
#268 = DIRECTION ( 'NONE',  ( 1.000000000000000000, 0.0000000000000000000, 0.0000000000000000000 ) ) ;
#269 = VERTEX_POINT ( 'NONE', #29 ) ;
#270 =( LENGTH_UNIT ( ) NAMED_UNIT ( * ) SI_UNIT ( $, .METRE. ) );
#271 = ORIENTED_EDGE ( 'NONE', *, *, #11, .T. ) ;
#272 = CARTESIAN_POINT ( 'NONE',  ( -0.2497499999999999443, 3.058555380870514950E-17, 0.6250000000000000000 ) ) ;
#273 = PRODUCT ( 'Micro_SEM-500-02', 'Micro_SEM-500-02', '', ( #133 ) ) ;
#274 = DIMENSIONAL_EXPONENTS ( 1.000000000000000000, 0.0000000000000000000, 0.0000000000000000000, 0.0000000000000000000, 0.0000000000000000000, 0.0000000000000000000, 0.0000000000000000000 ) ;
#275 = AXIS2_PLACEMENT_3D ( 'NONE', #107, #295, #105 ) ;
#276 = SURFACE_SIDE_STYLE ('',( #251 ) ) ;
#277 = ADVANCED_FACE ( 'NONE', ( #55 ), #241, .T. ) ;
#278 = COLOUR_RGB ( '',0.7921568627450980005, 0.8196078431372548767, 0.9333333333333333481 ) ;
#279 =( CONVERSION_BASED_UNIT ( 'INCH', #41 ) LENGTH_UNIT ( ) NAMED_UNIT ( #57 ) );
#280 = AXIS2_PLACEMENT_3D ( 'NONE', #205, #37, #233 ) ;
#281 = UNCERTAINTY_MEASURE_WITH_UNIT (LENGTH_MEASURE( 1.000000000000000082E-05 ), #279, 'distance_accuracy_value', 'NONE');
#282 = CARTESIAN_POINT ( 'NONE',  ( 0.0000000000000000000, 0.0000000000000000000, 2.484999999999999876 ) ) ;
#283 = DIRECTION ( 'NONE',  ( -1.224646799147353207E-16, -0.0000000000000000000, -1.000000000000000000 ) ) ;
#284 = AXIS2_PLACEMENT_3D ( 'NONE', #120, #262, #214 ) ;
#285 = CARTESIAN_POINT ( 'NONE',  ( -0.2499999999999999167, 0.0000000000000000000, 0.6264178204549043505 ) ) ;
#286 = DIRECTION ( 'NONE',  ( 0.0000000000000000000, 0.0000000000000000000, -1.000000000000000000 ) ) ;
#287 = APPLICATION_PROTOCOL_DEFINITION ( 'draft international standard', 'automotive_design', 1998, #65 ) ;
#288 = VECTOR ( 'NONE', #231, 39.37007874015748143 ) ;
#289 = ORIENTED_EDGE ( 'NONE', *, *, #264, .F. ) ;
#290 = CARTESIAN_POINT ( 'NONE',  ( 0.0000000000000000000, 0.0000000000000000000, 2.500000000000000000 ) ) ;
#291 = LENGTH_MEASURE_WITH_UNIT ( LENGTH_MEASURE( 0.02539999999999999897 ), #135 );
#292 = ORIENTED_EDGE ( 'NONE', *, *, #117, .T. ) ;
#293 = EDGE_LOOP ( 'NONE', ( #219, #50, #130, #39 ) ) ;
#294 = EDGE_CURVE ( 'NONE', #269, #30, #125, .T. ) ;
#295 = DIRECTION ( 'NONE',  ( 1.224646799147353207E-16, 0.0000000000000000000, 1.000000000000000000 ) ) ;
#296 = SHAPE_DEFINITION_REPRESENTATION ( #200, #22 ) ;
#297 = CIRCLE ( 'NONE', #173, 0.2497499999999999998 ) ;
#298 = CARTESIAN_POINT ( 'NONE',  ( 3.745650057197989622E-33, 0.0000000000000000000, 3.058555380870514950E-17 ) ) ;
#299 = DIRECTION ( 'NONE',  ( -1.224646799147353207E-16, -0.0000000000000000000, -1.000000000000000000 ) ) ;
ENDSEC;
END-ISO-10303-21;
