ISO-10303-21;
HEADER;
FILE_DESCRIPTION (( 'STEP AP214' ),
    '1' );
FILE_NAME ('Micro_SEM-312-04X.STEP',
    '2021-09-02T02:51:31',
    ( '' ),
    ( '' ),
    'SwSTEP 2.0',
    'SolidWorks 2020',
    '' );
FILE_SCHEMA (( 'AUTOMOTIVE_DESIGN' ));
ENDSEC;

DATA;
#1 = EDGE_CURVE ( 'NONE', #270, #223, #107, .T. ) ;
#2 = EDGE_LOOP ( 'NONE', ( #95, #210, #205, #127 ) ) ;
#3 = CARTESIAN_POINT ( 'NONE',  ( 0.1562500000000000833, 1.913510623667740080E-17, 0.5008861377843155660 ) ) ;
#4 = AXIS2_PLACEMENT_3D ( 'NONE', #235, #280, #104 ) ;
#5 = DIRECTION ( 'NONE',  ( 0.1736481776669314414, 0.0000000000000000000, 0.9848077530122077983 ) ) ;
#6 = APPLICATION_CONTEXT ( 'automotive_design' ) ;
#7 = CARTESIAN_POINT ( 'NONE',  ( -0.1412499999999997646, 0.0000000000000000000, 2.000000000000000000 ) ) ;
#8 = MECHANICAL_DESIGN_GEOMETRIC_PRESENTATION_REPRESENTATION (  '', ( #195 ), #88 ) ;
#9 = COLOUR_RGB ( '',0.7921568627450980005, 0.8196078431372548767, 0.9333333333333333481 ) ;
#10 = DIRECTION ( 'NONE',  ( -1.224646799147353207E-16, -0.0000000000000000000, -1.000000000000000000 ) ) ;
#11 = EDGE_CURVE ( 'NONE', #159, #296, #236, .T. ) ;
#12 = DIRECTION ( 'NONE',  ( 1.000000000000000000, 0.0000000000000000000, 0.0000000000000000000 ) ) ;
#13 = VECTOR ( 'NONE', #275, 39.37007874015748143 ) ;
#14 =( NAMED_UNIT ( * ) PLANE_ANGLE_UNIT ( ) SI_UNIT ( $, .RADIAN. ) );
#15 = ORIENTED_EDGE ( 'NONE', *, *, #98, .T. ) ;
#16 =( NAMED_UNIT ( * ) SI_UNIT ( $, .STERADIAN. ) SOLID_ANGLE_UNIT ( ) );
#17 = ORIENTED_EDGE ( 'NONE', *, *, #1, .T. ) ;
#18 = EDGE_LOOP ( 'NONE', ( #45, #184, #102, #42 ) ) ;
#19 = VECTOR ( 'NONE', #257, 39.37007874015748143 ) ;
#20 = EDGE_CURVE ( 'NONE', #246, #141, #118, .T. ) ;
#21 = ORIENTED_EDGE ( 'NONE', *, *, #136, .F. ) ;
#22 = CARTESIAN_POINT ( 'NONE',  ( 6.123233995736766036E-17, 0.0000000000000000000, 0.5000000000000000000 ) ) ;
#23 = ORIENTED_EDGE ( 'NONE', *, *, #136, .T. ) ;
#24 = CARTESIAN_POINT ( 'NONE',  ( -0.1560937499999998923, 1.911597113044071073E-17, 0.5000000000000000000 ) ) ;
#25 = DIRECTION ( 'NONE',  ( -1.000000000000000000, 0.0000000000000000000, 0.0000000000000000000 ) ) ;
#26 = DIMENSIONAL_EXPONENTS ( 1.000000000000000000, 0.0000000000000000000, 0.0000000000000000000, 0.0000000000000000000, 0.0000000000000000000, 0.0000000000000000000, 0.0000000000000000000 ) ;
#27 = CARTESIAN_POINT ( 'NONE',  ( 6.123233995736766036E-17, 0.0000000000000000000, 0.5000000000000000000 ) ) ;
#28 = EDGE_CURVE ( 'NONE', #211, #119, #84, .T. ) ;
#29 = FACE_OUTER_BOUND ( 'NONE', #46, .T. ) ;
#30 = CARTESIAN_POINT ( 'NONE',  ( -0.1562500000000000000, 0.0000000000000000000, 1.984999999999999654 ) ) ;
#31 = UNCERTAINTY_MEASURE_WITH_UNIT (LENGTH_MEASURE( 1.000000000000000082E-05 ), #204, 'distance_accuracy_value', 'NONE');
#32 = PLANE ( 'NONE',  #58 ) ;
#33 = ADVANCED_FACE ( 'NONE', ( #147 ), #32, .F. ) ;
#34 = STYLED_ITEM ( 'NONE', ( #276 ), #286 ) ;
#35 = DIRECTION ( 'NONE',  ( -1.224646799147353207E-16, -0.0000000000000000000, -1.000000000000000000 ) ) ;
#36 = ADVANCED_FACE ( 'NONE', ( #218 ), #190, .T. ) ;
#37 = CARTESIAN_POINT ( 'NONE',  ( 0.0000000000000000000, 0.0000000000000000000, 1.984999999999999654 ) ) ;
#38 = AXIS2_PLACEMENT_3D ( 'NONE', #199, #263, #200 ) ;
#39 = DIRECTION ( 'NONE',  ( 0.0000000000000000000, 0.0000000000000000000, 1.000000000000000000 ) ) ;
#40 = LENGTH_MEASURE_WITH_UNIT ( LENGTH_MEASURE( 0.02539999999999999897 ), #155 );
#41 =( NAMED_UNIT ( * ) PLANE_ANGLE_UNIT ( ) SI_UNIT ( $, .RADIAN. ) );
#42 = ORIENTED_EDGE ( 'NONE', *, *, #216, .F. ) ;
#43 = CONICAL_SURFACE ( 'NONE', #87, 0.1412499999999997646, 0.7853981633974482790 ) ;
#44 = MECHANICAL_DESIGN_GEOMETRIC_PRESENTATION_REPRESENTATION (  '', ( #34 ), #173 ) ;
#45 = ORIENTED_EDGE ( 'NONE', *, *, #70, .F. ) ;
#46 = EDGE_LOOP ( 'NONE', ( #15, #294 ) ) ;
#47 = DIRECTION ( 'NONE',  ( -1.000000000000000000, 0.0000000000000000000, 0.0000000000000000000 ) ) ;
#48 = SHAPE_DEFINITION_REPRESENTATION ( #238, #286 ) ;
#49 = ORIENTED_EDGE ( 'NONE', *, *, #150, .F. ) ;
#50 = LINE ( 'NONE', #24, #19 ) ;
#51 = ADVANCED_FACE ( 'NONE', ( #86 ), #149, .T. ) ;
#52 =( CONVERSION_BASED_UNIT ( 'INCH', #224 ) LENGTH_UNIT ( ) NAMED_UNIT ( #168 ) );
#53 = ORIENTED_EDGE ( 'NONE', *, *, #11, .T. ) ;
#54 = LENGTH_MEASURE_WITH_UNIT ( LENGTH_MEASURE( 0.02539999999999999897 ), #142 );
#55 = CARTESIAN_POINT ( 'NONE',  ( 2.341031285748743514E-33, 0.0000000000000000000, 1.911597113044071690E-17 ) ) ;
#56 = CARTESIAN_POINT ( 'NONE',  ( 0.0000000000000000000, 0.0000000000000000000, 2.000000000000000000 ) ) ;
#57 = FACE_OUTER_BOUND ( 'NONE', #273, .T. ) ;
#58 = AXIS2_PLACEMENT_3D ( 'NONE', #126, #129, #124 ) ;
#59 = DIRECTION ( 'NONE',  ( 1.000000000000000000, 0.0000000000000000000, 0.0000000000000000000 ) ) ;
#60 = DIRECTION ( 'NONE',  ( -0.7071067811865475727, 0.0000000000000000000, -0.7071067811865474617 ) ) ;
#61 = CLOSED_SHELL ( 'NONE', ( #161, #110, #158, #278, #85, #89, #36, #75, #51, #33 ) ) ;
#62 = DIRECTION ( 'NONE',  ( 0.7071067811865475727, 8.659560562354932858E-17, -0.7071067811865474617 ) ) ;
#63 = AXIS2_PLACEMENT_3D ( 'NONE', #237, #121, #213 ) ;
#64 = CIRCLE ( 'NONE', #177, 0.1562500000000000000 ) ;
#65 = CARTESIAN_POINT ( 'NONE',  ( 0.0000000000000000000, 0.0000000000000000000, 1.984999999999999654 ) ) ;
#66 = DIRECTION ( 'NONE',  ( -0.0000000000000000000, -0.0000000000000000000, -1.000000000000000000 ) ) ;
#67 = CIRCLE ( 'NONE', #80, 0.1562500000000000000 ) ;
#68 = SURFACE_STYLE_USAGE ( .BOTH. , #174 ) ;
#69 = ORIENTED_EDGE ( 'NONE', *, *, #196, .T. ) ;
#70 = EDGE_CURVE ( 'NONE', #296, #223, #298, .T. ) ;
#71 = ORIENTED_EDGE ( 'NONE', *, *, #28, .F. ) ;
#72 = COLOUR_RGB ( '',0.7921568627450980005, 0.8196078431372548767, 0.9333333333333333481 ) ;
#73 = AXIS2_PLACEMENT_3D ( 'NONE', #134, #66, #153 ) ;
#74 = ORIENTED_EDGE ( 'NONE', *, *, #196, .F. ) ;
#75 = ADVANCED_FACE ( 'NONE', ( #57 ), #105, .T. ) ;
#76 = DIRECTION ( 'NONE',  ( 0.0000000000000000000, 0.0000000000000000000, -1.000000000000000000 ) ) ;
#77 =( NAMED_UNIT ( * ) PLANE_ANGLE_UNIT ( ) SI_UNIT ( $, .RADIAN. ) );
#78 = ORIENTED_EDGE ( 'NONE', *, *, #198, .F. ) ;
#79 = AXIS2_PLACEMENT_3D ( 'NONE', #233, #169, #59 ) ;
#80 = AXIS2_PLACEMENT_3D ( 'NONE', #37, #171, #282 ) ;
#81 = CARTESIAN_POINT ( 'NONE',  ( 6.123233995736766036E-17, 0.0000000000000000000, 0.5000000000000000000 ) ) ;
#82 = CARTESIAN_POINT ( 'NONE',  ( 0.1562500000000000000, 1.913510623667739463E-17, 2.000000000000000000 ) ) ;
#83 = CYLINDRICAL_SURFACE ( 'NONE', #265, 0.1560937499999999478 ) ;
#84 = LINE ( 'NONE', #170, #183 ) ;
#85 = ADVANCED_FACE ( 'NONE', ( #131 ), #254, .T. ) ;
#86 = FACE_OUTER_BOUND ( 'NONE', #181, .T. ) ;
#87 = AXIS2_PLACEMENT_3D ( 'NONE', #56, #76, #25 ) ;
#88 =( GEOMETRIC_REPRESENTATION_CONTEXT ( 3 ) GLOBAL_UNCERTAINTY_ASSIGNED_CONTEXT ( ( #31 ) ) GLOBAL_UNIT_ASSIGNED_CONTEXT ( ( #204, #41, #180 ) ) REPRESENTATION_CONTEXT ( 'NONE', 'WORKASPACE' ) );
#89 = ADVANCED_FACE ( 'NONE', ( #29 ), #130, .T. ) ;
#90 = DIRECTION ( 'NONE',  ( -1.224646799147353207E-16, -0.0000000000000000000, -1.000000000000000000 ) ) ;
#91 = DIRECTION ( 'NONE',  ( -0.0000000000000000000, -0.0000000000000000000, -1.000000000000000000 ) ) ;
#92 = SURFACE_STYLE_FILL_AREA ( #133 ) ;
#93 = AXIS2_PLACEMENT_3D ( 'NONE', #55, #194, #217 ) ;
#94 = VECTOR ( 'NONE', #91, 39.37007874015748143 ) ;
#95 = ORIENTED_EDGE ( 'NONE', *, *, #11, .F. ) ;
#96 =( CONVERSION_BASED_UNIT ( 'INCH', #54 ) LENGTH_UNIT ( ) NAMED_UNIT ( #123 ) );
#97 = EDGE_LOOP ( 'NONE', ( #139, #162, #78, #249 ) ) ;
#98 = EDGE_CURVE ( 'NONE', #211, #159, #253, .T. ) ;
#99 = ORIENTED_EDGE ( 'NONE', *, *, #165, .F. ) ;
#100 = CONICAL_SURFACE ( 'NONE', #144, 0.1560937499999999478, 0.1745329251994339470 ) ;
#101 = EDGE_CURVE ( 'NONE', #117, #270, #261, .T. ) ;
#102 = ORIENTED_EDGE ( 'NONE', *, *, #206, .T. ) ;
#103 = DIRECTION ( 'NONE',  ( 1.224646799147353207E-16, 0.0000000000000000000, 1.000000000000000000 ) ) ;
#104 = DIRECTION ( 'NONE',  ( -1.000000000000000000, 0.0000000000000000000, 0.0000000000000000000 ) ) ;
#105 = CONICAL_SURFACE ( 'NONE', #157, 0.1560937499999999478, 0.1745329251994339470 ) ;
#106 = ORIENTED_EDGE ( 'NONE', *, *, #145, .F. ) ;
#107 = LINE ( 'NONE', #258, #212 ) ;
#108 = AXIS2_PLACEMENT_3D ( 'NONE', #214, #284, #47 ) ;
#109 = VERTEX_POINT ( 'NONE', #164 ) ;
#110 = ADVANCED_FACE ( 'NONE', ( #297 ), #100, .T. ) ;
#111 = CARTESIAN_POINT ( 'NONE',  ( -0.1560937499999999478, 0.0000000000000000000, 1.911597113044071073E-17 ) ) ;
#112 = CIRCLE ( 'NONE', #203, 0.1562500000000000000 ) ;
#113 = FILL_AREA_STYLE_COLOUR ( '', #72 ) ;
#114 = CARTESIAN_POINT ( 'NONE',  ( 0.1562500000000000000, 1.913510623667739463E-17, 1.984999999999999654 ) ) ;
#115 = AXIS2_PLACEMENT_3D ( 'NONE', #229, #146, #166 ) ;
#116 = ORIENTED_EDGE ( 'NONE', *, *, #145, .T. ) ;
#117 = VERTEX_POINT ( 'NONE', #191 ) ;
#118 = CIRCLE ( 'NONE', #93, 0.1560937499999999756 ) ;
#119 = VERTEX_POINT ( 'NONE', #30 ) ;
#120 = DIRECTION ( 'NONE',  ( 1.000000000000000000, 0.0000000000000000000, -0.0000000000000000000 ) ) ;
#121 = DIRECTION ( 'NONE',  ( -1.224646799147353207E-16, -0.0000000000000000000, -1.000000000000000000 ) ) ;
#122 = FACE_OUTER_BOUND ( 'NONE', #225, .T. ) ;
#123 = DIMENSIONAL_EXPONENTS ( 1.000000000000000000, 0.0000000000000000000, 0.0000000000000000000, 0.0000000000000000000, 0.0000000000000000000, 0.0000000000000000000, 0.0000000000000000000 ) ;
#124 = DIRECTION ( 'NONE',  ( 1.000000000000000000, 0.0000000000000000000, -0.0000000000000000000 ) ) ;
#125 = FACE_OUTER_BOUND ( 'NONE', #291, .T. ) ;
#126 = CARTESIAN_POINT ( 'NONE',  ( 0.0000000000000000000, 0.0000000000000000000, 0.0000000000000000000 ) ) ;
#127 = ORIENTED_EDGE ( 'NONE', *, *, #267, .F. ) ;
#128 = CARTESIAN_POINT ( 'NONE',  ( 0.1560937499999999478, 1.911597113044071073E-17, -1.911597113044071073E-17 ) ) ;
#129 = DIRECTION ( 'NONE',  ( 0.0000000000000000000, 0.0000000000000000000, 1.000000000000000000 ) ) ;
#130 = PLANE ( 'NONE',  #281 ) ;
#131 = FACE_OUTER_BOUND ( 'NONE', #18, .T. ) ;
#132 = PRODUCT_DEFINITION_FORMATION_WITH_SPECIFIED_SOURCE ( 'ANY', '', #178, .NOT_KNOWN. ) ;
#133 = FILL_AREA_STYLE ('',( #113 ) ) ;
#134 = CARTESIAN_POINT ( 'NONE',  ( 0.0000000000000000000, 0.0000000000000000000, 2.000000000000000000 ) ) ;
#135 = CARTESIAN_POINT ( 'NONE',  ( 0.0000000000000000000, 0.0000000000000000000, 0.0000000000000000000 ) ) ;
#136 = EDGE_CURVE ( 'NONE', #270, #141, #231, .T. ) ;
#137 = CARTESIAN_POINT ( 'NONE',  ( 6.134086053748422198E-17, 0.0000000000000000000, 0.5008861377843155660 ) ) ;
#138 = AXIS2_PLACEMENT_3D ( 'NONE', #81, #252, #189 ) ;
#139 = ORIENTED_EDGE ( 'NONE', *, *, #243, .T. ) ;
#140 = SURFACE_STYLE_FILL_AREA ( #209 ) ;
#141 = VERTEX_POINT ( 'NONE', #277 ) ;
#142 =( LENGTH_UNIT ( ) NAMED_UNIT ( * ) SI_UNIT ( $, .METRE. ) );
#143 = ORIENTED_EDGE ( 'NONE', *, *, #216, .T. ) ;
#144 = AXIS2_PLACEMENT_3D ( 'NONE', #22, #103, #234 ) ;
#145 = EDGE_CURVE ( 'NONE', #270, #117, #172, .T. ) ;
#146 = DIRECTION ( 'NONE',  ( 0.0000000000000000000, 0.0000000000000000000, 1.000000000000000000 ) ) ;
#147 = FACE_OUTER_BOUND ( 'NONE', #208, .T. ) ;
#148 = PRESENTATION_LAYER_ASSIGNMENT (  '', '', ( #195 ) ) ;
#149 = CYLINDRICAL_SURFACE ( 'NONE', #63, 0.1560937499999999478 ) ;
#150 = EDGE_CURVE ( 'NONE', #117, #109, #50, .T. ) ;
#151 = DIRECTION ( 'NONE',  ( 1.000000000000000000, 0.0000000000000000000, 0.0000000000000000000 ) ) ;
#152 = FACE_OUTER_BOUND ( 'NONE', #97, .T. ) ;
#153 = DIRECTION ( 'NONE',  ( -1.000000000000000000, 0.0000000000000000000, 0.0000000000000000000 ) ) ;
#154 = DIRECTION ( 'NONE',  ( 1.224646799147353207E-16, 0.0000000000000000000, 1.000000000000000000 ) ) ;
#155 =( LENGTH_UNIT ( ) NAMED_UNIT ( * ) SI_UNIT ( $, .METRE. ) );
#156 = ORIENTED_EDGE ( 'NONE', *, *, #150, .T. ) ;
#157 = AXIS2_PLACEMENT_3D ( 'NONE', #27, #154, #226 ) ;
#158 = ADVANCED_FACE ( 'NONE', ( #122 ), #43, .T. ) ;
#159 = VERTEX_POINT ( 'NONE', #192 ) ;
#160 = ORIENTED_EDGE ( 'NONE', *, *, #198, .T. ) ;
#161 = ADVANCED_FACE ( 'NONE', ( #125 ), #83, .T. ) ;
#162 = ORIENTED_EDGE ( 'NONE', *, *, #70, .T. ) ;
#163 = CIRCLE ( 'NONE', #227, 0.1412499999999997646 ) ;
#164 = CARTESIAN_POINT ( 'NONE',  ( -0.1562499999999999445, 0.0000000000000000000, 0.5008861377843155660 ) ) ;
#165 = EDGE_CURVE ( 'NONE', #141, #246, #197, .T. ) ;
#166 = DIRECTION ( 'NONE',  ( 1.000000000000000000, 0.0000000000000000000, 0.0000000000000000000 ) ) ;
#167 = DIRECTION ( 'NONE',  ( -0.0000000000000000000, -0.0000000000000000000, -1.000000000000000000 ) ) ;
#168 = DIMENSIONAL_EXPONENTS ( 1.000000000000000000, 0.0000000000000000000, 0.0000000000000000000, 0.0000000000000000000, 0.0000000000000000000, 0.0000000000000000000, 0.0000000000000000000 ) ;
#169 = DIRECTION ( 'NONE',  ( 0.0000000000000000000, 0.0000000000000000000, 1.000000000000000000 ) ) ;
#170 = CARTESIAN_POINT ( 'NONE',  ( -0.1412499999999997646, 0.0000000000000000000, 2.000000000000000000 ) ) ;
#171 = DIRECTION ( 'NONE',  ( 0.0000000000000000000, 0.0000000000000000000, -1.000000000000000000 ) ) ;
#172 = CIRCLE ( 'NONE', #138, 0.1560937499999999478 ) ;
#173 =( GEOMETRIC_REPRESENTATION_CONTEXT ( 3 ) GLOBAL_UNCERTAINTY_ASSIGNED_CONTEXT ( ( #266 ) ) GLOBAL_UNIT_ASSIGNED_CONTEXT ( ( #52, #77, #250 ) ) REPRESENTATION_CONTEXT ( 'NONE', 'WORKASPACE' ) );
#174 = SURFACE_SIDE_STYLE ('',( #92 ) ) ;
#175 = UNCERTAINTY_MEASURE_WITH_UNIT (LENGTH_MEASURE( 1.000000000000000082E-05 ), #96, 'distance_accuracy_value', 'NONE');
#176 = LINE ( 'NONE', #245, #94 ) ;
#177 = AXIS2_PLACEMENT_3D ( 'NONE', #65, #260, #239 ) ;
#178 = PRODUCT ( 'Micro_SEM-312-04X', 'Micro_SEM-312-04X', '', ( #220 ) ) ;
#179 = CARTESIAN_POINT ( 'NONE',  ( 0.1560937500000000311, 0.0000000000000000000, 0.5000000000000000000 ) ) ;
#180 =( NAMED_UNIT ( * ) SI_UNIT ( $, .STERADIAN. ) SOLID_ANGLE_UNIT ( ) );
#181 = EDGE_LOOP ( 'NONE', ( #21, #116, #69, #99 ) ) ;
#182 = ORIENTED_EDGE ( 'NONE', *, *, #101, .F. ) ;
#183 = VECTOR ( 'NONE', #60, 39.37007874015748143 ) ;
#184 = ORIENTED_EDGE ( 'NONE', *, *, #267, .T. ) ;
#185 = SURFACE_SIDE_STYLE ('',( #140 ) ) ;
#186 = EDGE_LOOP ( 'NONE', ( #182, #156, #160, #247 ) ) ;
#187 = CARTESIAN_POINT ( 'NONE',  ( 0.0000000000000000000, 0.0000000000000000000, 2.000000000000000000 ) ) ;
#188 = MANIFOLD_SOLID_BREP ( 'Cut-Revolve1', #61 ) ;
#189 = DIRECTION ( 'NONE',  ( -1.000000000000000000, 0.0000000000000000000, 0.0000000000000000000 ) ) ;
#190 = CONICAL_SURFACE ( 'NONE', #202, 0.1412499999999997646, 0.7853981633974482790 ) ;
#191 = CARTESIAN_POINT ( 'NONE',  ( -0.1560937499999998923, 1.912553868355905422E-17, 0.5000000000000000000 ) ) ;
#192 = CARTESIAN_POINT ( 'NONE',  ( 0.1412499999999997646, 1.821662113731686019E-17, 2.000000000000000000 ) ) ;
#193 = PRODUCT_DEFINITION_CONTEXT ( 'detailed design', #290, 'design' ) ;
#194 = DIRECTION ( 'NONE',  ( -1.224646799147353207E-16, -0.0000000000000000000, -1.000000000000000000 ) ) ;
#195 = STYLED_ITEM ( 'NONE', ( #219 ), #188 ) ;
#196 = EDGE_CURVE ( 'NONE', #117, #246, #269, .T. ) ;
#197 = CIRCLE ( 'NONE', #271, 0.1560937499999999756 ) ;
#198 = EDGE_CURVE ( 'NONE', #109, #223, #112, .T. ) ;
#199 = CARTESIAN_POINT ( 'NONE',  ( 6.134086053748422198E-17, 0.0000000000000000000, 0.5008861377843155660 ) ) ;
#200 = DIRECTION ( 'NONE',  ( 1.000000000000000000, 0.0000000000000000000, 0.0000000000000000000 ) ) ;
#201 = CARTESIAN_POINT ( 'NONE',  ( -0.1560937499999999756, 0.0000000000000000000, 3.823194226088143379E-17 ) ) ;
#202 = AXIS2_PLACEMENT_3D ( 'NONE', #232, #279, #283 ) ;
#203 = AXIS2_PLACEMENT_3D ( 'NONE', #137, #10, #151 ) ;
#204 =( CONVERSION_BASED_UNIT ( 'INCH', #40 ) LENGTH_UNIT ( ) NAMED_UNIT ( #26 ) );
#205 = ORIENTED_EDGE ( 'NONE', *, *, #28, .T. ) ;
#206 = EDGE_CURVE ( 'NONE', #119, #109, #176, .T. ) ;
#207 = FILL_AREA_STYLE_COLOUR ( '', #9 ) ;
#208 = EDGE_LOOP ( 'NONE', ( #230, #259 ) ) ;
#209 = FILL_AREA_STYLE ('',( #207 ) ) ;
#210 = ORIENTED_EDGE ( 'NONE', *, *, #98, .F. ) ;
#211 = VERTEX_POINT ( 'NONE', #7 ) ;
#212 = VECTOR ( 'NONE', #5, 39.37007874015748143 ) ;
#213 = DIRECTION ( 'NONE',  ( -1.000000000000000000, 0.0000000000000000000, 1.224646799147353207E-16 ) ) ;
#214 = CARTESIAN_POINT ( 'NONE',  ( 0.0000000000000000000, 0.0000000000000000000, 2.000000000000000000 ) ) ;
#215 = DIRECTION ( 'NONE',  ( 0.0000000000000000000, 0.0000000000000000000, 1.000000000000000000 ) ) ;
#216 = EDGE_CURVE ( 'NONE', #223, #109, #262, .T. ) ;
#217 = DIRECTION ( 'NONE',  ( -1.000000000000000000, 0.0000000000000000000, 1.224646799147353454E-16 ) ) ;
#218 = FACE_OUTER_BOUND ( 'NONE', #2, .T. ) ;
#219 = PRESENTATION_STYLE_ASSIGNMENT (( #68 ) ) ;
#220 = PRODUCT_CONTEXT ( 'NONE', #6, 'mechanical' ) ;
#221 = ORIENTED_EDGE ( 'NONE', *, *, #243, .F. ) ;
#222 = PRODUCT_RELATED_PRODUCT_CATEGORY ( 'part', '', ( #178 ) ) ;
#223 = VERTEX_POINT ( 'NONE', #3 ) ;
#224 = LENGTH_MEASURE_WITH_UNIT ( LENGTH_MEASURE( 0.02539999999999999897 ), #295 );
#225 = EDGE_LOOP ( 'NONE', ( #274, #53, #221, #71 ) ) ;
#226 = DIRECTION ( 'NONE',  ( 1.000000000000000000, 0.0000000000000000000, 0.0000000000000000000 ) ) ;
#227 = AXIS2_PLACEMENT_3D ( 'NONE', #242, #39, #12 ) ;
#228 = ORIENTED_EDGE ( 'NONE', *, *, #101, .T. ) ;
#229 = CARTESIAN_POINT ( 'NONE',  ( 0.0000000000000000000, 0.0000000000000000000, 0.0000000000000000000 ) ) ;
#230 = ORIENTED_EDGE ( 'NONE', *, *, #20, .T. ) ;
#231 = LINE ( 'NONE', #128, #13 ) ;
#232 = CARTESIAN_POINT ( 'NONE',  ( 0.0000000000000000000, 0.0000000000000000000, 2.000000000000000000 ) ) ;
#233 = CARTESIAN_POINT ( 'NONE',  ( 0.0000000000000000000, 0.0000000000000000000, 2.000000000000000000 ) ) ;
#234 = DIRECTION ( 'NONE',  ( 1.000000000000000000, 0.0000000000000000000, 0.0000000000000000000 ) ) ;
#235 = CARTESIAN_POINT ( 'NONE',  ( 6.123233995736766036E-17, 0.0000000000000000000, 0.5000000000000000000 ) ) ;
#236 = LINE ( 'NONE', #256, #299 ) ;
#237 = CARTESIAN_POINT ( 'NONE',  ( 0.0000000000000000000, 0.0000000000000000000, 0.0000000000000000000 ) ) ;
#238 = PRODUCT_DEFINITION_SHAPE ( 'NONE', 'NONE',  #287 ) ;
#239 = DIRECTION ( 'NONE',  ( 1.000000000000000000, 0.0000000000000000000, 0.0000000000000000000 ) ) ;
#240 = DIRECTION ( 'NONE',  ( -1.224646799147353207E-16, -0.0000000000000000000, -1.000000000000000000 ) ) ;
#241 =( GEOMETRIC_REPRESENTATION_CONTEXT ( 3 ) GLOBAL_UNCERTAINTY_ASSIGNED_CONTEXT ( ( #175 ) ) GLOBAL_UNIT_ASSIGNED_CONTEXT ( ( #96, #14, #16 ) ) REPRESENTATION_CONTEXT ( 'NONE', 'WORKASPACE' ) );
#242 = CARTESIAN_POINT ( 'NONE',  ( 0.0000000000000000000, 0.0000000000000000000, 2.000000000000000000 ) ) ;
#243 = EDGE_CURVE ( 'NONE', #119, #296, #67, .T. ) ;
#244 = CARTESIAN_POINT ( 'NONE',  ( 2.341031285748743514E-33, 0.0000000000000000000, 1.911597113044071690E-17 ) ) ;
#245 = CARTESIAN_POINT ( 'NONE',  ( -0.1562500000000000000, 0.0000000000000000000, 2.000000000000000000 ) ) ;
#246 = VERTEX_POINT ( 'NONE', #201 ) ;
#247 = ORIENTED_EDGE ( 'NONE', *, *, #1, .F. ) ;
#248 = SURFACE_STYLE_USAGE ( .BOTH. , #185 ) ;
#249 = ORIENTED_EDGE ( 'NONE', *, *, #206, .F. ) ;
#250 =( NAMED_UNIT ( * ) SI_UNIT ( $, .STERADIAN. ) SOLID_ANGLE_UNIT ( ) );
#251 = ORIENTED_EDGE ( 'NONE', *, *, #20, .F. ) ;
#252 = DIRECTION ( 'NONE',  ( -1.224646799147353207E-16, -0.0000000000000000000, -1.000000000000000000 ) ) ;
#253 = CIRCLE ( 'NONE', #79, 0.1412499999999997646 ) ;
#254 = CYLINDRICAL_SURFACE ( 'NONE', #108, 0.1562500000000000000 ) ;
#255 = APPLICATION_PROTOCOL_DEFINITION ( 'draft international standard', 'automotive_design', 1998, #6 ) ;
#256 = CARTESIAN_POINT ( 'NONE',  ( 0.1412499999999997646, 1.729813603795632883E-17, 2.000000000000000000 ) ) ;
#257 = DIRECTION ( 'NONE',  ( -0.1736481776669312194, 2.126576849575783625E-17, 0.9848077530122077983 ) ) ;
#258 = CARTESIAN_POINT ( 'NONE',  ( 0.1560937500000000311, 0.0000000000000000000, 0.5000000000000000000 ) ) ;
#259 = ORIENTED_EDGE ( 'NONE', *, *, #165, .T. ) ;
#260 = DIRECTION ( 'NONE',  ( 0.0000000000000000000, 0.0000000000000000000, -1.000000000000000000 ) ) ;
#261 = CIRCLE ( 'NONE', #4, 0.1560937499999999478 ) ;
#262 = CIRCLE ( 'NONE', #38, 0.1562500000000000000 ) ;
#263 = DIRECTION ( 'NONE',  ( -1.224646799147353207E-16, -0.0000000000000000000, -1.000000000000000000 ) ) ;
#264 = CYLINDRICAL_SURFACE ( 'NONE', #73, 0.1562500000000000000 ) ;
#265 = AXIS2_PLACEMENT_3D ( 'NONE', #135, #35, #268 ) ;
#266 = UNCERTAINTY_MEASURE_WITH_UNIT (LENGTH_MEASURE( 1.000000000000000082E-05 ), #52, 'distance_accuracy_value', 'NONE');
#267 = EDGE_CURVE ( 'NONE', #296, #119, #64, .T. ) ;
#268 = DIRECTION ( 'NONE',  ( -1.000000000000000000, 0.0000000000000000000, 1.224646799147353207E-16 ) ) ;
#269 = LINE ( 'NONE', #111, #272 ) ;
#270 = VERTEX_POINT ( 'NONE', #179 ) ;
#271 = AXIS2_PLACEMENT_3D ( 'NONE', #244, #240, #289 ) ;
#272 = VECTOR ( 'NONE', #90, 39.37007874015748143 ) ;
#273 = EDGE_LOOP ( 'NONE', ( #49, #106, #17, #143 ) ) ;
#274 = ORIENTED_EDGE ( 'NONE', *, *, #288, .F. ) ;
#275 = DIRECTION ( 'NONE',  ( -1.224646799147353207E-16, -0.0000000000000000000, -1.000000000000000000 ) ) ;
#276 = PRESENTATION_STYLE_ASSIGNMENT (( #248 ) ) ;
#277 = CARTESIAN_POINT ( 'NONE',  ( 0.1560937499999999756, 1.911597113044071690E-17, 3.791200677927629740E-33 ) ) ;
#278 = ADVANCED_FACE ( 'NONE', ( #152 ), #264, .T. ) ;
#279 = DIRECTION ( 'NONE',  ( 0.0000000000000000000, 0.0000000000000000000, -1.000000000000000000 ) ) ;
#280 = DIRECTION ( 'NONE',  ( -1.224646799147353207E-16, -0.0000000000000000000, -1.000000000000000000 ) ) ;
#281 = AXIS2_PLACEMENT_3D ( 'NONE', #187, #215, #120 ) ;
#282 = DIRECTION ( 'NONE',  ( 1.000000000000000000, 0.0000000000000000000, 0.0000000000000000000 ) ) ;
#283 = DIRECTION ( 'NONE',  ( -1.000000000000000000, 0.0000000000000000000, 0.0000000000000000000 ) ) ;
#284 = DIRECTION ( 'NONE',  ( -0.0000000000000000000, -0.0000000000000000000, -1.000000000000000000 ) ) ;
#285 = VECTOR ( 'NONE', #167, 39.37007874015748143 ) ;
#286 = ADVANCED_BREP_SHAPE_REPRESENTATION ( 'Micro_SEM-312-04X', ( #188, #115 ), #241 ) ;
#287 = PRODUCT_DEFINITION ( 'UNKNOWN', '', #132, #193 ) ;
#288 = EDGE_CURVE ( 'NONE', #159, #211, #163, .T. ) ;
#289 = DIRECTION ( 'NONE',  ( -1.000000000000000000, 0.0000000000000000000, 1.224646799147353454E-16 ) ) ;
#290 = APPLICATION_CONTEXT ( 'automotive_design' ) ;
#291 = EDGE_LOOP ( 'NONE', ( #228, #23, #251, #74 ) ) ;
#292 = APPLICATION_PROTOCOL_DEFINITION ( 'draft international standard', 'automotive_design', 1998, #290 ) ;
#293 = PRESENTATION_LAYER_ASSIGNMENT (  '', '', ( #34 ) ) ;
#294 = ORIENTED_EDGE ( 'NONE', *, *, #288, .T. ) ;
#295 =( LENGTH_UNIT ( ) NAMED_UNIT ( * ) SI_UNIT ( $, .METRE. ) );
#296 = VERTEX_POINT ( 'NONE', #114 ) ;
#297 = FACE_OUTER_BOUND ( 'NONE', #186, .T. ) ;
#298 = LINE ( 'NONE', #82, #285 ) ;
#299 = VECTOR ( 'NONE', #62, 39.37007874015748143 ) ;
ENDSEC;
END-ISO-10303-21;
