ISO-10303-21;
HEADER;
FILE_DESCRIPTION (( 'STEP AP214' ),
    '1' );
FILE_NAME ('59726.STEP',
    '2023-07-24T15:54:48',
    ( '' ),
    ( '' ),
    'SwSTEP 2.0',
    'SolidWorks 2023',
    '' );
FILE_SCHEMA (( 'AUTOMOTIVE_DESIGN' ));
ENDSEC;

DATA;
#1 = ORIENTED_EDGE ( 'NONE', *, *, #64, .T. ) ;
#2 = AXIS2_PLACEMENT_3D ( 'NONE', #107, #173, #226 ) ;
#3 = UNCERTAINTY_MEASURE_WITH_UNIT (LENGTH_MEASURE( 1.000000000000000082E-05 ), #270, 'distance_accuracy_value', 'NONE');
#4 = PRESENTATION_LAYER_ASSIGNMENT (  '', '', ( #111 ) ) ;
#5 = EDGE_LOOP ( 'NONE', ( #38, #179 ) ) ;
#6 = ORIENTED_EDGE ( 'NONE', *, *, #206, .T. ) ;
#7 = EDGE_CURVE ( 'NONE', #167, #227, #93, .T. ) ;
#8 = EDGE_LOOP ( 'NONE', ( #109, #57, #95, #28 ) ) ;
#9 =( GEOMETRIC_REPRESENTATION_CONTEXT ( 3 ) GLOBAL_UNCERTAINTY_ASSIGNED_CONTEXT ( ( #215 ) ) GLOBAL_UNIT_ASSIGNED_CONTEXT ( ( #174, #259, #154 ) ) REPRESENTATION_CONTEXT ( 'NONE', 'WORKASPACE' ) );
#10 = CYLINDRICAL_SURFACE ( 'NONE', #207, 3.000000000000000000 ) ;
#11 = CARTESIAN_POINT ( 'NONE',  ( 3.000000000000000000, 63.00000000000000000, 3.673940397442058882E-16 ) ) ;
#12 = MECHANICAL_DESIGN_GEOMETRIC_PRESENTATION_REPRESENTATION (  '', ( #284 ), #232 ) ;
#13 = EDGE_CURVE ( 'NONE', #74, #266, #59, .T. ) ;
#14 = DIRECTION ( 'NONE',  ( 0.000000000000000000, 0.000000000000000000, -1.000000000000000000 ) ) ;
#15 = UNCERTAINTY_MEASURE_WITH_UNIT (LENGTH_MEASURE( 1.000000000000000082E-05 ), #172, 'distance_accuracy_value', 'NONE');
#16 = DIRECTION ( 'NONE',  ( -1.000000000000000000, 6.243297407417877041E-17, 0.000000000000000000 ) ) ;
#17 =( NAMED_UNIT ( * ) SI_UNIT ( $, .STERADIAN. ) SOLID_ANGLE_UNIT ( ) );
#18 = DIRECTION ( 'NONE',  ( 6.243297407417877041E-17, 1.000000000000000000, -0.000000000000000000 ) ) ;
#19 = APPLICATION_PROTOCOL_DEFINITION ( 'draft international standard', 'automotive_design', 1998, #101 ) ;
#20 = ORIENTED_EDGE ( 'NONE', *, *, #13, .T. ) ;
#21 = SURFACE_STYLE_FILL_AREA ( #224 ) ;
#22 = SURFACE_STYLE_FILL_AREA ( #138 ) ;
#23 =( NAMED_UNIT ( * ) SI_UNIT ( $, .STERADIAN. ) SOLID_ANGLE_UNIT ( ) );
#24 = PRODUCT ( '59726', '59726', '', ( #192 ) ) ;
#25 =( GEOMETRIC_REPRESENTATION_CONTEXT ( 3 ) GLOBAL_UNCERTAINTY_ASSIGNED_CONTEXT ( ( #120 ) ) GLOBAL_UNIT_ASSIGNED_CONTEXT ( ( #286, #250, #17 ) ) REPRESENTATION_CONTEXT ( 'NONE', 'WORKASPACE' ) );
#26 = SURFACE_STYLE_USAGE ( .BOTH. , #189 ) ;
#27 = LINE ( 'NONE', #238, #143 ) ;
#28 = ORIENTED_EDGE ( 'NONE', *, *, #206, .F. ) ;
#29 = ORIENTED_EDGE ( 'NONE', *, *, #149, .T. ) ;
#30 =( NAMED_UNIT ( * ) SI_UNIT ( $, .STERADIAN. ) SOLID_ANGLE_UNIT ( ) );
#31 = COLOUR_RGB ( '',1.000000000000000000, 0.000000000000000000, 0.000000000000000000 ) ;
#32 = SURFACE_STYLE_FILL_AREA ( #79 ) ;
#33 = ADVANCED_FACE ( 'NONE', ( #81 ), #216, .F. ) ;
#34 = ORIENTED_EDGE ( 'NONE', *, *, #7, .T. ) ;
#35 = EDGE_LOOP ( 'NONE', ( #134, #29, #140, #97 ) ) ;
#36 = PRODUCT_DEFINITION_CONTEXT ( 'detailed design', #271, 'design' ) ;
#37 = STYLED_ITEM ( 'NONE', ( #46 ), #94 ) ;
#38 = ORIENTED_EDGE ( 'NONE', *, *, #156, .F. ) ;
#39 = CARTESIAN_POINT ( 'NONE',  ( 0.000000000000000000, 12.00000000000000000, 0.000000000000000000 ) ) ;
#40 = PRESENTATION_LAYER_ASSIGNMENT (  '', '', ( #245 ) ) ;
#41 = DIRECTION ( 'NONE',  ( 0.000000000000000000, 0.000000000000000000, 1.000000000000000000 ) ) ;
#42 = CARTESIAN_POINT ( 'NONE',  ( 0.000000000000000000, 0.000000000000000000, 0.000000000000000000 ) ) ;
#43 = CARTESIAN_POINT ( 'NONE',  ( 0.000000000000000000, 11.99999999999999645, 0.000000000000000000 ) ) ;
#44 = DIRECTION ( 'NONE',  ( -0.000000000000000000, -1.000000000000000000, -0.000000000000000000 ) ) ;
#45 = CYLINDRICAL_SURFACE ( 'NONE', #253, 2.999999999999998224 ) ;
#46 = PRESENTATION_STYLE_ASSIGNMENT (( #53 ) ) ;
#47 = CLOSED_SHELL ( 'NONE', ( #198, #33, #77, #80 ) ) ;
#48 = PRODUCT_DEFINITION_FORMATION_WITH_SPECIFIED_SOURCE ( 'ANY', '', #24, .NOT_KNOWN. ) ;
#49 = CARTESIAN_POINT ( 'NONE',  ( -3.000000000000000000, 11.99999999999999645, 0.000000000000000000 ) ) ;
#50 = PRESENTATION_STYLE_ASSIGNMENT (( #254 ) ) ;
#51 = DIRECTION ( 'NONE',  ( 6.243297407417877041E-17, 1.000000000000000000, -0.000000000000000000 ) ) ;
#52 = FACE_OUTER_BOUND ( 'NONE', #161, .T. ) ;
#53 = SURFACE_STYLE_USAGE ( .BOTH. , #256 ) ;
#54 = MECHANICAL_DESIGN_GEOMETRIC_PRESENTATION_REPRESENTATION (  '', ( #165 ), #235 ) ;
#55 = ORIENTED_EDGE ( 'NONE', *, *, #147, .T. ) ;
#56 = EDGE_CURVE ( 'NONE', #227, #167, #148, .T. ) ;
#57 = ORIENTED_EDGE ( 'NONE', *, *, #233, .T. ) ;
#58 = CIRCLE ( 'NONE', #155, 2.999999999999996891 ) ;
#59 = CIRCLE ( 'NONE', #162, 3.000000000000000000 ) ;
#60 = MECHANICAL_DESIGN_GEOMETRIC_PRESENTATION_REPRESENTATION (  '', ( #133 ), #9 ) ;
#61 = CARTESIAN_POINT ( 'NONE',  ( 0.000000000000000000, 0.000000000000000000, -3.000000000000000000 ) ) ;
#62 =( NAMED_UNIT ( * ) PLANE_ANGLE_UNIT ( ) SI_UNIT ( $, .RADIAN. ) );
#63 = PRESENTATION_LAYER_ASSIGNMENT (  '', '', ( #165 ) ) ;
#64 = EDGE_CURVE ( 'NONE', #70, #263, #58, .T. ) ;
#65 = FACE_OUTER_BOUND ( 'NONE', #35, .T. ) ;
#66 = CARTESIAN_POINT ( 'NONE',  ( 3.184081677783117402E-15, 63.00000000000000000, 0.000000000000000000 ) ) ;
#67 = AXIS2_PLACEMENT_3D ( 'NONE', #197, #132, #180 ) ;
#68 = CARTESIAN_POINT ( 'NONE',  ( -2.999999999999995115, 63.00000000000000000, 0.000000000000000000 ) ) ;
#69 = CARTESIAN_POINT ( 'NONE',  ( 3.184081677783117402E-15, 63.00000000000000000, 0.000000000000000000 ) ) ;
#70 = VERTEX_POINT ( 'NONE', #175 ) ;
#71 = DIRECTION ( 'NONE',  ( 0.000000000000000000, -0.000000000000000000, 1.000000000000000000 ) ) ;
#72 = CYLINDRICAL_SURFACE ( 'NONE', #228, 2.999999999999998224 ) ;
#73 = CARTESIAN_POINT ( 'NONE',  ( 3.184081677783117402E-15, 63.00000000000000000, 0.000000000000000000 ) ) ;
#74 = VERTEX_POINT ( 'NONE', #262 ) ;
#75 = DIRECTION ( 'NONE',  ( 1.000000000000000000, -6.243297407417877041E-17, 0.000000000000000000 ) ) ;
#76 = AXIS2_PLACEMENT_3D ( 'NONE', #69, #18, #113 ) ;
#77 = ADVANCED_FACE ( 'NONE', ( #83 ), #72, .T. ) ;
#78 = AXIS2_PLACEMENT_3D ( 'NONE', #225, #287, #75 ) ;
#79 = FILL_AREA_STYLE ('',( #183 ) ) ;
#80 = ADVANCED_FACE ( 'NONE', ( #244 ), #285, .F. ) ;
#81 = FACE_OUTER_BOUND ( 'NONE', #5, .T. ) ;
#82 = CIRCLE ( 'NONE', #76, 2.999999999999996891 ) ;
#83 = FACE_OUTER_BOUND ( 'NONE', #150, .T. ) ;
#84 =( LENGTH_UNIT ( ) NAMED_UNIT ( * ) SI_UNIT ( .MILLI., .METRE. ) );
#85 = FILL_AREA_STYLE_COLOUR ( '', #103 ) ;
#86 =( GEOMETRIC_REPRESENTATION_CONTEXT ( 3 ) GLOBAL_UNCERTAINTY_ASSIGNED_CONTEXT ( ( #234 ) ) GLOBAL_UNIT_ASSIGNED_CONTEXT ( ( #84, #171, #23 ) ) REPRESENTATION_CONTEXT ( 'NONE', 'WORKASPACE' ) );
#87 = VECTOR ( 'NONE', #255, 1000.000000000000000 ) ;
#88 = CARTESIAN_POINT ( 'NONE',  ( 3.673940397442059868E-16, 0.000000000000000000, 3.000000000000000000 ) ) ;
#89 = ADVANCED_BREP_SHAPE_REPRESENTATION ( '59726', ( #279, #277, #118 ), #199 ) ;
#90 = DIRECTION ( 'NONE',  ( -1.000000000000000000, 0.000000000000000000, 0.000000000000000000 ) ) ;
#91 = DIRECTION ( 'NONE',  ( 0.000000000000000000, 0.000000000000000000, -1.000000000000000000 ) ) ;
#92 = PRESENTATION_STYLE_ASSIGNMENT (( #163 ) ) ;
#93 = CIRCLE ( 'NONE', #268, 3.000000000000000000 ) ;
#94 = ADVANCED_FACE ( 'NONE', ( #280 ), #135, .T. ) ;
#95 = ORIENTED_EDGE ( 'NONE', *, *, #64, .F. ) ;
#96 = SURFACE_SIDE_STYLE ('',( #32 ) ) ;
#97 = ORIENTED_EDGE ( 'NONE', *, *, #56, .F. ) ;
#98 = VECTOR ( 'NONE', #176, 1000.000000000000000 ) ;
#99 = SURFACE_SIDE_STYLE ('',( #249 ) ) ;
#100 = EDGE_CURVE ( 'NONE', #141, #167, #27, .T. ) ;
#101 = APPLICATION_CONTEXT ( 'automotive_design' ) ;
#102 = AXIS2_PLACEMENT_3D ( 'NONE', #43, #177, #283 ) ;
#103 = COLOUR_RGB ( '',1.000000000000000000, 0.000000000000000000, 0.000000000000000000 ) ;
#104 = CARTESIAN_POINT ( 'NONE',  ( 0.000000000000000000, 11.99999999999999645, 0.000000000000000000 ) ) ;
#105 = CARTESIAN_POINT ( 'NONE',  ( 0.000000000000000000, 0.000000000000000000, 0.000000000000000000 ) ) ;
#106 = ORIENTED_EDGE ( 'NONE', *, *, #149, .F. ) ;
#107 = CARTESIAN_POINT ( 'NONE',  ( 0.000000000000000000, 0.000000000000000000, 0.000000000000000000 ) ) ;
#108 = CARTESIAN_POINT ( 'NONE',  ( 0.000000000000000000, 12.00000000000000000, 0.000000000000000000 ) ) ;
#109 = ORIENTED_EDGE ( 'NONE', *, *, #156, .T. ) ;
#110 = CARTESIAN_POINT ( 'NONE',  ( 3.673940397442059868E-16, 12.00000000000000000, 3.000000000000000000 ) ) ;
#111 = STYLED_ITEM ( 'NONE', ( #92 ), #279 ) ;
#112 = CARTESIAN_POINT ( 'NONE',  ( 0.000000000000000000, 0.000000000000000000, 0.000000000000000000 ) ) ;
#113 = DIRECTION ( 'NONE',  ( -1.000000000000000000, 0.000000000000000000, 0.000000000000000000 ) ) ;
#114 = VERTEX_POINT ( 'NONE', #110 ) ;
#115 =( NAMED_UNIT ( * ) PLANE_ANGLE_UNIT ( ) SI_UNIT ( $, .RADIAN. ) );
#116 =( LENGTH_UNIT ( ) NAMED_UNIT ( * ) SI_UNIT ( .MILLI., .METRE. ) );
#117 = MECHANICAL_DESIGN_GEOMETRIC_PRESENTATION_REPRESENTATION (  '', ( #37 ), #86 ) ;
#118 = AXIS2_PLACEMENT_3D ( 'NONE', #153, #41, #190 ) ;
#119 = DIRECTION ( 'NONE',  ( -0.000000000000000000, -1.000000000000000000, -0.000000000000000000 ) ) ;
#120 = UNCERTAINTY_MEASURE_WITH_UNIT (LENGTH_MEASURE( 1.000000000000000082E-05 ), #286, 'distance_accuracy_value', 'NONE');
#121 = ORIENTED_EDGE ( 'NONE', *, *, #233, .F. ) ;
#122 = FILL_AREA_STYLE_COLOUR ( '', #203 ) ;
#123 =( NAMED_UNIT ( * ) SI_UNIT ( $, .STERADIAN. ) SOLID_ANGLE_UNIT ( ) );
#124 = PRESENTATION_LAYER_ASSIGNMENT (  '', '', ( #133 ) ) ;
#125 =( NAMED_UNIT ( * ) PLANE_ANGLE_UNIT ( ) SI_UNIT ( $, .RADIAN. ) );
#126 =( NAMED_UNIT ( * ) SI_UNIT ( $, .STERADIAN. ) SOLID_ANGLE_UNIT ( ) );
#127 = UNCERTAINTY_MEASURE_WITH_UNIT (LENGTH_MEASURE( 1.000000000000000082E-05 ), #205, 'distance_accuracy_value', 'NONE');
#128 = CARTESIAN_POINT ( 'NONE',  ( 5.846814377620617787E-33, 12.00000000000000000, 0.000000000000000000 ) ) ;
#129 = DIRECTION ( 'NONE',  ( -1.000000000000000000, 0.000000000000000000, 0.000000000000000000 ) ) ;
#130 = FILL_AREA_STYLE_COLOUR ( '', #257 ) ;
#131 = CLOSED_SHELL ( 'NONE', ( #193, #272, #160, #94 ) ) ;
#132 = DIRECTION ( 'NONE',  ( -0.000000000000000000, -1.000000000000000000, -0.000000000000000000 ) ) ;
#133 = STYLED_ITEM ( 'NONE', ( #220 ), #272 ) ;
#134 = ORIENTED_EDGE ( 'NONE', *, *, #288, .F. ) ;
#135 = PLANE ( 'NONE',  #186 ) ;
#136 = SURFACE_STYLE_USAGE ( .BOTH. , #151 ) ;
#137 = SURFACE_STYLE_FILL_AREA ( #243 ) ;
#138 = FILL_AREA_STYLE ('',( #201 ) ) ;
#139 = VECTOR ( 'NONE', #241, 1000.000000000000000 ) ;
#140 = ORIENTED_EDGE ( 'NONE', *, *, #100, .T. ) ;
#141 = VERTEX_POINT ( 'NONE', #218 ) ;
#142 = EDGE_CURVE ( 'NONE', #141, #114, #275, .T. ) ;
#143 = VECTOR ( 'NONE', #195, 1000.000000000000000 ) ;
#144 = UNCERTAINTY_MEASURE_WITH_UNIT (LENGTH_MEASURE( 1.000000000000000082E-05 ), #116, 'distance_accuracy_value', 'NONE');
#145 = PRESENTATION_STYLE_ASSIGNMENT (( #212 ) ) ;
#146 =( NAMED_UNIT ( * ) PLANE_ANGLE_UNIT ( ) SI_UNIT ( $, .RADIAN. ) );
#147 = EDGE_CURVE ( 'NONE', #263, #70, #82, .T. ) ;
#148 = CIRCLE ( 'NONE', #2, 3.000000000000000000 ) ;
#149 = EDGE_CURVE ( 'NONE', #114, #141, #248, .T. ) ;
#150 = EDGE_LOOP ( 'NONE', ( #121, #20, #6, #231 ) ) ;
#151 = SURFACE_SIDE_STYLE ('',( #21 ) ) ;
#152 = CYLINDRICAL_SURFACE ( 'NONE', #210, 3.000000000000000000 ) ;
#153 = CARTESIAN_POINT ( 'NONE',  ( 0.000000000000000000, 0.000000000000000000, 0.000000000000000000 ) ) ;
#154 =( NAMED_UNIT ( * ) SI_UNIT ( $, .STERADIAN. ) SOLID_ANGLE_UNIT ( ) );
#155 = AXIS2_PLACEMENT_3D ( 'NONE', #73, #222, #90 ) ;
#156 = EDGE_CURVE ( 'NONE', #266, #74, #194, .T. ) ;
#157 = DIRECTION ( 'NONE',  ( -0.000000000000000000, -1.000000000000000000, -0.000000000000000000 ) ) ;
#158 = DIRECTION ( 'NONE',  ( 0.000000000000000000, 0.000000000000000000, -1.000000000000000000 ) ) ;
#159 = DIRECTION ( 'NONE',  ( 6.243297407417877041E-17, 1.000000000000000000, -0.000000000000000000 ) ) ;
#160 = ADVANCED_FACE ( 'NONE', ( #65 ), #152, .T. ) ;
#161 = EDGE_LOOP ( 'NONE', ( #204, #106 ) ) ;
#162 = AXIS2_PLACEMENT_3D ( 'NONE', #104, #237, #273 ) ;
#163 = SURFACE_STYLE_USAGE ( .BOTH. , #96 ) ;
#164 = PRODUCT_RELATED_PRODUCT_CATEGORY ( 'part', '', ( #24 ) ) ;
#165 = STYLED_ITEM ( 'NONE', ( #145 ), #193 ) ;
#166 = ORIENTED_EDGE ( 'NONE', *, *, #7, .F. ) ;
#167 = VERTEX_POINT ( 'NONE', #61 ) ;
#168 = FILL_AREA_STYLE ('',( #185 ) ) ;
#169 = CARTESIAN_POINT ( 'NONE',  ( 3.184081677783117402E-15, 63.00000000000000000, 0.000000000000000000 ) ) ;
#170 = PRODUCT_DEFINITION_SHAPE ( 'NONE', 'NONE',  #211 ) ;
#171 =( NAMED_UNIT ( * ) PLANE_ANGLE_UNIT ( ) SI_UNIT ( $, .RADIAN. ) );
#172 =( LENGTH_UNIT ( ) NAMED_UNIT ( * ) SI_UNIT ( .MILLI., .METRE. ) );
#173 = DIRECTION ( 'NONE',  ( -0.000000000000000000, -1.000000000000000000, -0.000000000000000000 ) ) ;
#174 =( LENGTH_UNIT ( ) NAMED_UNIT ( * ) SI_UNIT ( .MILLI., .METRE. ) );
#175 = CARTESIAN_POINT ( 'NONE',  ( -2.999999999999993783, 63.00000000000000000, 0.000000000000000000 ) ) ;
#176 = DIRECTION ( 'NONE',  ( 6.243297407417877041E-17, 1.000000000000000000, -0.000000000000000000 ) ) ;
#177 = DIRECTION ( 'NONE',  ( 6.243297407417877041E-17, 1.000000000000000000, -0.000000000000000000 ) ) ;
#178 = AXIS2_PLACEMENT_3D ( 'NONE', #39, #261, #71 ) ;
#179 = ORIENTED_EDGE ( 'NONE', *, *, #13, .F. ) ;
#180 = DIRECTION ( 'NONE',  ( 0.000000000000000000, 0.000000000000000000, -1.000000000000000000 ) ) ;
#181 = COLOUR_RGB ( '',1.000000000000000000, 0.000000000000000000, 0.000000000000000000 ) ;
#182 = MECHANICAL_DESIGN_GEOMETRIC_PRESENTATION_REPRESENTATION (  '', ( #245 ), #25 ) ;
#183 = FILL_AREA_STYLE_COLOUR ( '', #217 ) ;
#184 = ORIENTED_EDGE ( 'NONE', *, *, #56, .T. ) ;
#185 = FILL_AREA_STYLE_COLOUR ( '', #181 ) ;
#186 = AXIS2_PLACEMENT_3D ( 'NONE', #219, #221, #91 ) ;
#187 = EDGE_LOOP ( 'NONE', ( #34, #184 ) ) ;
#188 =( GEOMETRIC_REPRESENTATION_CONTEXT ( 3 ) GLOBAL_UNCERTAINTY_ASSIGNED_CONTEXT ( ( #127 ) ) GLOBAL_UNIT_ASSIGNED_CONTEXT ( ( #205, #115, #30 ) ) REPRESENTATION_CONTEXT ( 'NONE', 'WORKASPACE' ) );
#189 = SURFACE_SIDE_STYLE ('',( #137 ) ) ;
#190 = DIRECTION ( 'NONE',  ( 1.000000000000000000, 0.000000000000000000, 0.000000000000000000 ) ) ;
#191 = FACE_OUTER_BOUND ( 'NONE', #267, .T. ) ;
#192 = PRODUCT_CONTEXT ( 'NONE', #101, 'mechanical' ) ;
#193 = ADVANCED_FACE ( 'NONE', ( #191 ), #10, .T. ) ;
#194 = CIRCLE ( 'NONE', #102, 3.000000000000000000 ) ;
#195 = DIRECTION ( 'NONE',  ( -0.000000000000000000, -1.000000000000000000, -0.000000000000000000 ) ) ;
#196 = APPLICATION_PROTOCOL_DEFINITION ( 'draft international standard', 'automotive_design', 1998, #271 ) ;
#197 = CARTESIAN_POINT ( 'NONE',  ( 0.000000000000000000, 12.00000000000000000, 0.000000000000000000 ) ) ;
#198 = ADVANCED_FACE ( 'NONE', ( #239 ), #45, .T. ) ;
#199 =( GEOMETRIC_REPRESENTATION_CONTEXT ( 3 ) GLOBAL_UNCERTAINTY_ASSIGNED_CONTEXT ( ( #15 ) ) GLOBAL_UNIT_ASSIGNED_CONTEXT ( ( #172, #125, #126 ) ) REPRESENTATION_CONTEXT ( 'NONE', 'WORKASPACE' ) );
#200 = PRESENTATION_STYLE_ASSIGNMENT (( #26 ) ) ;
#201 = FILL_AREA_STYLE_COLOUR ( '', #31 ) ;
#202 = ORIENTED_EDGE ( 'NONE', *, *, #142, .T. ) ;
#203 = COLOUR_RGB ( '',0.7921568627450980005, 0.8196078431372548767, 0.9333333333333333481 ) ;
#204 = ORIENTED_EDGE ( 'NONE', *, *, #142, .F. ) ;
#205 =( LENGTH_UNIT ( ) NAMED_UNIT ( * ) SI_UNIT ( .MILLI., .METRE. ) );
#206 = EDGE_CURVE ( 'NONE', #266, #70, #258, .T. ) ;
#207 = AXIS2_PLACEMENT_3D ( 'NONE', #112, #282, #158 ) ;
#208 = DIRECTION ( 'NONE',  ( 0.000000000000000000, 0.000000000000000000, -1.000000000000000000 ) ) ;
#209 = PLANE ( 'NONE',  #178 ) ;
#210 = AXIS2_PLACEMENT_3D ( 'NONE', #105, #119, #208 ) ;
#211 = PRODUCT_DEFINITION ( 'UNKNOWN', '', #48, #36 ) ;
#212 = SURFACE_STYLE_USAGE ( .BOTH. , #99 ) ;
#213 = CARTESIAN_POINT ( 'NONE',  ( 3.000000000000001332, 63.00000000000000000, 3.673940397442057896E-16 ) ) ;
#214 = DIRECTION ( 'NONE',  ( -1.000000000000000000, 0.000000000000000000, 0.000000000000000000 ) ) ;
#215 = UNCERTAINTY_MEASURE_WITH_UNIT (LENGTH_MEASURE( 1.000000000000000082E-05 ), #174, 'distance_accuracy_value', 'NONE');
#216 = PLANE ( 'NONE',  #269 ) ;
#217 = COLOUR_RGB ( '',0.7921568627450980005, 0.8196078431372548767, 0.9333333333333333481 ) ;
#218 = CARTESIAN_POINT ( 'NONE',  ( 0.000000000000000000, 12.00000000000000000, -3.000000000000000000 ) ) ;
#219 = CARTESIAN_POINT ( 'NONE',  ( 0.000000000000000000, 0.000000000000000000, 0.000000000000000000 ) ) ;
#220 = PRESENTATION_STYLE_ASSIGNMENT (( #136 ) ) ;
#221 = DIRECTION ( 'NONE',  ( 0.000000000000000000, -1.000000000000000000, -0.000000000000000000 ) ) ;
#222 = DIRECTION ( 'NONE',  ( 6.243297407417877041E-17, 1.000000000000000000, -0.000000000000000000 ) ) ;
#223 = LINE ( 'NONE', #213, #98 ) ;
#224 = FILL_AREA_STYLE ('',( #85 ) ) ;
#225 = CARTESIAN_POINT ( 'NONE',  ( 3.000000000000000000, 63.00000000000000000, 0.000000000000000000 ) ) ;
#226 = DIRECTION ( 'NONE',  ( 0.000000000000000000, 0.000000000000000000, -1.000000000000000000 ) ) ;
#227 = VERTEX_POINT ( 'NONE', #88 ) ;
#228 = AXIS2_PLACEMENT_3D ( 'NONE', #66, #159, #214 ) ;
#229 = MECHANICAL_DESIGN_GEOMETRIC_PRESENTATION_REPRESENTATION (  '', ( #111 ), #188 ) ;
#230 = ORIENTED_EDGE ( 'NONE', *, *, #288, .T. ) ;
#231 = ORIENTED_EDGE ( 'NONE', *, *, #147, .F. ) ;
#232 =( GEOMETRIC_REPRESENTATION_CONTEXT ( 3 ) GLOBAL_UNCERTAINTY_ASSIGNED_CONTEXT ( ( #144 ) ) GLOBAL_UNIT_ASSIGNED_CONTEXT ( ( #116, #62, #236 ) ) REPRESENTATION_CONTEXT ( 'NONE', 'WORKASPACE' ) );
#233 = EDGE_CURVE ( 'NONE', #74, #263, #223, .T. ) ;
#234 = UNCERTAINTY_MEASURE_WITH_UNIT (LENGTH_MEASURE( 1.000000000000000082E-05 ), #84, 'distance_accuracy_value', 'NONE');
#235 =( GEOMETRIC_REPRESENTATION_CONTEXT ( 3 ) GLOBAL_UNCERTAINTY_ASSIGNED_CONTEXT ( ( #3 ) ) GLOBAL_UNIT_ASSIGNED_CONTEXT ( ( #270, #146, #123 ) ) REPRESENTATION_CONTEXT ( 'NONE', 'WORKASPACE' ) );
#236 =( NAMED_UNIT ( * ) SI_UNIT ( $, .STERADIAN. ) SOLID_ANGLE_UNIT ( ) );
#237 = DIRECTION ( 'NONE',  ( 6.243297407417877041E-17, 1.000000000000000000, -0.000000000000000000 ) ) ;
#238 = CARTESIAN_POINT ( 'NONE',  ( 0.000000000000000000, 0.000000000000000000, -3.000000000000000000 ) ) ;
#239 = FACE_OUTER_BOUND ( 'NONE', #8, .T. ) ;
#240 = PRESENTATION_LAYER_ASSIGNMENT (  '', '', ( #37 ) ) ;
#241 = DIRECTION ( 'NONE',  ( 6.243297407417877041E-17, 1.000000000000000000, -0.000000000000000000 ) ) ;
#242 = SURFACE_STYLE_FILL_AREA ( #260 ) ;
#243 = FILL_AREA_STYLE ('',( #122 ) ) ;
#244 = FACE_OUTER_BOUND ( 'NONE', #246, .T. ) ;
#245 = STYLED_ITEM ( 'NONE', ( #200 ), #277 ) ;
#246 = EDGE_LOOP ( 'NONE', ( #1, #55 ) ) ;
#247 = LINE ( 'NONE', #274, #87 ) ;
#248 = CIRCLE ( 'NONE', #252, 3.000000000000000000 ) ;
#249 = SURFACE_STYLE_FILL_AREA ( #168 ) ;
#250 =( NAMED_UNIT ( * ) PLANE_ANGLE_UNIT ( ) SI_UNIT ( $, .RADIAN. ) );
#251 = SHAPE_DEFINITION_REPRESENTATION ( #170, #89 ) ;
#252 = AXIS2_PLACEMENT_3D ( 'NONE', #108, #157, #264 ) ;
#253 = AXIS2_PLACEMENT_3D ( 'NONE', #169, #51, #129 ) ;
#254 = SURFACE_STYLE_USAGE ( .BOTH. , #276 ) ;
#255 = DIRECTION ( 'NONE',  ( -0.000000000000000000, -1.000000000000000000, -0.000000000000000000 ) ) ;
#256 = SURFACE_SIDE_STYLE ('',( #22 ) ) ;
#257 = COLOUR_RGB ( '',1.000000000000000000, 0.000000000000000000, 0.000000000000000000 ) ;
#258 = LINE ( 'NONE', #68, #139 ) ;
#259 =( NAMED_UNIT ( * ) PLANE_ANGLE_UNIT ( ) SI_UNIT ( $, .RADIAN. ) );
#260 = FILL_AREA_STYLE ('',( #130 ) ) ;
#261 = DIRECTION ( 'NONE',  ( 0.000000000000000000, 1.000000000000000000, 0.000000000000000000 ) ) ;
#262 = CARTESIAN_POINT ( 'NONE',  ( 3.000000000000000000, 11.99999999999999645, 3.673940397442058882E-16 ) ) ;
#263 = VERTEX_POINT ( 'NONE', #11 ) ;
#264 = DIRECTION ( 'NONE',  ( 0.000000000000000000, 0.000000000000000000, -1.000000000000000000 ) ) ;
#265 = PRESENTATION_LAYER_ASSIGNMENT (  '', '', ( #284 ) ) ;
#266 = VERTEX_POINT ( 'NONE', #49 ) ;
#267 = EDGE_LOOP ( 'NONE', ( #202, #230, #166, #281 ) ) ;
#268 = AXIS2_PLACEMENT_3D ( 'NONE', #42, #44, #14 ) ;
#269 = AXIS2_PLACEMENT_3D ( 'NONE', #128, #278, #16 ) ;
#270 =( LENGTH_UNIT ( ) NAMED_UNIT ( * ) SI_UNIT ( .MILLI., .METRE. ) );
#271 = APPLICATION_CONTEXT ( 'automotive_design' ) ;
#272 = ADVANCED_FACE ( 'NONE', ( #52 ), #209, .T. ) ;
#273 = DIRECTION ( 'NONE',  ( -1.000000000000000000, 0.000000000000000000, 0.000000000000000000 ) ) ;
#274 = CARTESIAN_POINT ( 'NONE',  ( 3.673940397442059868E-16, 0.000000000000000000, 3.000000000000000000 ) ) ;
#275 = CIRCLE ( 'NONE', #67, 3.000000000000000000 ) ;
#276 = SURFACE_SIDE_STYLE ('',( #242 ) ) ;
#277 = MANIFOLD_SOLID_BREP ( 'Revolve - Tool Body (Straight Shanked)', #47 ) ;
#278 = DIRECTION ( 'NONE',  ( 6.243297407417877041E-17, 1.000000000000000000, -0.000000000000000000 ) ) ;
#279 = MANIFOLD_SOLID_BREP ( 'Revolve - Cutting Edge', #131 ) ;
#280 = FACE_OUTER_BOUND ( 'NONE', #187, .T. ) ;
#281 = ORIENTED_EDGE ( 'NONE', *, *, #100, .F. ) ;
#282 = DIRECTION ( 'NONE',  ( -0.000000000000000000, -1.000000000000000000, -0.000000000000000000 ) ) ;
#283 = DIRECTION ( 'NONE',  ( -1.000000000000000000, 0.000000000000000000, 0.000000000000000000 ) ) ;
#284 = STYLED_ITEM ( 'NONE', ( #50 ), #160 ) ;
#285 = PLANE ( 'NONE',  #78 ) ;
#286 =( LENGTH_UNIT ( ) NAMED_UNIT ( * ) SI_UNIT ( .MILLI., .METRE. ) );
#287 = DIRECTION ( 'NONE',  ( -6.243297407417877041E-17, -1.000000000000000000, 0.000000000000000000 ) ) ;
#288 = EDGE_CURVE ( 'NONE', #114, #227, #247, .T. ) ;
ENDSEC;
END-ISO-10303-21;
