ISO-10303-21;
HEADER;
FILE_DESCRIPTION (( 'STEP AP214' ),
    '1' );
FILE_NAME ('56242.STEP',
    '2023-06-30T22:07:02',
    ( '' ),
    ( '' ),
    'SwSTEP 2.0',
    'SolidWorks 2023',
    '' );
FILE_SCHEMA (( 'AUTOMOTIVE_DESIGN' ));
ENDSEC;

DATA;
#1 = CARTESIAN_POINT ( 'NONE',  ( -6.123233995736766036E-17, 2.500000000000000000, 0.000000000000000000 ) ) ;
#2 = FILL_AREA_STYLE_COLOUR ( '', #96 ) ;
#3 = CIRCLE ( 'NONE', #211, 0.1562499999999999167 ) ;
#4 = EDGE_CURVE ( 'NONE', #348, #318, #316, .T. ) ;
#5 = DIRECTION ( 'NONE',  ( -1.224646799147352961E-16, 1.000000000000000000, -0.000000000000000000 ) ) ;
#6 = ORIENTED_EDGE ( 'NONE', *, *, #4, .T. ) ;
#7 = VECTOR ( 'NONE', #341, 39.37007874015748143 ) ;
#8 = STYLED_ITEM ( 'NONE', ( #141 ), #372 ) ;
#9 = EDGE_CURVE ( 'NONE', #278, #174, #92, .T. ) ;
#10 = ORIENTED_EDGE ( 'NONE', *, *, #123, .F. ) ;
#11 = CYLINDRICAL_SURFACE ( 'NONE', #265, 0.1562499999999999445 ) ;
#12 = FILL_AREA_STYLE ('',( #246 ) ) ;
#13 =( LENGTH_UNIT ( ) NAMED_UNIT ( * ) SI_UNIT ( $, .METRE. ) );
#14 = FACE_OUTER_BOUND ( 'NONE', #272, .T. ) ;
#15 = EDGE_CURVE ( 'NONE', #293, #325, #346, .T. ) ;
#16 = ORIENTED_EDGE ( 'NONE', *, *, #319, .T. ) ;
#17 =( NAMED_UNIT ( * ) PLANE_ANGLE_UNIT ( ) SI_UNIT ( $, .RADIAN. ) );
#18 = PRODUCT ( '56242', '56242', '', ( #104 ) ) ;
#19 =( NAMED_UNIT ( * ) SI_UNIT ( $, .STERADIAN. ) SOLID_ANGLE_UNIT ( ) );
#20 = SURFACE_STYLE_USAGE ( .BOTH. , #226 ) ;
#21 = CARTESIAN_POINT ( 'NONE',  ( 0.1562499999999999167, 2.500000000000000000, 0.000000000000000000 ) ) ;
#22 = AXIS2_PLACEMENT_3D ( 'NONE', #304, #259, #59 ) ;
#23 = AXIS2_PLACEMENT_3D ( 'NONE', #45, #253, #199 ) ;
#24 = EDGE_CURVE ( 'NONE', #174, #278, #298, .T. ) ;
#25 = SURFACE_STYLE_USAGE ( .BOTH. , #175 ) ;
#26 = LINE ( 'NONE', #254, #77 ) ;
#27 = LINE ( 'NONE', #335, #7 ) ;
#28 = FACE_OUTER_BOUND ( 'NONE', #139, .T. ) ;
#29 = VERTEX_POINT ( 'NONE', #230 ) ;
#30 = ORIENTED_EDGE ( 'NONE', *, *, #94, .T. ) ;
#31 = UNCERTAINTY_MEASURE_WITH_UNIT (LENGTH_MEASURE( 1.000000000000000082E-05 ), #305, 'distance_accuracy_value', 'NONE');
#32 = PRESENTATION_LAYER_ASSIGNMENT (  '', '', ( #161 ) ) ;
#33 = ORIENTED_EDGE ( 'NONE', *, *, #9, .F. ) ;
#34 = MECHANICAL_DESIGN_GEOMETRIC_PRESENTATION_REPRESENTATION (  '', ( #342 ), #368 ) ;
#35 = MECHANICAL_DESIGN_GEOMETRIC_PRESENTATION_REPRESENTATION (  '', ( #8 ), #320 ) ;
#36 = ORIENTED_EDGE ( 'NONE', *, *, #132, .F. ) ;
#37 = CARTESIAN_POINT ( 'NONE',  ( 0.000000000000000000, 0.7500000000000001110, 0.000000000000000000 ) ) ;
#38 =( NAMED_UNIT ( * ) SI_UNIT ( $, .STERADIAN. ) SOLID_ANGLE_UNIT ( ) );
#39 = AXIS2_PLACEMENT_3D ( 'NONE', #323, #40, #42 ) ;
#40 = DIRECTION ( 'NONE',  ( -1.224646799147352961E-16, 1.000000000000000000, -0.000000000000000000 ) ) ;
#41 = UNCERTAINTY_MEASURE_WITH_UNIT (LENGTH_MEASURE( 1.000000000000000082E-05 ), #55, 'distance_accuracy_value', 'NONE');
#42 = DIRECTION ( 'NONE',  ( -1.000000000000000000, 0.000000000000000000, 0.000000000000000000 ) ) ;
#43 = DIMENSIONAL_EXPONENTS ( 1.000000000000000000, 0.000000000000000000, 0.000000000000000000, 0.000000000000000000, 0.000000000000000000, 0.000000000000000000, 0.000000000000000000 ) ;
#44 = MECHANICAL_DESIGN_GEOMETRIC_PRESENTATION_REPRESENTATION (  '', ( #216 ), #150 ) ;
#45 = CARTESIAN_POINT ( 'NONE',  ( -1.913510623667739463E-17, 0.1562500000000000000, 0.000000000000000000 ) ) ;
#46 = CYLINDRICAL_SURFACE ( 'NONE', #39, 0.1562499999999998612 ) ;
#47 = ORIENTED_EDGE ( 'NONE', *, *, #15, .F. ) ;
#48 =( LENGTH_UNIT ( ) NAMED_UNIT ( * ) SI_UNIT ( $, .METRE. ) );
#49 = FILL_AREA_STYLE ('',( #79 ) ) ;
#50 = EDGE_CURVE ( 'NONE', #82, #293, #240, .T. ) ;
#51 = DIRECTION ( 'NONE',  ( -0.000000000000000000, -1.000000000000000000, -0.000000000000000000 ) ) ;
#52 = PLANE ( 'NONE',  #148 ) ;
#53 = STYLED_ITEM ( 'NONE', ( #270 ), #186 ) ;
#54 = CIRCLE ( 'NONE', #347, 0.1562499999999999167 ) ;
#55 =( CONVERSION_BASED_UNIT ( 'INCH', #307 ) LENGTH_UNIT ( ) NAMED_UNIT ( #158 ) );
#56 = ORIENTED_EDGE ( 'NONE', *, *, #160, .F. ) ;
#57 = SURFACE_STYLE_FILL_AREA ( #86 ) ;
#58 = SURFACE_STYLE_USAGE ( .BOTH. , #369 ) ;
#59 = DIRECTION ( 'NONE',  ( -1.000000000000000000, 0.000000000000000000, 0.000000000000000000 ) ) ;
#60 = DIRECTION ( 'NONE',  ( 1.224646799147352961E-16, -1.000000000000000000, 0.000000000000000000 ) ) ;
#61 = AXIS2_PLACEMENT_3D ( 'NONE', #255, #281, #331 ) ;
#62 =( LENGTH_UNIT ( ) NAMED_UNIT ( * ) SI_UNIT ( $, .METRE. ) );
#63 = CARTESIAN_POINT ( 'NONE',  ( -1.913510623667739463E-17, 0.1562500000000000000, 0.000000000000000000 ) ) ;
#64 = EDGE_CURVE ( 'NONE', #278, #348, #90, .T. ) ;
#65 = LENGTH_MEASURE_WITH_UNIT ( LENGTH_MEASURE( 0.02539999999999999897 ), #62 );
#66 = SURFACE_STYLE_FILL_AREA ( #373 ) ;
#67 = PRODUCT_DEFINITION_FORMATION_WITH_SPECIFIED_SOURCE ( 'ANY', '', #18, .NOT_KNOWN. ) ;
#68 = DIMENSIONAL_EXPONENTS ( 1.000000000000000000, 0.000000000000000000, 0.000000000000000000, 0.000000000000000000, 0.000000000000000000, 0.000000000000000000, 0.000000000000000000 ) ;
#69 = ORIENTED_EDGE ( 'NONE', *, *, #50, .F. ) ;
#70 = PLANE ( 'NONE',  #107 ) ;
#71 = ADVANCED_BREP_SHAPE_REPRESENTATION ( '56242', ( #218, #215, #313 ), #155 ) ;
#72 = CARTESIAN_POINT ( 'NONE',  ( 0.000000000000000000, 0.000000000000000000, 0.000000000000000000 ) ) ;
#73 = DIMENSIONAL_EXPONENTS ( 1.000000000000000000, 0.000000000000000000, 0.000000000000000000, 0.000000000000000000, 0.000000000000000000, 0.000000000000000000, 0.000000000000000000 ) ;
#74 = FILL_AREA_STYLE_COLOUR ( '', #76 ) ;
#75 = DIRECTION ( 'NONE',  ( 0.000000000000000000, 0.000000000000000000, -1.000000000000000000 ) ) ;
#76 = COLOUR_RGB ( '',0.7921568627450980005, 0.8196078431372548767, 0.9333333333333333481 ) ;
#77 = VECTOR ( 'NONE', #106, 39.37007874015748143 ) ;
#78 = FILL_AREA_STYLE ('',( #355 ) ) ;
#79 = FILL_AREA_STYLE_COLOUR ( '', #108 ) ;
#80 = ORIENTED_EDGE ( 'NONE', *, *, #350, .F. ) ;
#81 = CARTESIAN_POINT ( 'NONE',  ( -0.1562499999999996392, 0.7499999999999998890, 0.000000000000000000 ) ) ;
#82 = VERTEX_POINT ( 'NONE', #206 ) ;
#83 = FACE_OUTER_BOUND ( 'NONE', #258, .T. ) ;
#84 = CARTESIAN_POINT ( 'NONE',  ( -0.1562500000000000278, 2.500000000000000000, 0.000000000000000000 ) ) ;
#85 = AXIS2_PLACEMENT_3D ( 'NONE', #200, #146, #363 ) ;
#86 = FILL_AREA_STYLE ('',( #74 ) ) ;
#87 = DIRECTION ( 'NONE',  ( -0.000000000000000000, -1.000000000000000000, -0.000000000000000000 ) ) ;
#88 = DIMENSIONAL_EXPONENTS ( 1.000000000000000000, 0.000000000000000000, 0.000000000000000000, 0.000000000000000000, 0.000000000000000000, 0.000000000000000000, 0.000000000000000000 ) ;
#89 = ADVANCED_FACE ( 'NONE', ( #312 ), #52, .F. ) ;
#90 = LINE ( 'NONE', #310, #214 ) ;
#91 = DIRECTION ( 'NONE',  ( -1.224646799147352961E-16, 1.000000000000000000, -0.000000000000000000 ) ) ;
#92 = CIRCLE ( 'NONE', #22, 0.1562499999999997780 ) ;
#93 = SURFACE_STYLE_FILL_AREA ( #345 ) ;
#94 = EDGE_CURVE ( 'NONE', #82, #109, #279, .T. ) ;
#95 =( CONVERSION_BASED_UNIT ( 'INCH', #208 ) LENGTH_UNIT ( ) NAMED_UNIT ( #88 ) );
#96 = COLOUR_RGB ( '',1.000000000000000000, 0.000000000000000000, 0.000000000000000000 ) ;
#97 = AXIS2_PLACEMENT_3D ( 'NONE', #301, #173, #110 ) ;
#98 =( CONVERSION_BASED_UNIT ( 'INCH', #269 ) LENGTH_UNIT ( ) NAMED_UNIT ( #322 ) );
#99 = CARTESIAN_POINT ( 'NONE',  ( 1.530808498934191571E-16, 0.7500000000000001110, 0.000000000000000000 ) ) ;
#100 = UNCERTAINTY_MEASURE_WITH_UNIT (LENGTH_MEASURE( 1.000000000000000082E-05 ), #95, 'distance_accuracy_value', 'NONE');
#101 = MECHANICAL_DESIGN_GEOMETRIC_PRESENTATION_REPRESENTATION (  '', ( #207 ), #295 ) ;
#102 = AXIS2_PLACEMENT_3D ( 'NONE', #252, #328, #303 ) ;
#103 =( NAMED_UNIT ( * ) SI_UNIT ( $, .STERADIAN. ) SOLID_ANGLE_UNIT ( ) );
#104 = PRODUCT_CONTEXT ( 'NONE', #285, 'mechanical' ) ;
#105 =( CONVERSION_BASED_UNIT ( 'INCH', #163 ) LENGTH_UNIT ( ) NAMED_UNIT ( #222 ) );
#106 = DIRECTION ( 'NONE',  ( -1.224646799147352961E-16, 1.000000000000000000, -0.000000000000000000 ) ) ;
#107 = AXIS2_PLACEMENT_3D ( 'NONE', #99, #294, #220 ) ;
#108 = COLOUR_RGB ( '',1.000000000000000000, 0.000000000000000000, 0.000000000000000000 ) ;
#109 = VERTEX_POINT ( 'NONE', #172 ) ;
#110 = DIRECTION ( 'NONE',  ( 0.000000000000000000, 0.000000000000000000, -1.000000000000000000 ) ) ;
#111 = DIRECTION ( 'NONE',  ( 0.000000000000000000, 0.000000000000000000, -1.000000000000000000 ) ) ;
#112 =( LENGTH_UNIT ( ) NAMED_UNIT ( * ) SI_UNIT ( $, .METRE. ) );
#113 = LINE ( 'NONE', #302, #267 ) ;
#114 = DIRECTION ( 'NONE',  ( -1.000000000000000000, 0.000000000000000000, 0.000000000000000000 ) ) ;
#115 = STYLED_ITEM ( 'NONE', ( #122 ), #218 ) ;
#116 = COLOUR_RGB ( '',1.000000000000000000, 0.000000000000000000, 0.000000000000000000 ) ;
#117 = FILL_AREA_STYLE_COLOUR ( '', #153 ) ;
#118 =( LENGTH_UNIT ( ) NAMED_UNIT ( * ) SI_UNIT ( $, .METRE. ) );
#119 = DIRECTION ( 'NONE',  ( -1.224646799147352961E-16, 1.000000000000000000, -0.000000000000000000 ) ) ;
#120 = DIRECTION ( 'NONE',  ( 0.000000000000000000, 0.000000000000000000, -1.000000000000000000 ) ) ;
#121 = ORIENTED_EDGE ( 'NONE', *, *, #276, .F. ) ;
#122 = PRESENTATION_STYLE_ASSIGNMENT (( #125 ) ) ;
#123 = EDGE_CURVE ( 'NONE', #198, #82, #178, .T. ) ;
#124 = AXIS2_PLACEMENT_3D ( 'NONE', #286, #264, #143 ) ;
#125 = SURFACE_STYLE_USAGE ( .BOTH. , #209 ) ;
#126 = CARTESIAN_POINT ( 'NONE',  ( -6.123233995736766036E-17, 2.500000000000000000, 0.000000000000000000 ) ) ;
#127 = PLANE ( 'NONE',  #130 ) ;
#128 = ORIENTED_EDGE ( 'NONE', *, *, #266, .T. ) ;
#129 = CLOSED_SHELL ( 'NONE', ( #243, #297, #372, #186, #334 ) ) ;
#130 = AXIS2_PLACEMENT_3D ( 'NONE', #37, #241, #187 ) ;
#131 = ORIENTED_EDGE ( 'NONE', *, *, #132, .T. ) ;
#132 = EDGE_CURVE ( 'NONE', #29, #198, #27, .T. ) ;
#133 = SURFACE_SIDE_STYLE ('',( #217 ) ) ;
#134 = LENGTH_MEASURE_WITH_UNIT ( LENGTH_MEASURE( 0.02539999999999999897 ), #13 );
#135 = ORIENTED_EDGE ( 'NONE', *, *, #24, .T. ) ;
#136 = CYLINDRICAL_SURFACE ( 'NONE', #97, 0.1562499999999999445 ) ;
#137 = UNCERTAINTY_MEASURE_WITH_UNIT (LENGTH_MEASURE( 1.000000000000000082E-05 ), #98, 'distance_accuracy_value', 'NONE');
#138 =( CONVERSION_BASED_UNIT ( 'INCH', #333 ) LENGTH_UNIT ( ) NAMED_UNIT ( #68 ) );
#139 = EDGE_LOOP ( 'NONE', ( #354, #168, #234, #349 ) ) ;
#140 = CARTESIAN_POINT ( 'NONE',  ( 0.000000000000000000, 0.1562500000000000278, -0.1562499999999999722 ) ) ;
#141 = PRESENTATION_STYLE_ASSIGNMENT (( #20 ) ) ;
#142 = PRESENTATION_LAYER_ASSIGNMENT (  '', '', ( #115 ) ) ;
#143 = DIRECTION ( 'NONE',  ( 1.000000000000000000, 0.000000000000000000, -1.224646799147353207E-16 ) ) ;
#144 = DIRECTION ( 'NONE',  ( -1.000000000000000000, 0.000000000000000000, 0.000000000000000000 ) ) ;
#145 =( NAMED_UNIT ( * ) SI_UNIT ( $, .STERADIAN. ) SOLID_ANGLE_UNIT ( ) );
#146 = DIRECTION ( 'NONE',  ( -1.224646799147352961E-16, 1.000000000000000000, -0.000000000000000000 ) ) ;
#147 = FILL_AREA_STYLE ('',( #274 ) ) ;
#148 = AXIS2_PLACEMENT_3D ( 'NONE', #21, #60, #179 ) ;
#149 = CARTESIAN_POINT ( 'NONE',  ( 0.000000000000000000, 0.1562500000000000278, 0.000000000000000000 ) ) ;
#150 =( GEOMETRIC_REPRESENTATION_CONTEXT ( 3 ) GLOBAL_UNCERTAINTY_ASSIGNED_CONTEXT ( ( #340 ) ) GLOBAL_UNIT_ASSIGNED_CONTEXT ( ( #105, #17, #19 ) ) REPRESENTATION_CONTEXT ( 'NONE', 'WORKASPACE' ) );
#151 = CARTESIAN_POINT ( 'NONE',  ( 1.913510623667738847E-17, 0.1562500000000000278, 0.1562499999999999722 ) ) ;
#152 = EDGE_LOOP ( 'NONE', ( #128, #131, #121, #47, #56 ) ) ;
#153 = COLOUR_RGB ( '',0.7921568627450980005, 0.8196078431372548767, 0.9333333333333333481 ) ;
#154 =( NAMED_UNIT ( * ) PLANE_ANGLE_UNIT ( ) SI_UNIT ( $, .RADIAN. ) );
#155 =( GEOMETRIC_REPRESENTATION_CONTEXT ( 3 ) GLOBAL_UNCERTAINTY_ASSIGNED_CONTEXT ( ( #137 ) ) GLOBAL_UNIT_ASSIGNED_CONTEXT ( ( #98, #292, #38 ) ) REPRESENTATION_CONTEXT ( 'NONE', 'WORKASPACE' ) );
#156 = EDGE_CURVE ( 'NONE', #318, #348, #193, .T. ) ;
#157 = MECHANICAL_DESIGN_GEOMETRIC_PRESENTATION_REPRESENTATION (  '', ( #53 ), #358 ) ;
#158 = DIMENSIONAL_EXPONENTS ( 1.000000000000000000, 0.000000000000000000, 0.000000000000000000, 0.000000000000000000, 0.000000000000000000, 0.000000000000000000, 0.000000000000000000 ) ;
#159 = AXIS2_PLACEMENT_3D ( 'NONE', #149, #262, #111 ) ;
#160 = EDGE_CURVE ( 'NONE', #191, #293, #113, .T. ) ;
#161 = STYLED_ITEM ( 'NONE', ( #280 ), #334 ) ;
#162 = ORIENTED_EDGE ( 'NONE', *, *, #9, .T. ) ;
#163 = LENGTH_MEASURE_WITH_UNIT ( LENGTH_MEASURE( 0.02539999999999999897 ), #48 );
#164 = CARTESIAN_POINT ( 'NONE',  ( 0.1562499999999999722, 0.1562500000000000278, 0.000000000000000000 ) ) ;
#165 = ORIENTED_EDGE ( 'NONE', *, *, #276, .T. ) ;
#166 = SURFACE_STYLE_FILL_AREA ( #49 ) ;
#167 = PRODUCT_DEFINITION_SHAPE ( 'NONE', 'NONE',  #237 ) ;
#168 = ORIENTED_EDGE ( 'NONE', *, *, #50, .T. ) ;
#169 = CARTESIAN_POINT ( 'NONE',  ( 0.000000000000000000, 0.7500000000000001110, 0.000000000000000000 ) ) ;
#170 = DIMENSIONAL_EXPONENTS ( 1.000000000000000000, 0.000000000000000000, 0.000000000000000000, 0.000000000000000000, 0.000000000000000000, 0.000000000000000000, 0.000000000000000000 ) ;
#171 = PRESENTATION_LAYER_ASSIGNMENT (  '', '', ( #216 ) ) ;
#172 = CARTESIAN_POINT ( 'NONE',  ( -9.567553118338697316E-18, 0.000000000000000000, 0.000000000000000000 ) ) ;
#173 = DIRECTION ( 'NONE',  ( -0.000000000000000000, -1.000000000000000000, -0.000000000000000000 ) ) ;
#174 = VERTEX_POINT ( 'NONE', #361 ) ;
#175 = SURFACE_SIDE_STYLE ('',( #57 ) ) ;
#176 = FACE_OUTER_BOUND ( 'NONE', #212, .T. ) ;
#177 = ADVANCED_FACE ( 'NONE', ( #204 ), #70, .F. ) ;
#178 = CIRCLE ( 'NONE', #61, 0.1562499999999999722 ) ;
#179 = DIRECTION ( 'NONE',  ( 1.000000000000000000, 1.224646799147352961E-16, 0.000000000000000000 ) ) ;
#180 = FACE_OUTER_BOUND ( 'NONE', #337, .T. ) ;
#181 = SURFACE_SIDE_STYLE ('',( #66 ) ) ;
#182 = CIRCLE ( 'NONE', #23, 0.1562500000000000000 ) ;
#183 = ADVANCED_FACE ( 'NONE', ( #14 ), #46, .T. ) ;
#184 = ORIENTED_EDGE ( 'NONE', *, *, #156, .T. ) ;
#185 = ORIENTED_EDGE ( 'NONE', *, *, #350, .T. ) ;
#186 = ADVANCED_FACE ( 'NONE', ( #271 ), #11, .T. ) ;
#187 = DIRECTION ( 'NONE',  ( 0.000000000000000000, -0.000000000000000000, 1.000000000000000000 ) ) ;
#188 = COLOUR_RGB ( '',1.000000000000000000, 0.000000000000000000, 0.000000000000000000 ) ;
#189 = UNCERTAINTY_MEASURE_WITH_UNIT (LENGTH_MEASURE( 1.000000000000000082E-05 ), #138, 'distance_accuracy_value', 'NONE');
#190 = DIRECTION ( 'NONE',  ( 0.000000000000000000, 0.000000000000000000, 1.000000000000000000 ) ) ;
#191 = VERTEX_POINT ( 'NONE', #233 ) ;
#192 = SURFACE_SIDE_STYLE ('',( #327 ) ) ;
#193 = CIRCLE ( 'NONE', #210, 0.1562499999999999722 ) ;
#194 = AXIS2_PLACEMENT_3D ( 'NONE', #63, #344, #314 ) ;
#195 =( NAMED_UNIT ( * ) PLANE_ANGLE_UNIT ( ) SI_UNIT ( $, .RADIAN. ) );
#196 = ORIENTED_EDGE ( 'NONE', *, *, #4, .F. ) ;
#197 = DIRECTION ( 'NONE',  ( -1.000000000000000000, 0.000000000000000000, 0.000000000000000000 ) ) ;
#198 = VERTEX_POINT ( 'NONE', #151 ) ;
#199 = DIRECTION ( 'NONE',  ( -1.000000000000000000, 0.000000000000000000, 0.000000000000000000 ) ) ;
#200 = CARTESIAN_POINT ( 'NONE',  ( -6.123233995736766036E-17, 2.500000000000000000, 0.000000000000000000 ) ) ;
#201 = LENGTH_MEASURE_WITH_UNIT ( LENGTH_MEASURE( 0.02539999999999999897 ), #112 );
#202 =( GEOMETRIC_REPRESENTATION_CONTEXT ( 3 ) GLOBAL_UNCERTAINTY_ASSIGNED_CONTEXT ( ( #100 ) ) GLOBAL_UNIT_ASSIGNED_CONTEXT ( ( #95, #263, #239 ) ) REPRESENTATION_CONTEXT ( 'NONE', 'WORKASPACE' ) );
#203 = COLOUR_RGB ( '',1.000000000000000000, 0.000000000000000000, 0.000000000000000000 ) ;
#204 = FACE_OUTER_BOUND ( 'NONE', #371, .T. ) ;
#205 = ORIENTED_EDGE ( 'NONE', *, *, #64, .T. ) ;
#206 = CARTESIAN_POINT ( 'NONE',  ( -0.1562500000000000000, 0.1562500000000000278, 1.913510623667738847E-17 ) ) ;
#207 = STYLED_ITEM ( 'NONE', ( #256 ), #215 ) ;
#208 = LENGTH_MEASURE_WITH_UNIT ( LENGTH_MEASURE( 0.02539999999999999897 ), #315 );
#209 = SURFACE_SIDE_STYLE ('',( #93 ) ) ;
#210 = AXIS2_PLACEMENT_3D ( 'NONE', #1, #91, #144 ) ;
#211 = AXIS2_PLACEMENT_3D ( 'NONE', #329, #359, #251 ) ;
#212 = EDGE_LOOP ( 'NONE', ( #244, #245 ) ) ;
#213 = ORIENTED_EDGE ( 'NONE', *, *, #123, .T. ) ;
#214 = VECTOR ( 'NONE', #227, 39.37007874015748143 ) ;
#215 = MANIFOLD_SOLID_BREP ( 'Revolve - Tool Body (Straight Shanked)', #224 ) ;
#216 = STYLED_ITEM ( 'NONE', ( #353 ), #297 ) ;
#217 = SURFACE_STYLE_FILL_AREA ( #12 ) ;
#218 = MANIFOLD_SOLID_BREP ( 'Revolve - Cutting Edge', #129 ) ;
#219 = DIRECTION ( 'NONE',  ( -0.000000000000000000, -1.000000000000000000, -0.000000000000000000 ) ) ;
#220 = DIRECTION ( 'NONE',  ( -1.000000000000000000, -1.224646799147352961E-16, 0.000000000000000000 ) ) ;
#221 = ORIENTED_EDGE ( 'NONE', *, *, #24, .F. ) ;
#222 = DIMENSIONAL_EXPONENTS ( 1.000000000000000000, 0.000000000000000000, 0.000000000000000000, 0.000000000000000000, 0.000000000000000000, 0.000000000000000000, 0.000000000000000000 ) ;
#223 = FACE_OUTER_BOUND ( 'NONE', #152, .T. ) ;
#224 = CLOSED_SHELL ( 'NONE', ( #249, #177, #183, #89 ) ) ;
#225 = AXIS2_PLACEMENT_3D ( 'NONE', #126, #5, #197 ) ;
#226 = SURFACE_SIDE_STYLE ('',( #166 ) ) ;
#227 = DIRECTION ( 'NONE',  ( -1.224646799147352961E-16, 1.000000000000000000, -0.000000000000000000 ) ) ;
#228 = DIRECTION ( 'NONE',  ( -0.000000000000000000, -1.000000000000000000, -0.000000000000000000 ) ) ;
#229 = ORIENTED_EDGE ( 'NONE', *, *, #283, .F. ) ;
#230 = CARTESIAN_POINT ( 'NONE',  ( 1.913510623667738231E-17, 0.7500000000000001110, 0.1562499999999999167 ) ) ;
#231 = DIRECTION ( 'NONE',  ( 0.000000000000000000, 0.000000000000000000, -1.000000000000000000 ) ) ;
#232 = CARTESIAN_POINT ( 'NONE',  ( 0.000000000000000000, 0.1562500000000000278, 0.000000000000000000 ) ) ;
#233 = CARTESIAN_POINT ( 'NONE',  ( 0.000000000000000000, 0.7500000000000001110, -0.1562499999999999167 ) ) ;
#234 = ORIENTED_EDGE ( 'NONE', *, *, #15, .T. ) ;
#235 = CIRCLE ( 'NONE', #242, 0.1562499999999999722 ) ;
#236 = SURFACE_STYLE_USAGE ( .BOTH. , #181 ) ;
#237 = PRODUCT_DEFINITION ( 'UNKNOWN', '', #67, #352 ) ;
#238 = SPHERICAL_SURFACE ( 'NONE', #194, 0.1562500000000000000 ) ;
#239 =( NAMED_UNIT ( * ) SI_UNIT ( $, .STERADIAN. ) SOLID_ANGLE_UNIT ( ) );
#240 = CIRCLE ( 'NONE', #367, 0.1562499999999999722 ) ;
#241 = DIRECTION ( 'NONE',  ( 0.000000000000000000, 1.000000000000000000, 0.000000000000000000 ) ) ;
#242 = AXIS2_PLACEMENT_3D ( 'NONE', #273, #219, #75 ) ;
#243 = ADVANCED_FACE ( 'NONE', ( #83 ), #238, .T. ) ;
#244 = ORIENTED_EDGE ( 'NONE', *, *, #266, .F. ) ;
#245 = ORIENTED_EDGE ( 'NONE', *, *, #319, .F. ) ;
#246 = FILL_AREA_STYLE_COLOUR ( '', #188 ) ;
#247 = APPLICATION_PROTOCOL_DEFINITION ( 'draft international standard', 'automotive_design', 1998, #285 ) ;
#248 =( CONVERSION_BASED_UNIT ( 'INCH', #134 ) LENGTH_UNIT ( ) NAMED_UNIT ( #43 ) );
#249 = ADVANCED_FACE ( 'NONE', ( #180 ), #290, .T. ) ;
#250 = EDGE_LOOP ( 'NONE', ( #36, #16, #291, #69, #10 ) ) ;
#251 = DIRECTION ( 'NONE',  ( 0.000000000000000000, 0.000000000000000000, -1.000000000000000000 ) ) ;
#252 = CARTESIAN_POINT ( 'NONE',  ( -1.913510623667739463E-17, 0.1562500000000000000, 0.000000000000000000 ) ) ;
#253 = DIRECTION ( 'NONE',  ( 0.000000000000000000, 0.000000000000000000, -1.000000000000000000 ) ) ;
#254 = CARTESIAN_POINT ( 'NONE',  ( 0.1562499999999998057, 2.500000000000000000, 1.913510623667737923E-17 ) ) ;
#255 = CARTESIAN_POINT ( 'NONE',  ( 0.000000000000000000, 0.1562500000000000278, 0.000000000000000000 ) ) ;
#256 = PRESENTATION_STYLE_ASSIGNMENT (( #25 ) ) ;
#257 = SURFACE_STYLE_FILL_AREA ( #147 ) ;
#258 = EDGE_LOOP ( 'NONE', ( #213, #30, #229, #165 ) ) ;
#259 = DIRECTION ( 'NONE',  ( -1.224646799147352961E-16, 1.000000000000000000, -0.000000000000000000 ) ) ;
#260 = CARTESIAN_POINT ( 'NONE',  ( 0.000000000000000000, 0.000000000000000000, 0.000000000000000000 ) ) ;
#261 = MECHANICAL_DESIGN_GEOMETRIC_PRESENTATION_REPRESENTATION (  '', ( #115 ), #202 ) ;
#262 = DIRECTION ( 'NONE',  ( -0.000000000000000000, -1.000000000000000000, -0.000000000000000000 ) ) ;
#263 =( NAMED_UNIT ( * ) PLANE_ANGLE_UNIT ( ) SI_UNIT ( $, .RADIAN. ) );
#264 = DIRECTION ( 'NONE',  ( 1.224646799147353207E-16, -0.000000000000000000, 1.000000000000000000 ) ) ;
#265 = AXIS2_PLACEMENT_3D ( 'NONE', #260, #370, #120 ) ;
#266 = EDGE_CURVE ( 'NONE', #191, #29, #3, .T. ) ;
#267 = VECTOR ( 'NONE', #51, 39.37007874015748143 ) ;
#268 =( GEOMETRIC_REPRESENTATION_CONTEXT ( 3 ) GLOBAL_UNCERTAINTY_ASSIGNED_CONTEXT ( ( #189 ) ) GLOBAL_UNIT_ASSIGNED_CONTEXT ( ( #138, #195, #284 ) ) REPRESENTATION_CONTEXT ( 'NONE', 'WORKASPACE' ) );
#269 = LENGTH_MEASURE_WITH_UNIT ( LENGTH_MEASURE( 0.02539999999999999897 ), #296 );
#270 = PRESENTATION_STYLE_ASSIGNMENT (( #275 ) ) ;
#271 = FACE_OUTER_BOUND ( 'NONE', #250, .T. ) ;
#272 = EDGE_LOOP ( 'NONE', ( #80, #135, #205, #308 ) ) ;
#273 = CARTESIAN_POINT ( 'NONE',  ( 0.000000000000000000, 0.1562500000000000278, 0.000000000000000000 ) ) ;
#274 = FILL_AREA_STYLE_COLOUR ( '', #203 ) ;
#275 = SURFACE_STYLE_USAGE ( .BOTH. , #133 ) ;
#276 = EDGE_CURVE ( 'NONE', #325, #198, #235, .T. ) ;
#277 = EDGE_LOOP ( 'NONE', ( #6, #184 ) ) ;
#278 = VERTEX_POINT ( 'NONE', #81 ) ;
#279 = CIRCLE ( 'NONE', #124, 0.1562500000000000000 ) ;
#280 = PRESENTATION_STYLE_ASSIGNMENT (( #58 ) ) ;
#281 = DIRECTION ( 'NONE',  ( -0.000000000000000000, -1.000000000000000000, -0.000000000000000000 ) ) ;
#282 = ORIENTED_EDGE ( 'NONE', *, *, #64, .F. ) ;
#283 = EDGE_CURVE ( 'NONE', #325, #109, #182, .T. ) ;
#284 =( NAMED_UNIT ( * ) SI_UNIT ( $, .STERADIAN. ) SOLID_ANGLE_UNIT ( ) );
#285 = APPLICATION_CONTEXT ( 'automotive_design' ) ;
#286 = CARTESIAN_POINT ( 'NONE',  ( -1.913510623667739463E-17, 0.1562500000000000000, 0.000000000000000000 ) ) ;
#287 =( CONVERSION_BASED_UNIT ( 'INCH', #65 ) LENGTH_UNIT ( ) NAMED_UNIT ( #170 ) );
#288 = PRODUCT_RELATED_PRODUCT_CATEGORY ( 'part', '', ( #18 ) ) ;
#289 =( NAMED_UNIT ( * ) PLANE_ANGLE_UNIT ( ) SI_UNIT ( $, .RADIAN. ) );
#290 = CYLINDRICAL_SURFACE ( 'NONE', #225, 0.1562499999999998612 ) ;
#291 = ORIENTED_EDGE ( 'NONE', *, *, #160, .T. ) ;
#292 =( NAMED_UNIT ( * ) PLANE_ANGLE_UNIT ( ) SI_UNIT ( $, .RADIAN. ) );
#293 = VERTEX_POINT ( 'NONE', #140 ) ;
#294 = DIRECTION ( 'NONE',  ( -1.224646799147352961E-16, 1.000000000000000000, 0.000000000000000000 ) ) ;
#295 =( GEOMETRIC_REPRESENTATION_CONTEXT ( 3 ) GLOBAL_UNCERTAINTY_ASSIGNED_CONTEXT ( ( #31 ) ) GLOBAL_UNIT_ASSIGNED_CONTEXT ( ( #305, #289, #366 ) ) REPRESENTATION_CONTEXT ( 'NONE', 'WORKASPACE' ) );
#296 =( LENGTH_UNIT ( ) NAMED_UNIT ( * ) SI_UNIT ( $, .METRE. ) );
#297 = ADVANCED_FACE ( 'NONE', ( #223 ), #136, .T. ) ;
#298 = CIRCLE ( 'NONE', #326, 0.1562499999999997780 ) ;
#299 = PRESENTATION_LAYER_ASSIGNMENT (  '', '', ( #342 ) ) ;
#300 = APPLICATION_CONTEXT ( 'automotive_design' ) ;
#301 = CARTESIAN_POINT ( 'NONE',  ( 0.000000000000000000, 0.000000000000000000, 0.000000000000000000 ) ) ;
#302 = CARTESIAN_POINT ( 'NONE',  ( 0.000000000000000000, 0.000000000000000000, -0.1562499999999999445 ) ) ;
#303 = DIRECTION ( 'NONE',  ( 1.000000000000000000, 0.000000000000000000, 0.000000000000000000 ) ) ;
#304 = CARTESIAN_POINT ( 'NONE',  ( 1.530808498934191078E-16, 0.7499999999999998890, 0.000000000000000000 ) ) ;
#305 =( CONVERSION_BASED_UNIT ( 'INCH', #201 ) LENGTH_UNIT ( ) NAMED_UNIT ( #73 ) );
#306 = PRESENTATION_LAYER_ASSIGNMENT (  '', '', ( #53 ) ) ;
#307 = LENGTH_MEASURE_WITH_UNIT ( LENGTH_MEASURE( 0.02539999999999999897 ), #330 );
#308 = ORIENTED_EDGE ( 'NONE', *, *, #156, .F. ) ;
#309 =( NAMED_UNIT ( * ) SI_UNIT ( $, .STERADIAN. ) SOLID_ANGLE_UNIT ( ) );
#310 = CARTESIAN_POINT ( 'NONE',  ( -0.1562499999999999445, 2.500000000000000000, 0.000000000000000000 ) ) ;
#311 = UNCERTAINTY_MEASURE_WITH_UNIT (LENGTH_MEASURE( 1.000000000000000082E-05 ), #248, 'distance_accuracy_value', 'NONE');
#312 = FACE_OUTER_BOUND ( 'NONE', #277, .T. ) ;
#313 = AXIS2_PLACEMENT_3D ( 'NONE', #72, #190, #362 ) ;
#314 = DIRECTION ( 'NONE',  ( 1.000000000000000000, 0.000000000000000000, 0.000000000000000000 ) ) ;
#315 =( LENGTH_UNIT ( ) NAMED_UNIT ( * ) SI_UNIT ( $, .METRE. ) );
#316 = CIRCLE ( 'NONE', #85, 0.1562499999999999722 ) ;
#317 = MECHANICAL_DESIGN_GEOMETRIC_PRESENTATION_REPRESENTATION (  '', ( #161 ), #268 ) ;
#318 = VERTEX_POINT ( 'NONE', #356 ) ;
#319 = EDGE_CURVE ( 'NONE', #29, #191, #54, .T. ) ;
#320 =( GEOMETRIC_REPRESENTATION_CONTEXT ( 3 ) GLOBAL_UNCERTAINTY_ASSIGNED_CONTEXT ( ( #41 ) ) GLOBAL_UNIT_ASSIGNED_CONTEXT ( ( #55, #364, #309 ) ) REPRESENTATION_CONTEXT ( 'NONE', 'WORKASPACE' ) );
#321 = UNCERTAINTY_MEASURE_WITH_UNIT (LENGTH_MEASURE( 1.000000000000000082E-05 ), #287, 'distance_accuracy_value', 'NONE');
#322 = DIMENSIONAL_EXPONENTS ( 1.000000000000000000, 0.000000000000000000, 0.000000000000000000, 0.000000000000000000, 0.000000000000000000, 0.000000000000000000, 0.000000000000000000 ) ;
#323 = CARTESIAN_POINT ( 'NONE',  ( -6.123233995736766036E-17, 2.500000000000000000, 0.000000000000000000 ) ) ;
#324 = SURFACE_STYLE_USAGE ( .BOTH. , #192 ) ;
#325 = VERTEX_POINT ( 'NONE', #164 ) ;
#326 = AXIS2_PLACEMENT_3D ( 'NONE', #365, #119, #114 ) ;
#327 = SURFACE_STYLE_FILL_AREA ( #78 ) ;
#328 = DIRECTION ( 'NONE',  ( 0.000000000000000000, 0.000000000000000000, 1.000000000000000000 ) ) ;
#329 = CARTESIAN_POINT ( 'NONE',  ( 0.000000000000000000, 0.7500000000000001110, 0.000000000000000000 ) ) ;
#330 =( LENGTH_UNIT ( ) NAMED_UNIT ( * ) SI_UNIT ( $, .METRE. ) );
#331 = DIRECTION ( 'NONE',  ( 0.000000000000000000, 0.000000000000000000, -1.000000000000000000 ) ) ;
#332 = SHAPE_DEFINITION_REPRESENTATION ( #167, #71 ) ;
#333 = LENGTH_MEASURE_WITH_UNIT ( LENGTH_MEASURE( 0.02539999999999999897 ), #118 );
#334 = ADVANCED_FACE ( 'NONE', ( #28 ), #360, .T. ) ;
#335 = CARTESIAN_POINT ( 'NONE',  ( 1.913510623667738539E-17, 0.000000000000000000, 0.1562499999999999445 ) ) ;
#336 = PRESENTATION_LAYER_ASSIGNMENT (  '', '', ( #8 ) ) ;
#337 = EDGE_LOOP ( 'NONE', ( #162, #185, #196, #282 ) ) ;
#338 =( NAMED_UNIT ( * ) PLANE_ANGLE_UNIT ( ) SI_UNIT ( $, .RADIAN. ) );
#339 = DIRECTION ( 'NONE',  ( 0.000000000000000000, 0.000000000000000000, -1.000000000000000000 ) ) ;
#340 = UNCERTAINTY_MEASURE_WITH_UNIT (LENGTH_MEASURE( 1.000000000000000082E-05 ), #105, 'distance_accuracy_value', 'NONE');
#341 = DIRECTION ( 'NONE',  ( -0.000000000000000000, -1.000000000000000000, -0.000000000000000000 ) ) ;
#342 = STYLED_ITEM ( 'NONE', ( #343 ), #243 ) ;
#343 = PRESENTATION_STYLE_ASSIGNMENT (( #236 ) ) ;
#344 = DIRECTION ( 'NONE',  ( 0.000000000000000000, 0.000000000000000000, 1.000000000000000000 ) ) ;
#345 = FILL_AREA_STYLE ('',( #117 ) ) ;
#346 = CIRCLE ( 'NONE', #159, 0.1562499999999999722 ) ;
#347 = AXIS2_PLACEMENT_3D ( 'NONE', #169, #228, #231 ) ;
#348 = VERTEX_POINT ( 'NONE', #84 ) ;
#349 = ORIENTED_EDGE ( 'NONE', *, *, #283, .T. ) ;
#350 = EDGE_CURVE ( 'NONE', #174, #318, #26, .T. ) ;
#351 = PRESENTATION_LAYER_ASSIGNMENT (  '', '', ( #207 ) ) ;
#352 = PRODUCT_DEFINITION_CONTEXT ( 'detailed design', #300, 'design' ) ;
#353 = PRESENTATION_STYLE_ASSIGNMENT (( #324 ) ) ;
#354 = ORIENTED_EDGE ( 'NONE', *, *, #94, .F. ) ;
#355 = FILL_AREA_STYLE_COLOUR ( '', #116 ) ;
#356 = CARTESIAN_POINT ( 'NONE',  ( 0.1562499999999999167, 2.500000000000000000, 1.913510623667738231E-17 ) ) ;
#357 = APPLICATION_PROTOCOL_DEFINITION ( 'draft international standard', 'automotive_design', 1998, #300 ) ;
#358 =( GEOMETRIC_REPRESENTATION_CONTEXT ( 3 ) GLOBAL_UNCERTAINTY_ASSIGNED_CONTEXT ( ( #311 ) ) GLOBAL_UNIT_ASSIGNED_CONTEXT ( ( #248, #338, #145 ) ) REPRESENTATION_CONTEXT ( 'NONE', 'WORKASPACE' ) );
#359 = DIRECTION ( 'NONE',  ( -0.000000000000000000, -1.000000000000000000, -0.000000000000000000 ) ) ;
#360 = SPHERICAL_SURFACE ( 'NONE', #102, 0.1562500000000000000 ) ;
#361 = CARTESIAN_POINT ( 'NONE',  ( 0.1562499999999999167, 0.7499999999999998890, 1.913510623667738231E-17 ) ) ;
#362 = DIRECTION ( 'NONE',  ( 1.000000000000000000, 0.000000000000000000, 0.000000000000000000 ) ) ;
#363 = DIRECTION ( 'NONE',  ( -1.000000000000000000, 0.000000000000000000, 0.000000000000000000 ) ) ;
#364 =( NAMED_UNIT ( * ) PLANE_ANGLE_UNIT ( ) SI_UNIT ( $, .RADIAN. ) );
#365 = CARTESIAN_POINT ( 'NONE',  ( 1.530808498934191078E-16, 0.7499999999999998890, 0.000000000000000000 ) ) ;
#366 =( NAMED_UNIT ( * ) SI_UNIT ( $, .STERADIAN. ) SOLID_ANGLE_UNIT ( ) );
#367 = AXIS2_PLACEMENT_3D ( 'NONE', #232, #87, #339 ) ;
#368 =( GEOMETRIC_REPRESENTATION_CONTEXT ( 3 ) GLOBAL_UNCERTAINTY_ASSIGNED_CONTEXT ( ( #321 ) ) GLOBAL_UNIT_ASSIGNED_CONTEXT ( ( #287, #154, #103 ) ) REPRESENTATION_CONTEXT ( 'NONE', 'WORKASPACE' ) );
#369 = SURFACE_SIDE_STYLE ('',( #257 ) ) ;
#370 = DIRECTION ( 'NONE',  ( -0.000000000000000000, -1.000000000000000000, -0.000000000000000000 ) ) ;
#371 = EDGE_LOOP ( 'NONE', ( #33, #221 ) ) ;
#372 = ADVANCED_FACE ( 'NONE', ( #176 ), #127, .T. ) ;
#373 = FILL_AREA_STYLE ('',( #2 ) ) ;
ENDSEC;
END-ISO-10303-21;
