ISO-10303-21;
HEADER;
FILE_DESCRIPTION (( 'STEP AP214' ),
    '1' );
FILE_NAME ('Micro_AEMM-025-2.STEP',
    '2022-03-15T14:23:30',
    ( '' ),
    ( '' ),
    'SwSTEP 2.0',
    'SolidWorks 2022',
    '' );
FILE_SCHEMA (( 'AUTOMOTIVE_DESIGN' ));
ENDSEC;

DATA;
#1 = CARTESIAN_POINT ( 'NONE',  ( 0.04916328750000002745, 0.000000000000000000, 0.2362200000000000133 ) ) ;
#2 = PRODUCT_DEFINITION_SHAPE ( 'NONE', 'NONE',  #131 ) ;
#3 = DIRECTION ( 'NONE',  ( -1.224646799147353207E-16, -0.000000000000000000, -1.000000000000000000 ) ) ;
#4 = AXIS2_PLACEMENT_3D ( 'NONE', #6, #114, #203 ) ;
#5 = DIRECTION ( 'NONE',  ( 1.000000000000000000, 0.000000000000000000, 0.000000000000000000 ) ) ;
#6 = CARTESIAN_POINT ( 'NONE',  ( 2.892860668945878169E-17, 0.000000000000000000, 0.2362200000000000133 ) ) ;
#7 = CARTESIAN_POINT ( 'NONE',  ( 0.000000000000000000, 0.000000000000000000, 1.968503999999999809 ) ) ;
#8 = ADVANCED_FACE ( 'NONE', ( #179 ), #44, .T. ) ;
#9 = AXIS2_PLACEMENT_3D ( 'NONE', #256, #55, #119 ) ;
#10 = AXIS2_PLACEMENT_3D ( 'NONE', #11, #60, #78 ) ;
#11 = CARTESIAN_POINT ( 'NONE',  ( 0.000000000000000000, 0.000000000000000000, 1.968503999999999809 ) ) ;
#12 = PLANE ( 'NONE',  #50 ) ;
#13 = DIRECTION ( 'NONE',  ( -1.224646799147353207E-16, -0.000000000000000000, -1.000000000000000000 ) ) ;
#14 = DIRECTION ( 'NONE',  ( 1.224646799147353207E-16, 0.000000000000000000, 1.000000000000000000 ) ) ;
#15 = ORIENTED_EDGE ( 'NONE', *, *, #226, .F. ) ;
#16 = ADVANCED_FACE ( 'NONE', ( #274 ), #108, .T. ) ;
#17 = ORIENTED_EDGE ( 'NONE', *, *, #294, .F. ) ;
#18 = DIRECTION ( 'NONE',  ( -1.000000000000000000, 0.000000000000000000, 0.000000000000000000 ) ) ;
#19 = AXIS2_PLACEMENT_3D ( 'NONE', #115, #228, #73 ) ;
#20 = PRESENTATION_LAYER_ASSIGNMENT (  '', '', ( #85 ) ) ;
#21 = FACE_OUTER_BOUND ( 'NONE', #130, .T. ) ;
#22 = CARTESIAN_POINT ( 'NONE',  ( 4.947057147947202128E-17, 0.000000000000000000, 0.4039578718853090167 ) ) ;
#23 = DIRECTION ( 'NONE',  ( 1.000000000000000000, 0.000000000000000000, 0.000000000000000000 ) ) ;
#24 = FACE_OUTER_BOUND ( 'NONE', #43, .T. ) ;
#25 = FILL_AREA_STYLE ('',( #102 ) ) ;
#26 = DIMENSIONAL_EXPONENTS ( 1.000000000000000000, 0.000000000000000000, 0.000000000000000000, 0.000000000000000000, 0.000000000000000000, 0.000000000000000000, 0.000000000000000000 ) ;
#27 = EDGE_CURVE ( 'NONE', #196, #109, #277, .T. ) ;
#28 = CARTESIAN_POINT ( 'NONE',  ( 0.04916328750000000664, 6.020766267243608331E-18, -6.020766267243608331E-18 ) ) ;
#29 = CARTESIAN_POINT ( 'NONE',  ( 0.000000000000000000, 0.000000000000000000, 0.000000000000000000 ) ) ;
#30 = CARTESIAN_POINT ( 'NONE',  ( -0.07874000000000000443, 0.000000000000000000, 1.953504000000000129 ) ) ;
#31 = UNCERTAINTY_MEASURE_WITH_UNIT (LENGTH_MEASURE( 1.000000000000000082E-05 ), #284, 'distance_accuracy_value', 'NONE');
#32 = LINE ( 'NONE', #28, #212 ) ;
#33 = CARTESIAN_POINT ( 'NONE',  ( 0.04916328750000002745, 0.000000000000000000, 0.2362200000000000133 ) ) ;
#34 = CONICAL_SURFACE ( 'NONE', #271, 0.06374000000000018540, 0.7853981633974522758 ) ;
#35 = PRODUCT_CONTEXT ( 'NONE', #66, 'mechanical' ) ;
#36 = MECHANICAL_DESIGN_GEOMETRIC_PRESENTATION_REPRESENTATION (  '', ( #104 ), #178 ) ;
#37 = ORIENTED_EDGE ( 'NONE', *, *, #175, .T. ) ;
#38 = EDGE_CURVE ( 'NONE', #245, #177, #187, .T. ) ;
#39 = ORIENTED_EDGE ( 'NONE', *, *, #61, .F. ) ;
#40 = ORIENTED_EDGE ( 'NONE', *, *, #91, .F. ) ;
#41 = VECTOR ( 'NONE', #252, 39.37007874015748143 ) ;
#42 = ORIENTED_EDGE ( 'NONE', *, *, #134, .T. ) ;
#43 = EDGE_LOOP ( 'NONE', ( #39, #37, #220, #17 ) ) ;
#44 = CYLINDRICAL_SURFACE ( 'NONE', #103, 0.07874000000000000443 ) ;
#45 = DIRECTION ( 'NONE',  ( -1.000000000000000000, 0.000000000000000000, 0.000000000000000000 ) ) ;
#46 = ADVANCED_FACE ( 'NONE', ( #161 ), #34, .T. ) ;
#47 = LINE ( 'NONE', #72, #41 ) ;
#48 = CARTESIAN_POINT ( 'NONE',  ( 7.373312137594241536E-34, 0.000000000000000000, 6.020766267243607560E-18 ) ) ;
#49 = CARTESIAN_POINT ( 'NONE',  ( 0.000000000000000000, 0.000000000000000000, 1.953504000000000129 ) ) ;
#50 = AXIS2_PLACEMENT_3D ( 'NONE', #170, #265, #169 ) ;
#51 = CARTESIAN_POINT ( 'NONE',  ( 0.07874000000000000443, 9.642868896486258509E-18, 1.968503999999999809 ) ) ;
#52 = UNCERTAINTY_MEASURE_WITH_UNIT (LENGTH_MEASURE( 1.000000000000000082E-05 ), #264, 'distance_accuracy_value', 'NONE');
#53 =( NAMED_UNIT ( * ) PLANE_ANGLE_UNIT ( ) SI_UNIT ( $, .RADIAN. ) );
#54 = DIRECTION ( 'NONE',  ( 1.000000000000000000, 0.000000000000000000, 0.000000000000000000 ) ) ;
#55 = DIRECTION ( 'NONE',  ( -1.224646799147353207E-16, -0.000000000000000000, -1.000000000000000000 ) ) ;
#56 = CLOSED_SHELL ( 'NONE', ( #204, #70, #16, #8, #82, #195, #46, #283, #141, #219 ) ) ;
#57 = AXIS2_PLACEMENT_3D ( 'NONE', #29, #122, #54 ) ;
#58 = SURFACE_STYLE_USAGE ( .BOTH. , #218 ) ;
#59 = LENGTH_MEASURE_WITH_UNIT ( LENGTH_MEASURE( 0.02539999999999999897 ), #286 );
#60 = DIRECTION ( 'NONE',  ( 0.000000000000000000, 0.000000000000000000, 1.000000000000000000 ) ) ;
#61 = EDGE_CURVE ( 'NONE', #193, #155, #147, .T. ) ;
#62 = ORIENTED_EDGE ( 'NONE', *, *, #249, .F. ) ;
#63 = EDGE_LOOP ( 'NONE', ( #83, #224, #290, #40 ) ) ;
#64 = ORIENTED_EDGE ( 'NONE', *, *, #38, .F. ) ;
#65 = AXIS2_PLACEMENT_3D ( 'NONE', #48, #138, #229 ) ;
#66 = APPLICATION_CONTEXT ( 'automotive_design' ) ;
#67 = ORIENTED_EDGE ( 'NONE', *, *, #186, .F. ) ;
#68 = DIRECTION ( 'NONE',  ( -1.000000000000000000, 0.000000000000000000, 0.000000000000000000 ) ) ;
#69 = DIRECTION ( 'NONE',  ( 1.000000000000000000, 0.000000000000000000, 0.000000000000000000 ) ) ;
#70 = ADVANCED_FACE ( 'NONE', ( #24 ), #266, .T. ) ;
#71 = DIRECTION ( 'NONE',  ( -0.7071067811865502373, 0.000000000000000000, -0.7071067811865446862 ) ) ;
#72 = CARTESIAN_POINT ( 'NONE',  ( -0.04916328750000000664, 0.000000000000000000, 6.020766267243608331E-18 ) ) ;
#73 = DIRECTION ( 'NONE',  ( -1.000000000000000000, 0.000000000000000000, 0.000000000000000000 ) ) ;
#74 = VECTOR ( 'NONE', #123, 39.37007874015748143 ) ;
#75 = ADVANCED_BREP_SHAPE_REPRESENTATION ( 'Micro_AEMM-025-2', ( #257, #57 ), #298 ) ;
#76 = CARTESIAN_POINT ( 'NONE',  ( -0.04916328749999997888, 7.831817581864934190E-18, 0.2362200000000000133 ) ) ;
#77 = DIMENSIONAL_EXPONENTS ( 1.000000000000000000, 0.000000000000000000, 0.000000000000000000, 0.000000000000000000, 0.000000000000000000, 0.000000000000000000, 0.000000000000000000 ) ;
#78 = DIRECTION ( 'NONE',  ( 1.000000000000000000, 0.000000000000000000, -0.000000000000000000 ) ) ;
#79 =( LENGTH_UNIT ( ) NAMED_UNIT ( * ) SI_UNIT ( $, .METRE. ) );
#80 =( CONVERSION_BASED_UNIT ( 'INCH', #59 ) LENGTH_UNIT ( ) NAMED_UNIT ( #26 ) );
#81 = FILL_AREA_STYLE_COLOUR ( '', #148 ) ;
#82 = ADVANCED_FACE ( 'NONE', ( #276 ), #157, .T. ) ;
#83 = ORIENTED_EDGE ( 'NONE', *, *, #238, .F. ) ;
#84 = EDGE_LOOP ( 'NONE', ( #67, #62, #154, #273 ) ) ;
#85 = STYLED_ITEM ( 'NONE', ( #233 ), #257 ) ;
#86 = ORIENTED_EDGE ( 'NONE', *, *, #144, .T. ) ;
#87 = ORIENTED_EDGE ( 'NONE', *, *, #275, .T. ) ;
#88 = CIRCLE ( 'NONE', #9, 0.04916328749999999276 ) ;
#89 = DIRECTION ( 'NONE',  ( -1.224646799147353207E-16, -0.000000000000000000, -1.000000000000000000 ) ) ;
#90 = CARTESIAN_POINT ( 'NONE',  ( 2.892860668945878169E-17, 0.000000000000000000, 0.2362200000000000133 ) ) ;
#91 = EDGE_CURVE ( 'NONE', #109, #196, #291, .T. ) ;
#92 = CARTESIAN_POINT ( 'NONE',  ( -0.06374000000000018540, 0.000000000000000000, 1.968503999999999809 ) ) ;
#93 = VECTOR ( 'NONE', #71, 39.37007874015748854 ) ;
#94 = DIRECTION ( 'NONE',  ( -1.000000000000000000, 0.000000000000000000, 0.000000000000000000 ) ) ;
#95 = CARTESIAN_POINT ( 'NONE',  ( 0.000000000000000000, 0.000000000000000000, 1.968503999999999809 ) ) ;
#96 = DIRECTION ( 'NONE',  ( -0.1736481776669311639, 2.126576849575782392E-17, 0.9848077530122080203 ) ) ;
#97 = AXIS2_PLACEMENT_3D ( 'NONE', #22, #89, #279 ) ;
#98 = DIRECTION ( 'NONE',  ( 0.000000000000000000, 0.000000000000000000, 1.000000000000000000 ) ) ;
#99 = DIRECTION ( 'NONE',  ( -1.224646799147353207E-16, -0.000000000000000000, -1.000000000000000000 ) ) ;
#100 = EDGE_CURVE ( 'NONE', #177, #197, #113, .T. ) ;
#101 = SURFACE_SIDE_STYLE ('',( #142 ) ) ;
#102 = FILL_AREA_STYLE_COLOUR ( '', #230 ) ;
#103 = AXIS2_PLACEMENT_3D ( 'NONE', #136, #278, #18 ) ;
#104 = STYLED_ITEM ( 'NONE', ( #211 ), #75 ) ;
#105 = FILL_AREA_STYLE ('',( #81 ) ) ;
#106 = EDGE_LOOP ( 'NONE', ( #241, #198, #270, #242 ) ) ;
#107 = ORIENTED_EDGE ( 'NONE', *, *, #61, .T. ) ;
#108 = CONICAL_SURFACE ( 'NONE', #163, 0.06374000000000018540, 0.7853981633974522758 ) ;
#109 = VERTEX_POINT ( 'NONE', #184 ) ;
#110 = ORIENTED_EDGE ( 'NONE', *, *, #27, .F. ) ;
#111 = CARTESIAN_POINT ( 'NONE',  ( 2.892860668945878169E-17, 0.000000000000000000, 0.2362200000000000133 ) ) ;
#112 = EDGE_CURVE ( 'NONE', #128, #197, #183, .T. ) ;
#113 = LINE ( 'NONE', #92, #93 ) ;
#114 = DIRECTION ( 'NONE',  ( -1.224646799147353207E-16, -0.000000000000000000, -1.000000000000000000 ) ) ;
#115 = CARTESIAN_POINT ( 'NONE',  ( 0.000000000000000000, 0.000000000000000000, 1.968503999999999809 ) ) ;
#116 = AXIS2_PLACEMENT_3D ( 'NONE', #49, #205, #137 ) ;
#117 = LINE ( 'NONE', #191, #216 ) ;
#118 =( NAMED_UNIT ( * ) SI_UNIT ( $, .STERADIAN. ) SOLID_ANGLE_UNIT ( ) );
#119 = DIRECTION ( 'NONE',  ( -1.000000000000000000, 0.000000000000000000, 1.224646799147353207E-16 ) ) ;
#120 = CARTESIAN_POINT ( 'NONE',  ( 0.000000000000000000, 0.000000000000000000, 0.000000000000000000 ) ) ;
#121 = CARTESIAN_POINT ( 'NONE',  ( -0.07874000000000000443, 0.000000000000000000, 1.968503999999999809 ) ) ;
#122 = DIRECTION ( 'NONE',  ( 0.000000000000000000, 0.000000000000000000, 1.000000000000000000 ) ) ;
#123 = DIRECTION ( 'NONE',  ( 0.1736481776669313304, 0.000000000000000000, 0.9848077530122077983 ) ) ;
#124 = MECHANICAL_DESIGN_GEOMETRIC_PRESENTATION_REPRESENTATION (  '', ( #85 ), #263 ) ;
#125 = SHAPE_DEFINITION_REPRESENTATION ( #2, #75 ) ;
#126 = EDGE_LOOP ( 'NONE', ( #107, #87, #221, #172 ) ) ;
#127 = ORIENTED_EDGE ( 'NONE', *, *, #275, .F. ) ;
#128 = VERTEX_POINT ( 'NONE', #227 ) ;
#129 = CIRCLE ( 'NONE', #4, 0.04916328750000000664 ) ;
#130 = EDGE_LOOP ( 'NONE', ( #127, #42, #86, #15 ) ) ;
#131 = PRODUCT_DEFINITION ( 'UNKNOWN', '', #272, #133 ) ;
#132 = ORIENTED_EDGE ( 'NONE', *, *, #38, .T. ) ;
#133 = PRODUCT_DEFINITION_CONTEXT ( 'detailed design', #247, 'design' ) ;
#134 = EDGE_CURVE ( 'NONE', #155, #193, #129, .T. ) ;
#135 = DIRECTION ( 'NONE',  ( 0.000000000000000000, 0.000000000000000000, -1.000000000000000000 ) ) ;
#136 = CARTESIAN_POINT ( 'NONE',  ( 0.000000000000000000, 0.000000000000000000, 1.968503999999999809 ) ) ;
#137 = DIRECTION ( 'NONE',  ( 1.000000000000000000, 0.000000000000000000, 0.000000000000000000 ) ) ;
#138 = DIRECTION ( 'NONE',  ( -1.224646799147353207E-16, -0.000000000000000000, -1.000000000000000000 ) ) ;
#139 = VECTOR ( 'NONE', #239, 39.37007874015748143 ) ;
#140 = DIRECTION ( 'NONE',  ( 0.000000000000000000, 0.000000000000000000, -1.000000000000000000 ) ) ;
#141 = ADVANCED_FACE ( 'NONE', ( #21 ), #181, .T. ) ;
#142 = SURFACE_STYLE_FILL_AREA ( #25 ) ;
#143 =( LENGTH_UNIT ( ) NAMED_UNIT ( * ) SI_UNIT ( $, .METRE. ) );
#144 = EDGE_CURVE ( 'NONE', #193, #295, #47, .T. ) ;
#145 = CARTESIAN_POINT ( 'NONE',  ( 0.06374000000000018540, 8.724383797125754882E-18, 1.968503999999999809 ) ) ;
#146 = APPLICATION_PROTOCOL_DEFINITION ( 'draft international standard', 'automotive_design', 1998, #247 ) ;
#147 = CIRCLE ( 'NONE', #297, 0.04916328750000000664 ) ;
#148 = COLOUR_RGB ( '',0.7921568627450980005, 0.8196078431372548767, 0.9333333333333333481 ) ;
#149 = PLANE ( 'NONE',  #10 ) ;
#150 = LINE ( 'NONE', #33, #74 ) ;
#151 = LENGTH_MEASURE_WITH_UNIT ( LENGTH_MEASURE( 0.02539999999999999897 ), #79 );
#152 = AXIS2_PLACEMENT_3D ( 'NONE', #90, #208, #180 ) ;
#153 = EDGE_CURVE ( 'NONE', #197, #128, #244, .T. ) ;
#154 = ORIENTED_EDGE ( 'NONE', *, *, #100, .T. ) ;
#155 = VERTEX_POINT ( 'NONE', #1 ) ;
#156 = EDGE_LOOP ( 'NONE', ( #269, #268 ) ) ;
#157 = CYLINDRICAL_SURFACE ( 'NONE', #19, 0.07874000000000000443 ) ;
#158 = VERTEX_POINT ( 'NONE', #253 ) ;
#159 = AXIS2_PLACEMENT_3D ( 'NONE', #7, #98, #166 ) ;
#160 = DIRECTION ( 'NONE',  ( 0.000000000000000000, 0.000000000000000000, -1.000000000000000000 ) ) ;
#161 = FACE_OUTER_BOUND ( 'NONE', #84, .T. ) ;
#162 = CARTESIAN_POINT ( 'NONE',  ( 0.000000000000000000, 0.000000000000000000, 0.000000000000000000 ) ) ;
#163 = AXIS2_PLACEMENT_3D ( 'NONE', #251, #135, #94 ) ;
#164 = DIRECTION ( 'NONE',  ( -1.000000000000000000, 0.000000000000000000, 1.224646799147353207E-16 ) ) ;
#165 = EDGE_CURVE ( 'NONE', #295, #158, #287, .T. ) ;
#166 = DIRECTION ( 'NONE',  ( 1.000000000000000000, 0.000000000000000000, 0.000000000000000000 ) ) ;
#167 =( NAMED_UNIT ( * ) PLANE_ANGLE_UNIT ( ) SI_UNIT ( $, .RADIAN. ) );
#168 = LINE ( 'NONE', #51, #255 ) ;
#169 = DIRECTION ( 'NONE',  ( 1.000000000000000000, 0.000000000000000000, -0.000000000000000000 ) ) ;
#170 = CARTESIAN_POINT ( 'NONE',  ( 0.000000000000000000, 0.000000000000000000, 0.000000000000000000 ) ) ;
#171 = APPLICATION_PROTOCOL_DEFINITION ( 'draft international standard', 'automotive_design', 1998, #66 ) ;
#172 = ORIENTED_EDGE ( 'NONE', *, *, #144, .F. ) ;
#173 = VECTOR ( 'NONE', #189, 39.37007874015748854 ) ;
#174 = ORIENTED_EDGE ( 'NONE', *, *, #238, .T. ) ;
#175 = EDGE_CURVE ( 'NONE', #193, #196, #117, .T. ) ;
#176 = ORIENTED_EDGE ( 'NONE', *, *, #186, .T. ) ;
#177 = VERTEX_POINT ( 'NONE', #214 ) ;
#178 =( GEOMETRIC_REPRESENTATION_CONTEXT ( 3 ) GLOBAL_UNCERTAINTY_ASSIGNED_CONTEXT ( ( #31 ) ) GLOBAL_UNIT_ASSIGNED_CONTEXT ( ( #284, #167, #194 ) ) REPRESENTATION_CONTEXT ( 'NONE', 'WORKASPACE' ) );
#179 = FACE_OUTER_BOUND ( 'NONE', #296, .T. ) ;
#180 = DIRECTION ( 'NONE',  ( 1.000000000000000000, 0.000000000000000000, 0.000000000000000000 ) ) ;
#181 = CYLINDRICAL_SURFACE ( 'NONE', #206, 0.04916328750000000664 ) ;
#182 = UNCERTAINTY_MEASURE_WITH_UNIT (LENGTH_MEASURE( 1.000000000000000082E-05 ), #80, 'distance_accuracy_value', 'NONE');
#183 = CIRCLE ( 'NONE', #262, 0.07874000000000000443 ) ;
#184 = CARTESIAN_POINT ( 'NONE',  ( 0.07874000000000004607, 9.642868896486264672E-18, 0.4039578718853090167 ) ) ;
#185 = DIRECTION ( 'NONE',  ( 0.000000000000000000, 0.000000000000000000, 1.000000000000000000 ) ) ;
#186 = EDGE_CURVE ( 'NONE', #245, #128, #231, .T. ) ;
#187 = CIRCLE ( 'NONE', #250, 0.06374000000000018540 ) ;
#188 = LENGTH_MEASURE_WITH_UNIT ( LENGTH_MEASURE( 0.02539999999999999897 ), #143 );
#189 = DIRECTION ( 'NONE',  ( 0.7071067811865502373, 8.659560562354966138E-17, -0.7071067811865446862 ) ) ;
#190 =( NAMED_UNIT ( * ) SI_UNIT ( $, .STERADIAN. ) SOLID_ANGLE_UNIT ( ) );
#191 = CARTESIAN_POINT ( 'NONE',  ( -0.04916328749999997888, 6.020766267243608331E-18, 0.2362200000000000133 ) ) ;
#192 = CIRCLE ( 'NONE', #159, 0.06374000000000018540 ) ;
#193 = VERTEX_POINT ( 'NONE', #76 ) ;
#194 =( NAMED_UNIT ( * ) SI_UNIT ( $, .STERADIAN. ) SOLID_ANGLE_UNIT ( ) );
#195 = ADVANCED_FACE ( 'NONE', ( #261 ), #149, .T. ) ;
#196 = VERTEX_POINT ( 'NONE', #259 ) ;
#197 = VERTEX_POINT ( 'NONE', #30 ) ;
#198 = ORIENTED_EDGE ( 'NONE', *, *, #134, .F. ) ;
#199 = CARTESIAN_POINT ( 'NONE',  ( 4.947057147947202128E-17, 0.000000000000000000, 0.4039578718853090167 ) ) ;
#200 = AXIS2_PLACEMENT_3D ( 'NONE', #120, #13, #164 ) ;
#201 = PRODUCT_RELATED_PRODUCT_CATEGORY ( 'part', '', ( #232 ) ) ;
#202 = DIRECTION ( 'NONE',  ( -1.000000000000000000, 0.000000000000000000, 1.224646799147353207E-16 ) ) ;
#203 = DIRECTION ( 'NONE',  ( -1.000000000000000000, 0.000000000000000000, 0.000000000000000000 ) ) ;
#204 = ADVANCED_FACE ( 'NONE', ( #237 ), #281, .T. ) ;
#205 = DIRECTION ( 'NONE',  ( 0.000000000000000000, 0.000000000000000000, -1.000000000000000000 ) ) ;
#206 = AXIS2_PLACEMENT_3D ( 'NONE', #162, #254, #202 ) ;
#207 = CONICAL_SURFACE ( 'NONE', #267, 0.04916328750000000664, 0.1745329251994338360 ) ;
#208 = DIRECTION ( 'NONE',  ( 1.224646799147353207E-16, 0.000000000000000000, 1.000000000000000000 ) ) ;
#209 = FACE_OUTER_BOUND ( 'NONE', #106, .T. ) ;
#210 = DIRECTION ( 'NONE',  ( -0.000000000000000000, -0.000000000000000000, -1.000000000000000000 ) ) ;
#211 = PRESENTATION_STYLE_ASSIGNMENT (( #58 ) ) ;
#212 = VECTOR ( 'NONE', #99, 39.37007874015748143 ) ;
#213 = SURFACE_STYLE_FILL_AREA ( #105 ) ;
#214 = CARTESIAN_POINT ( 'NONE',  ( -0.06374000000000018540, 0.000000000000000000, 1.968503999999999809 ) ) ;
#215 = FACE_OUTER_BOUND ( 'NONE', #156, .T. ) ;
#216 = VECTOR ( 'NONE', #96, 39.37007874015747433 ) ;
#217 = CARTESIAN_POINT ( 'NONE',  ( -0.04916328749999999276, 0.000000000000000000, 1.204153253448721512E-17 ) ) ;
#218 = SURFACE_SIDE_STYLE ('',( #213 ) ) ;
#219 = ADVANCED_FACE ( 'NONE', ( #215 ), #12, .F. ) ;
#220 = ORIENTED_EDGE ( 'NONE', *, *, #27, .T. ) ;
#221 = ORIENTED_EDGE ( 'NONE', *, *, #165, .F. ) ;
#222 = EDGE_LOOP ( 'NONE', ( #64, #176, #289, #246 ) ) ;
#223 = ORIENTED_EDGE ( 'NONE', *, *, #260, .F. ) ;
#224 = ORIENTED_EDGE ( 'NONE', *, *, #112, .T. ) ;
#225 = DIRECTION ( 'NONE',  ( -1.224646799147353207E-16, -0.000000000000000000, -1.000000000000000000 ) ) ;
#226 = EDGE_CURVE ( 'NONE', #158, #295, #88, .T. ) ;
#227 = CARTESIAN_POINT ( 'NONE',  ( 0.07874000000000000443, 9.642868896486258509E-18, 1.953504000000000129 ) ) ;
#228 = DIRECTION ( 'NONE',  ( -0.000000000000000000, -0.000000000000000000, -1.000000000000000000 ) ) ;
#229 = DIRECTION ( 'NONE',  ( -1.000000000000000000, 0.000000000000000000, 1.224646799147353207E-16 ) ) ;
#230 = COLOUR_RGB ( '',0.7921568627450980005, 0.8196078431372548767, 0.9333333333333333481 ) ;
#231 = LINE ( 'NONE', #282, #173 ) ;
#232 = PRODUCT ( 'Micro_AEMM-025-2', 'Micro_AEMM-025-2', '', ( #35 ) ) ;
#233 = PRESENTATION_STYLE_ASSIGNMENT (( #235 ) ) ;
#234 =( NAMED_UNIT ( * ) PLANE_ANGLE_UNIT ( ) SI_UNIT ( $, .RADIAN. ) );
#235 = SURFACE_STYLE_USAGE ( .BOTH. , #101 ) ;
#236 = AXIS2_PLACEMENT_3D ( 'NONE', #199, #225, #69 ) ;
#237 = FACE_OUTER_BOUND ( 'NONE', #126, .T. ) ;
#238 = EDGE_CURVE ( 'NONE', #128, #109, #168, .T. ) ;
#239 = DIRECTION ( 'NONE',  ( -0.000000000000000000, -0.000000000000000000, -1.000000000000000000 ) ) ;
#240 = DIRECTION ( 'NONE',  ( 1.000000000000000000, 0.000000000000000000, 0.000000000000000000 ) ) ;
#241 = ORIENTED_EDGE ( 'NONE', *, *, #175, .F. ) ;
#242 = ORIENTED_EDGE ( 'NONE', *, *, #91, .T. ) ;
#243 = EDGE_LOOP ( 'NONE', ( #299, #132 ) ) ;
#244 = CIRCLE ( 'NONE', #116, 0.07874000000000000443 ) ;
#245 = VERTEX_POINT ( 'NONE', #145 ) ;
#246 = ORIENTED_EDGE ( 'NONE', *, *, #100, .F. ) ;
#247 = APPLICATION_CONTEXT ( 'automotive_design' ) ;
#248 = CARTESIAN_POINT ( 'NONE',  ( 0.000000000000000000, 0.000000000000000000, 1.953504000000000129 ) ) ;
#249 = EDGE_CURVE ( 'NONE', #177, #245, #192, .T. ) ;
#250 = AXIS2_PLACEMENT_3D ( 'NONE', #95, #185, #5 ) ;
#251 = CARTESIAN_POINT ( 'NONE',  ( 0.000000000000000000, 0.000000000000000000, 1.968503999999999809 ) ) ;
#252 = DIRECTION ( 'NONE',  ( -1.224646799147353207E-16, -0.000000000000000000, -1.000000000000000000 ) ) ;
#253 = CARTESIAN_POINT ( 'NONE',  ( 0.04916328749999999276, 6.020766267243607560E-18, -9.478001694819074349E-34 ) ) ;
#254 = DIRECTION ( 'NONE',  ( -1.224646799147353207E-16, -0.000000000000000000, -1.000000000000000000 ) ) ;
#255 = VECTOR ( 'NONE', #210, 39.37007874015748143 ) ;
#256 = CARTESIAN_POINT ( 'NONE',  ( 7.373312137594241536E-34, 0.000000000000000000, 6.020766267243607560E-18 ) ) ;
#257 = MANIFOLD_SOLID_BREP ( 'Cut-Revolve1', #56 ) ;
#258 = DIMENSIONAL_EXPONENTS ( 1.000000000000000000, 0.000000000000000000, 0.000000000000000000, 0.000000000000000000, 0.000000000000000000, 0.000000000000000000, 0.000000000000000000 ) ;
#259 = CARTESIAN_POINT ( 'NONE',  ( -0.07873999999999994892, 0.000000000000000000, 0.4039578718853090167 ) ) ;
#260 = EDGE_CURVE ( 'NONE', #197, #196, #285, .T. ) ;
#261 = FACE_OUTER_BOUND ( 'NONE', #243, .T. ) ;
#262 = AXIS2_PLACEMENT_3D ( 'NONE', #248, #160, #23 ) ;
#263 =( GEOMETRIC_REPRESENTATION_CONTEXT ( 3 ) GLOBAL_UNCERTAINTY_ASSIGNED_CONTEXT ( ( #182 ) ) GLOBAL_UNIT_ASSIGNED_CONTEXT ( ( #80, #53, #118 ) ) REPRESENTATION_CONTEXT ( 'NONE', 'WORKASPACE' ) );
#264 =( CONVERSION_BASED_UNIT ( 'INCH', #188 ) LENGTH_UNIT ( ) NAMED_UNIT ( #258 ) );
#265 = DIRECTION ( 'NONE',  ( 0.000000000000000000, 0.000000000000000000, 1.000000000000000000 ) ) ;
#266 = CONICAL_SURFACE ( 'NONE', #152, 0.04916328750000000664, 0.1745329251994338360 ) ;
#267 = AXIS2_PLACEMENT_3D ( 'NONE', #288, #14, #240 ) ;
#268 = ORIENTED_EDGE ( 'NONE', *, *, #226, .T. ) ;
#269 = ORIENTED_EDGE ( 'NONE', *, *, #165, .T. ) ;
#270 = ORIENTED_EDGE ( 'NONE', *, *, #294, .T. ) ;
#271 = AXIS2_PLACEMENT_3D ( 'NONE', #280, #140, #68 ) ;
#272 = PRODUCT_DEFINITION_FORMATION_WITH_SPECIFIED_SOURCE ( 'ANY', '', #232, .NOT_KNOWN. ) ;
#273 = ORIENTED_EDGE ( 'NONE', *, *, #112, .F. ) ;
#274 = FACE_OUTER_BOUND ( 'NONE', #222, .T. ) ;
#275 = EDGE_CURVE ( 'NONE', #155, #158, #32, .T. ) ;
#276 = FACE_OUTER_BOUND ( 'NONE', #63, .T. ) ;
#277 = CIRCLE ( 'NONE', #97, 0.07874000000000000443 ) ;
#278 = DIRECTION ( 'NONE',  ( -0.000000000000000000, -0.000000000000000000, -1.000000000000000000 ) ) ;
#279 = DIRECTION ( 'NONE',  ( 1.000000000000000000, 0.000000000000000000, 0.000000000000000000 ) ) ;
#280 = CARTESIAN_POINT ( 'NONE',  ( 0.000000000000000000, 0.000000000000000000, 1.968503999999999809 ) ) ;
#281 = CYLINDRICAL_SURFACE ( 'NONE', #200, 0.04916328750000000664 ) ;
#282 = CARTESIAN_POINT ( 'NONE',  ( 0.06374000000000018540, 7.805898697765251255E-18, 1.968503999999999809 ) ) ;
#283 = ADVANCED_FACE ( 'NONE', ( #209 ), #207, .T. ) ;
#284 =( CONVERSION_BASED_UNIT ( 'INCH', #151 ) LENGTH_UNIT ( ) NAMED_UNIT ( #77 ) );
#285 = LINE ( 'NONE', #121, #139 ) ;
#286 =( LENGTH_UNIT ( ) NAMED_UNIT ( * ) SI_UNIT ( $, .METRE. ) );
#287 = CIRCLE ( 'NONE', #65, 0.04916328749999999276 ) ;
#288 = CARTESIAN_POINT ( 'NONE',  ( 2.892860668945878169E-17, 0.000000000000000000, 0.2362200000000000133 ) ) ;
#289 = ORIENTED_EDGE ( 'NONE', *, *, #153, .F. ) ;
#290 = ORIENTED_EDGE ( 'NONE', *, *, #260, .T. ) ;
#291 = CIRCLE ( 'NONE', #236, 0.07874000000000000443 ) ;
#292 = PRESENTATION_LAYER_ASSIGNMENT (  '', '', ( #104 ) ) ;
#293 = ORIENTED_EDGE ( 'NONE', *, *, #153, .T. ) ;
#294 = EDGE_CURVE ( 'NONE', #155, #109, #150, .T. ) ;
#295 = VERTEX_POINT ( 'NONE', #217 ) ;
#296 = EDGE_LOOP ( 'NONE', ( #293, #174, #110, #223 ) ) ;
#297 = AXIS2_PLACEMENT_3D ( 'NONE', #111, #3, #45 ) ;
#298 =( GEOMETRIC_REPRESENTATION_CONTEXT ( 3 ) GLOBAL_UNCERTAINTY_ASSIGNED_CONTEXT ( ( #52 ) ) GLOBAL_UNIT_ASSIGNED_CONTEXT ( ( #264, #234, #190 ) ) REPRESENTATION_CONTEXT ( 'NONE', 'WORKASPACE' ) );
#299 = ORIENTED_EDGE ( 'NONE', *, *, #249, .T. ) ;
ENDSEC;
END-ISO-10303-21;
