ISO-10303-21;
HEADER;
FILE_DESCRIPTION (( 'STEP AP214' ),
    '1' );
FILE_NAME ('86076.STEP',
    '2023-07-01T00:01:10',
    ( '' ),
    ( '' ),
    'SwSTEP 2.0',
    'SolidWorks 2023',
    '' );
FILE_SCHEMA (( 'AUTOMOTIVE_DESIGN' ));
ENDSEC;

DATA;
#1 = DIRECTION ( 'NONE',  ( 0.000000000000000000, 0.000000000000000000, -1.000000000000000000 ) ) ;
#2 = CARTESIAN_POINT ( 'NONE',  ( 1.148106374200642322E-17, 0.000000000000000000, 0.09374999999999988898 ) ) ;
#3 = VERTEX_POINT ( 'NONE', #48 ) ;
#4 = VERTEX_POINT ( 'NONE', #273 ) ;
#5 =( GEOMETRIC_REPRESENTATION_CONTEXT ( 3 ) GLOBAL_UNCERTAINTY_ASSIGNED_CONTEXT ( ( #252 ) ) GLOBAL_UNIT_ASSIGNED_CONTEXT ( ( #123, #91, #119 ) ) REPRESENTATION_CONTEXT ( 'NONE', 'WORKASPACE' ) );
#6 = DIRECTION ( 'NONE',  ( 1.234313045635524517E-16, -1.000000000000000000, 0.000000000000000000 ) ) ;
#7 = FACE_OUTER_BOUND ( 'NONE', #191, .T. ) ;
#8 = ORIENTED_EDGE ( 'NONE', *, *, #89, .F. ) ;
#9 = CARTESIAN_POINT ( 'NONE',  ( -1.148106374200643401E-17, 0.09374999999999998612, 0.000000000000000000 ) ) ;
#10 = ORIENTED_EDGE ( 'NONE', *, *, #301, .T. ) ;
#11 = MECHANICAL_DESIGN_GEOMETRIC_PRESENTATION_REPRESENTATION (  '', ( #143 ), #277 ) ;
#12 = STYLED_ITEM ( 'NONE', ( #274 ), #338 ) ;
#13 = DIRECTION ( 'NONE',  ( -0.000000000000000000, -1.000000000000000000, -0.000000000000000000 ) ) ;
#14 = CYLINDRICAL_SURFACE ( 'NONE', #27, 0.09374999999999988898 ) ;
#15 = FILL_AREA_STYLE_COLOUR ( '', #180 ) ;
#16 = DIMENSIONAL_EXPONENTS ( 1.000000000000000000, 0.000000000000000000, 0.000000000000000000, 0.000000000000000000, 0.000000000000000000, 0.000000000000000000, 0.000000000000000000 ) ;
#17 = EDGE_CURVE ( 'NONE', #4, #197, #82, .T. ) ;
#18 = FILL_AREA_STYLE ('',( #131 ) ) ;
#19 = AXIS2_PLACEMENT_3D ( 'NONE', #281, #233, #282 ) ;
#20 = PRESENTATION_STYLE_ASSIGNMENT (( #109 ) ) ;
#21 = MANIFOLD_SOLID_BREP ( 'Revolve - Tool Body (Straight Shanked)', #165 ) ;
#22 = SURFACE_STYLE_FILL_AREA ( #331 ) ;
#23 = EDGE_CURVE ( 'NONE', #4, #135, #65, .T. ) ;
#24 = UNCERTAINTY_MEASURE_WITH_UNIT (LENGTH_MEASURE( 1.000000000000000082E-05 ), #177, 'distance_accuracy_value', 'NONE');
#25 = CYLINDRICAL_SURFACE ( 'NONE', #53, 0.09374999999999988898 ) ;
#26 = SURFACE_STYLE_FILL_AREA ( #341 ) ;
#27 = AXIS2_PLACEMENT_3D ( 'NONE', #244, #136, #355 ) ;
#28 = UNCERTAINTY_MEASURE_WITH_UNIT (LENGTH_MEASURE( 1.000000000000000082E-05 ), #234, 'distance_accuracy_value', 'NONE');
#29 = DIRECTION ( 'NONE',  ( 0.000000000000000000, 1.000000000000000000, 0.000000000000000000 ) ) ;
#30 = FACE_OUTER_BOUND ( 'NONE', #51, .T. ) ;
#31 = LENGTH_MEASURE_WITH_UNIT ( LENGTH_MEASURE( 0.02539999999999999897 ), #309 );
#32 = AXIS2_PLACEMENT_3D ( 'NONE', #78, #334, #83 ) ;
#33 = CIRCLE ( 'NONE', #295, 0.09374999999999968081 ) ;
#34 = DIRECTION ( 'NONE',  ( -1.000000000000000000, 0.000000000000000000, 0.000000000000000000 ) ) ;
#35 = DIMENSIONAL_EXPONENTS ( 1.000000000000000000, 0.000000000000000000, 0.000000000000000000, 0.000000000000000000, 0.000000000000000000, 0.000000000000000000, 0.000000000000000000 ) ;
#36 = CARTESIAN_POINT ( 'NONE',  ( 1.148106374200641706E-17, 1.562500000000000000, 0.09374999999999980571 ) ) ;
#37 = DIMENSIONAL_EXPONENTS ( 1.000000000000000000, 0.000000000000000000, 0.000000000000000000, 0.000000000000000000, 0.000000000000000000, 0.000000000000000000, 0.000000000000000000 ) ;
#38 = FACE_OUTER_BOUND ( 'NONE', #45, .T. ) ;
#39 =( GEOMETRIC_REPRESENTATION_CONTEXT ( 3 ) GLOBAL_UNCERTAINTY_ASSIGNED_CONTEXT ( ( #260 ) ) GLOBAL_UNIT_ASSIGNED_CONTEXT ( ( #231, #332, #132 ) ) REPRESENTATION_CONTEXT ( 'NONE', 'WORKASPACE' ) );
#40 = DIRECTION ( 'NONE',  ( 1.000000000000000000, 1.234313045635524517E-16, 0.000000000000000000 ) ) ;
#41 = ORIENTED_EDGE ( 'NONE', *, *, #23, .T. ) ;
#42 = DIRECTION ( 'NONE',  ( 0.000000000000000000, 0.000000000000000000, -1.000000000000000000 ) ) ;
#43 = VERTEX_POINT ( 'NONE', #107 ) ;
#44 = SURFACE_STYLE_USAGE ( .BOTH. , #218 ) ;
#45 = EDGE_LOOP ( 'NONE', ( #189, #137 ) ) ;
#46 = MECHANICAL_DESIGN_GEOMETRIC_PRESENTATION_REPRESENTATION (  '', ( #302 ), #93 ) ;
#47 = SURFACE_SIDE_STYLE ('',( #326 ) ) ;
#48 = CARTESIAN_POINT ( 'NONE',  ( 1.148106374200643555E-17, 0.09375000000000001388, 0.09374999999999998612 ) ) ;
#49 = SURFACE_STYLE_FILL_AREA ( #18 ) ;
#50 = PRODUCT ( '86076', '86076', '', ( #176 ) ) ;
#51 = EDGE_LOOP ( 'NONE', ( #275, #164, #169, #328 ) ) ;
#52 = COLOUR_RGB ( '',1.000000000000000000, 0.000000000000000000, 0.000000000000000000 ) ;
#53 = AXIS2_PLACEMENT_3D ( 'NONE', #211, #344, #1 ) ;
#54 = SURFACE_STYLE_USAGE ( .BOTH. , #227 ) ;
#55 = DIRECTION ( 'NONE',  ( -1.234313045635524517E-16, 1.000000000000000000, -0.000000000000000000 ) ) ;
#56 = EDGE_CURVE ( 'NONE', #359, #98, #80, .T. ) ;
#57 =( LENGTH_UNIT ( ) NAMED_UNIT ( * ) SI_UNIT ( $, .METRE. ) );
#58 =( LENGTH_UNIT ( ) NAMED_UNIT ( * ) SI_UNIT ( $, .METRE. ) );
#59 = DIRECTION ( 'NONE',  ( -1.000000000000000000, 0.000000000000000000, 0.000000000000000000 ) ) ;
#60 = PRESENTATION_LAYER_ASSIGNMENT (  '', '', ( #223 ) ) ;
#61 = CARTESIAN_POINT ( 'NONE',  ( -1.148106374200643401E-17, 0.09374999999999998612, 0.000000000000000000 ) ) ;
#62 = DIRECTION ( 'NONE',  ( 1.000000000000000000, 0.000000000000000000, 0.000000000000000000 ) ) ;
#63 = SURFACE_STYLE_FILL_AREA ( #243 ) ;
#64 = PRODUCT_RELATED_PRODUCT_CATEGORY ( 'part', '', ( #50 ) ) ;
#65 = CIRCLE ( 'NONE', #346, 0.09374999999999998612 ) ;
#66 = AXIS2_PLACEMENT_3D ( 'NONE', #160, #264, #318 ) ;
#67 = CARTESIAN_POINT ( 'NONE',  ( 0.000000000000000000, 0.09375000000000001388, 0.000000000000000000 ) ) ;
#68 = CARTESIAN_POINT ( 'NONE',  ( 0.000000000000000000, 1.562500000000000000, 0.000000000000000000 ) ) ;
#69 = DIRECTION ( 'NONE',  ( -1.234313045635524517E-16, 1.000000000000000000, -0.000000000000000000 ) ) ;
#70 = ORIENTED_EDGE ( 'NONE', *, *, #193, .F. ) ;
#71 = COLOUR_RGB ( '',1.000000000000000000, 0.000000000000000000, 0.000000000000000000 ) ;
#72 = ADVANCED_FACE ( 'NONE', ( #198 ), #102, .T. ) ;
#73 =( NAMED_UNIT ( * ) SI_UNIT ( $, .STERADIAN. ) SOLID_ANGLE_UNIT ( ) );
#74 = ORIENTED_EDGE ( 'NONE', *, *, #321, .F. ) ;
#75 = SPHERICAL_SURFACE ( 'NONE', #152, 0.09374999999999998612 ) ;
#76 = ORIENTED_EDGE ( 'NONE', *, *, #96, .T. ) ;
#77 = CIRCLE ( 'NONE', #284, 0.09374999999999998612 ) ;
#78 = CARTESIAN_POINT ( 'NONE',  ( -1.148106374200643401E-17, 0.09374999999999998612, 0.000000000000000000 ) ) ;
#79 =( NAMED_UNIT ( * ) PLANE_ANGLE_UNIT ( ) SI_UNIT ( $, .RADIAN. ) );
#80 = LINE ( 'NONE', #100, #324 ) ;
#81 = EDGE_LOOP ( 'NONE', ( #8, #76, #270, #161 ) ) ;
#82 = CIRCLE ( 'NONE', #32, 0.09374999999999998612 ) ;
#83 = DIRECTION ( 'NONE',  ( 1.000000000000000000, 0.000000000000000000, -1.224646799147353207E-16 ) ) ;
#84 = PRESENTATION_STYLE_ASSIGNMENT (( #144 ) ) ;
#85 = CARTESIAN_POINT ( 'NONE',  ( 0.09374999999999965306, 4.000000000000000000, 1.148106374200641552E-17 ) ) ;
#86 = EDGE_CURVE ( 'NONE', #141, #197, #77, .T. ) ;
#87 =( NAMED_UNIT ( * ) PLANE_ANGLE_UNIT ( ) SI_UNIT ( $, .RADIAN. ) );
#88 = PRESENTATION_LAYER_ASSIGNMENT (  '', '', ( #143 ) ) ;
#89 = EDGE_CURVE ( 'NONE', #246, #194, #142, .T. ) ;
#90 = CARTESIAN_POINT ( 'NONE',  ( -1.836970198721029688E-16, 4.000000000000000000, 0.000000000000000000 ) ) ;
#91 =( NAMED_UNIT ( * ) PLANE_ANGLE_UNIT ( ) SI_UNIT ( $, .RADIAN. ) );
#92 = DIRECTION ( 'NONE',  ( -1.234313045635524517E-16, 1.000000000000000000, -0.000000000000000000 ) ) ;
#93 =( GEOMETRIC_REPRESENTATION_CONTEXT ( 3 ) GLOBAL_UNCERTAINTY_ASSIGNED_CONTEXT ( ( #28 ) ) GLOBAL_UNIT_ASSIGNED_CONTEXT ( ( #234, #178, #285 ) ) REPRESENTATION_CONTEXT ( 'NONE', 'WORKASPACE' ) );
#94 = STYLED_ITEM ( 'NONE', ( #134 ), #353 ) ;
#95 = SPHERICAL_SURFACE ( 'NONE', #104, 0.09374999999999998612 ) ;
#96 = EDGE_CURVE ( 'NONE', #246, #359, #214, .T. ) ;
#97 = DIRECTION ( 'NONE',  ( 1.000000000000000000, 0.000000000000000000, 0.000000000000000000 ) ) ;
#98 = VERTEX_POINT ( 'NONE', #173 ) ;
#99 = ADVANCED_FACE ( 'NONE', ( #367 ), #95, .T. ) ;
#100 = CARTESIAN_POINT ( 'NONE',  ( -0.09375000000000002776, 4.000000000000000000, 0.000000000000000000 ) ) ;
#101 = FILL_AREA_STYLE_COLOUR ( '', #224 ) ;
#102 = PLANE ( 'NONE',  #238 ) ;
#103 = DIMENSIONAL_EXPONENTS ( 1.000000000000000000, 0.000000000000000000, 0.000000000000000000, 0.000000000000000000, 0.000000000000000000, 0.000000000000000000, 0.000000000000000000 ) ;
#104 = AXIS2_PLACEMENT_3D ( 'NONE', #9, #182, #265 ) ;
#105 = PRESENTATION_LAYER_ASSIGNMENT (  '', '', ( #208 ) ) ;
#106 = ORIENTED_EDGE ( 'NONE', *, *, #86, .F. ) ;
#107 = CARTESIAN_POINT ( 'NONE',  ( 0.000000000000000000, 1.562500000000000000, -0.09374999999999980571 ) ) ;
#108 = EDGE_CURVE ( 'NONE', #184, #3, #283, .T. ) ;
#109 = SURFACE_STYLE_USAGE ( .BOTH. , #254 ) ;
#110 = MECHANICAL_DESIGN_GEOMETRIC_PRESENTATION_REPRESENTATION (  '', ( #208 ), #245 ) ;
#111 = DIRECTION ( 'NONE',  ( -1.234313045635524517E-16, 1.000000000000000000, -0.000000000000000000 ) ) ;
#112 =( LENGTH_UNIT ( ) NAMED_UNIT ( * ) SI_UNIT ( $, .METRE. ) );
#113 = CARTESIAN_POINT ( 'NONE',  ( 0.09374999999999998612, 0.09375000000000001388, 0.000000000000000000 ) ) ;
#114 = ADVANCED_FACE ( 'NONE', ( #363 ), #253, .T. ) ;
#115 = PRESENTATION_STYLE_ASSIGNMENT (( #370 ) ) ;
#116 = UNCERTAINTY_MEASURE_WITH_UNIT (LENGTH_MEASURE( 1.000000000000000082E-05 ), #163, 'distance_accuracy_value', 'NONE');
#117 =( NAMED_UNIT ( * ) SI_UNIT ( $, .STERADIAN. ) SOLID_ANGLE_UNIT ( ) );
#118 =( NAMED_UNIT ( * ) SI_UNIT ( $, .STERADIAN. ) SOLID_ANGLE_UNIT ( ) );
#119 =( NAMED_UNIT ( * ) SI_UNIT ( $, .STERADIAN. ) SOLID_ANGLE_UNIT ( ) );
#120 = FACE_OUTER_BOUND ( 'NONE', #266, .T. ) ;
#121 = DIRECTION ( 'NONE',  ( 0.000000000000000000, 0.000000000000000000, -1.000000000000000000 ) ) ;
#122 = FILL_AREA_STYLE_COLOUR ( '', #181 ) ;
#123 =( CONVERSION_BASED_UNIT ( 'INCH', #368 ) LENGTH_UNIT ( ) NAMED_UNIT ( #103 ) );
#124 = CARTESIAN_POINT ( 'NONE',  ( -1.836970198721029688E-16, 4.000000000000000000, 0.000000000000000000 ) ) ;
#125 = ORIENTED_EDGE ( 'NONE', *, *, #256, .F. ) ;
#126 = CARTESIAN_POINT ( 'NONE',  ( 0.000000000000000000, 0.000000000000000000, 0.000000000000000000 ) ) ;
#127 =( LENGTH_UNIT ( ) NAMED_UNIT ( * ) SI_UNIT ( $, .METRE. ) );
#128 = AXIS2_PLACEMENT_3D ( 'NONE', #339, #202, #59 ) ;
#129 = VECTOR ( 'NONE', #322, 39.37007874015748143 ) ;
#130 = ORIENTED_EDGE ( 'NONE', *, *, #108, .T. ) ;
#131 = FILL_AREA_STYLE_COLOUR ( '', #170 ) ;
#132 =( NAMED_UNIT ( * ) SI_UNIT ( $, .STERADIAN. ) SOLID_ANGLE_UNIT ( ) );
#133 = STYLED_ITEM ( 'NONE', ( #235 ), #279 ) ;
#134 = PRESENTATION_STYLE_ASSIGNMENT (( #271 ) ) ;
#135 = VERTEX_POINT ( 'NONE', #312 ) ;
#136 = DIRECTION ( 'NONE',  ( -0.000000000000000000, -1.000000000000000000, -0.000000000000000000 ) ) ;
#137 = ORIENTED_EDGE ( 'NONE', *, *, #217, .T. ) ;
#138 = CARTESIAN_POINT ( 'NONE',  ( -1.148106374200643401E-17, 0.09374999999999998612, 0.000000000000000000 ) ) ;
#139 = PRESENTATION_LAYER_ASSIGNMENT (  '', '', ( #12 ) ) ;
#140 = EDGE_CURVE ( 'NONE', #3, #4, #204, .T. ) ;
#141 = VERTEX_POINT ( 'NONE', #113 ) ;
#142 = LINE ( 'NONE', #85, #290 ) ;
#143 = STYLED_ITEM ( 'NONE', ( #20 ), #21 ) ;
#144 = SURFACE_STYLE_USAGE ( .BOTH. , #337 ) ;
#145 = SURFACE_SIDE_STYLE ('',( #26 ) ) ;
#146 = FILL_AREA_STYLE ('',( #365 ) ) ;
#147 =( NAMED_UNIT ( * ) PLANE_ANGLE_UNIT ( ) SI_UNIT ( $, .RADIAN. ) );
#148 = FILL_AREA_STYLE_COLOUR ( '', #52 ) ;
#149 = CARTESIAN_POINT ( 'NONE',  ( 0.000000000000000000, 0.09375000000000001388, 0.000000000000000000 ) ) ;
#150 =( GEOMETRIC_REPRESENTATION_CONTEXT ( 3 ) GLOBAL_UNCERTAINTY_ASSIGNED_CONTEXT ( ( #257 ) ) GLOBAL_UNIT_ASSIGNED_CONTEXT ( ( #175, #147, #118 ) ) REPRESENTATION_CONTEXT ( 'NONE', 'WORKASPACE' ) );
#151 = MECHANICAL_DESIGN_GEOMETRIC_PRESENTATION_REPRESENTATION (  '', ( #94 ), #251 ) ;
#152 = AXIS2_PLACEMENT_3D ( 'NONE', #138, #203, #97 ) ;
#153 = ADVANCED_FACE ( 'NONE', ( #30 ), #369, .T. ) ;
#154 = APPLICATION_PROTOCOL_DEFINITION ( 'draft international standard', 'automotive_design', 1998, #333 ) ;
#155 = DIRECTION ( 'NONE',  ( 0.000000000000000000, 0.000000000000000000, -1.000000000000000000 ) ) ;
#156 =( CONVERSION_BASED_UNIT ( 'INCH', #237 ) LENGTH_UNIT ( ) NAMED_UNIT ( #37 ) );
#157 = EDGE_CURVE ( 'NONE', #141, #3, #342, .T. ) ;
#158 = LINE ( 'NONE', #183, #129 ) ;
#159 = PRESENTATION_LAYER_ASSIGNMENT (  '', '', ( #133 ) ) ;
#160 = CARTESIAN_POINT ( 'NONE',  ( 1.171667850015561029E-16, 1.562500000000000000, 0.000000000000000000 ) ) ;
#161 = ORIENTED_EDGE ( 'NONE', *, *, #217, .F. ) ;
#162 = PLANE ( 'NONE',  #66 ) ;
#163 =( CONVERSION_BASED_UNIT ( 'INCH', #360 ) LENGTH_UNIT ( ) NAMED_UNIT ( #16 ) );
#164 = ORIENTED_EDGE ( 'NONE', *, *, #89, .T. ) ;
#165 = CLOSED_SHELL ( 'NONE', ( #153, #185, #114, #327 ) ) ;
#166 = MECHANICAL_DESIGN_GEOMETRIC_PRESENTATION_REPRESENTATION (  '', ( #12 ), #39 ) ;
#167 = DIRECTION ( 'NONE',  ( -1.234313045635524517E-16, 1.000000000000000000, -0.000000000000000000 ) ) ;
#168 = FILL_AREA_STYLE ('',( #101 ) ) ;
#169 = ORIENTED_EDGE ( 'NONE', *, *, #209, .F. ) ;
#170 = COLOUR_RGB ( '',1.000000000000000000, 0.000000000000000000, 0.000000000000000000 ) ;
#171 = UNCERTAINTY_MEASURE_WITH_UNIT (LENGTH_MEASURE( 1.000000000000000082E-05 ), #296, 'distance_accuracy_value', 'NONE');
#172 = ADVANCED_FACE ( 'NONE', ( #120 ), #25, .T. ) ;
#173 = CARTESIAN_POINT ( 'NONE',  ( -0.09375000000000018041, 4.000000000000000000, 0.000000000000000000 ) ) ;
#174 = DIRECTION ( 'NONE',  ( 0.000000000000000000, 0.000000000000000000, 1.000000000000000000 ) ) ;
#175 =( CONVERSION_BASED_UNIT ( 'INCH', #31 ) LENGTH_UNIT ( ) NAMED_UNIT ( #35 ) );
#176 = PRODUCT_CONTEXT ( 'NONE', #288, 'mechanical' ) ;
#177 =( CONVERSION_BASED_UNIT ( 'INCH', #232 ) LENGTH_UNIT ( ) NAMED_UNIT ( #196 ) );
#178 =( NAMED_UNIT ( * ) PLANE_ANGLE_UNIT ( ) SI_UNIT ( $, .RADIAN. ) );
#179 = DIRECTION ( 'NONE',  ( 0.000000000000000000, -0.000000000000000000, 1.000000000000000000 ) ) ;
#180 = COLOUR_RGB ( '',0.7921568627450980005, 0.8196078431372548767, 0.9333333333333333481 ) ;
#181 = COLOUR_RGB ( '',0.7921568627450980005, 0.8196078431372548767, 0.9333333333333333481 ) ;
#182 = DIRECTION ( 'NONE',  ( 0.000000000000000000, 0.000000000000000000, 1.000000000000000000 ) ) ;
#183 = CARTESIAN_POINT ( 'NONE',  ( 0.000000000000000000, 0.000000000000000000, -0.09374999999999988898 ) ) ;
#184 = VERTEX_POINT ( 'NONE', #36 ) ;
#185 = ADVANCED_FACE ( 'NONE', ( #207 ), #162, .F. ) ;
#186 = DIRECTION ( 'NONE',  ( -1.000000000000000000, 0.000000000000000000, 0.000000000000000000 ) ) ;
#187 = CARTESIAN_POINT ( 'NONE',  ( 0.09374999999999980571, 4.000000000000000000, 1.148106374200642476E-17 ) ) ;
#188 = AXIS2_PLACEMENT_3D ( 'NONE', #305, #55, #307 ) ;
#189 = ORIENTED_EDGE ( 'NONE', *, *, #209, .T. ) ;
#190 = SURFACE_STYLE_USAGE ( .BOTH. , #314 ) ;
#191 = EDGE_LOOP ( 'NONE', ( #292, #130, #269, #219, #364 ) ) ;
#192 = CARTESIAN_POINT ( 'NONE',  ( -1.836970198721029688E-16, 4.000000000000000000, 0.000000000000000000 ) ) ;
#193 = EDGE_CURVE ( 'NONE', #359, #246, #33, .T. ) ;
#194 = VERTEX_POINT ( 'NONE', #187 ) ;
#195 = PRESENTATION_STYLE_ASSIGNMENT (( #54 ) ) ;
#196 = DIMENSIONAL_EXPONENTS ( 1.000000000000000000, 0.000000000000000000, 0.000000000000000000, 0.000000000000000000, 0.000000000000000000, 0.000000000000000000, 0.000000000000000000 ) ;
#197 = VERTEX_POINT ( 'NONE', #241 ) ;
#198 = FACE_OUTER_BOUND ( 'NONE', #216, .T. ) ;
#199 = CIRCLE ( 'NONE', #304, 0.09374999999999998612 ) ;
#200 = PRODUCT_DEFINITION ( 'UNKNOWN', '', #343, #299 ) ;
#201 = CARTESIAN_POINT ( 'NONE',  ( 0.000000000000000000, 0.09375000000000001388, 0.000000000000000000 ) ) ;
#202 = DIRECTION ( 'NONE',  ( -1.234313045635524517E-16, 1.000000000000000000, -0.000000000000000000 ) ) ;
#203 = DIRECTION ( 'NONE',  ( 0.000000000000000000, 0.000000000000000000, 1.000000000000000000 ) ) ;
#204 = CIRCLE ( 'NONE', #250, 0.09374999999999998612 ) ;
#205 = DIRECTION ( 'NONE',  ( 0.000000000000000000, 0.000000000000000000, -1.000000000000000000 ) ) ;
#206 = DIRECTION ( 'NONE',  ( 0.000000000000000000, 0.000000000000000000, -1.000000000000000000 ) ) ;
#207 = FACE_OUTER_BOUND ( 'NONE', #349, .T. ) ;
#208 = STYLED_ITEM ( 'NONE', ( #84 ), #172 ) ;
#209 = EDGE_CURVE ( 'NONE', #98, #194, #199, .T. ) ;
#210 = ORIENTED_EDGE ( 'NONE', *, *, #96, .F. ) ;
#211 = CARTESIAN_POINT ( 'NONE',  ( 0.000000000000000000, 0.000000000000000000, 0.000000000000000000 ) ) ;
#212 = DIRECTION ( 'NONE',  ( -1.000000000000000000, 0.000000000000000000, 0.000000000000000000 ) ) ;
#213 = CARTESIAN_POINT ( 'NONE',  ( 1.171667850015561029E-16, 1.562500000000000000, 0.000000000000000000 ) ) ;
#214 = CIRCLE ( 'NONE', #128, 0.09374999999999968081 ) ;
#215 = AXIS2_PLACEMENT_3D ( 'NONE', #350, #348, #155 ) ;
#216 = EDGE_LOOP ( 'NONE', ( #74, #125 ) ) ;
#217 = EDGE_CURVE ( 'NONE', #194, #98, #366, .T. ) ;
#218 = SURFACE_SIDE_STYLE ('',( #49 ) ) ;
#219 = ORIENTED_EDGE ( 'NONE', *, *, #263, .F. ) ;
#220 = LENGTH_MEASURE_WITH_UNIT ( LENGTH_MEASURE( 0.02539999999999999897 ), #112 );
#221 = CARTESIAN_POINT ( 'NONE',  ( -0.09374999999999956979, 1.562500000000000000, 0.000000000000000000 ) ) ;
#222 = FILL_AREA_STYLE_COLOUR ( '', #371 ) ;
#223 = STYLED_ITEM ( 'NONE', ( #115 ), #99 ) ;
#224 = COLOUR_RGB ( '',1.000000000000000000, 0.000000000000000000, 0.000000000000000000 ) ;
#225 = DIMENSIONAL_EXPONENTS ( 1.000000000000000000, 0.000000000000000000, 0.000000000000000000, 0.000000000000000000, 0.000000000000000000, 0.000000000000000000, 0.000000000000000000 ) ;
#226 = SURFACE_STYLE_FILL_AREA ( #276 ) ;
#227 = SURFACE_SIDE_STYLE ('',( #22 ) ) ;
#228 = LENGTH_MEASURE_WITH_UNIT ( LENGTH_MEASURE( 0.02539999999999999897 ), #306 );
#229 = SURFACE_STYLE_FILL_AREA ( #146 ) ;
#230 = CARTESIAN_POINT ( 'NONE',  ( 0.000000000000000000, 1.562500000000000000, 0.000000000000000000 ) ) ;
#231 =( CONVERSION_BASED_UNIT ( 'INCH', #220 ) LENGTH_UNIT ( ) NAMED_UNIT ( #225 ) );
#232 = LENGTH_MEASURE_WITH_UNIT ( LENGTH_MEASURE( 0.02539999999999999897 ), #58 );
#233 = DIRECTION ( 'NONE',  ( -0.000000000000000000, -1.000000000000000000, -0.000000000000000000 ) ) ;
#234 =( CONVERSION_BASED_UNIT ( 'INCH', #373 ) LENGTH_UNIT ( ) NAMED_UNIT ( #356 ) );
#235 = PRESENTATION_STYLE_ASSIGNMENT (( #190 ) ) ;
#236 = DIRECTION ( 'NONE',  ( -0.000000000000000000, -1.000000000000000000, -0.000000000000000000 ) ) ;
#237 = LENGTH_MEASURE_WITH_UNIT ( LENGTH_MEASURE( 0.02539999999999999897 ), #127 );
#238 = AXIS2_PLACEMENT_3D ( 'NONE', #230, #29, #179 ) ;
#239 = CIRCLE ( 'NONE', #215, 0.09374999999999980571 ) ;
#240 = ORIENTED_EDGE ( 'NONE', *, *, #263, .T. ) ;
#241 = CARTESIAN_POINT ( 'NONE',  ( -5.740531871003217003E-18, 0.000000000000000000, 0.000000000000000000 ) ) ;
#242 = ORIENTED_EDGE ( 'NONE', *, *, #140, .F. ) ;
#243 = FILL_AREA_STYLE ('',( #122 ) ) ;
#244 = CARTESIAN_POINT ( 'NONE',  ( 0.000000000000000000, 0.000000000000000000, 0.000000000000000000 ) ) ;
#245 =( GEOMETRIC_REPRESENTATION_CONTEXT ( 3 ) GLOBAL_UNCERTAINTY_ASSIGNED_CONTEXT ( ( #24 ) ) GLOBAL_UNIT_ASSIGNED_CONTEXT ( ( #177, #87, #117 ) ) REPRESENTATION_CONTEXT ( 'NONE', 'WORKASPACE' ) );
#246 = VERTEX_POINT ( 'NONE', #323 ) ;
#247 = DIRECTION ( 'NONE',  ( -1.000000000000000000, 0.000000000000000000, 0.000000000000000000 ) ) ;
#248 = ORIENTED_EDGE ( 'NONE', *, *, #140, .T. ) ;
#249 = ORIENTED_EDGE ( 'NONE', *, *, #108, .F. ) ;
#250 = AXIS2_PLACEMENT_3D ( 'NONE', #149, #258, #205 ) ;
#251 =( GEOMETRIC_REPRESENTATION_CONTEXT ( 3 ) GLOBAL_UNCERTAINTY_ASSIGNED_CONTEXT ( ( #116 ) ) GLOBAL_UNIT_ASSIGNED_CONTEXT ( ( #163, #79, #329 ) ) REPRESENTATION_CONTEXT ( 'NONE', 'WORKASPACE' ) );
#252 = UNCERTAINTY_MEASURE_WITH_UNIT (LENGTH_MEASURE( 1.000000000000000082E-05 ), #123, 'distance_accuracy_value', 'NONE');
#253 = CYLINDRICAL_SURFACE ( 'NONE', #357, 0.09374999999999983347 ) ;
#254 = SURFACE_SIDE_STYLE ('',( #226 ) ) ;
#255 = ORIENTED_EDGE ( 'NONE', *, *, #17, .F. ) ;
#256 = EDGE_CURVE ( 'NONE', #184, #43, #239, .T. ) ;
#257 = UNCERTAINTY_MEASURE_WITH_UNIT (LENGTH_MEASURE( 1.000000000000000082E-05 ), #175, 'distance_accuracy_value', 'NONE');
#258 = DIRECTION ( 'NONE',  ( -0.000000000000000000, -1.000000000000000000, -0.000000000000000000 ) ) ;
#259 = AXIS2_PLACEMENT_3D ( 'NONE', #267, #6, #40 ) ;
#260 = UNCERTAINTY_MEASURE_WITH_UNIT (LENGTH_MEASURE( 1.000000000000000082E-05 ), #231, 'distance_accuracy_value', 'NONE');
#261 = DIRECTION ( 'NONE',  ( -1.000000000000000000, 0.000000000000000000, 0.000000000000000000 ) ) ;
#262 = MECHANICAL_DESIGN_GEOMETRIC_PRESENTATION_REPRESENTATION (  '', ( #223 ), #150 ) ;
#263 = EDGE_CURVE ( 'NONE', #135, #141, #372, .T. ) ;
#264 = DIRECTION ( 'NONE',  ( -1.234313045635524517E-16, 1.000000000000000000, 0.000000000000000000 ) ) ;
#265 = DIRECTION ( 'NONE',  ( 1.000000000000000000, 0.000000000000000000, 0.000000000000000000 ) ) ;
#266 = EDGE_LOOP ( 'NONE', ( #249, #303, #10, #298, #242 ) ) ;
#267 = CARTESIAN_POINT ( 'NONE',  ( 0.09374999999999980571, 4.000000000000000000, 0.000000000000000000 ) ) ;
#268 = FACE_OUTER_BOUND ( 'NONE', #354, .T. ) ;
#269 = ORIENTED_EDGE ( 'NONE', *, *, #157, .F. ) ;
#270 = ORIENTED_EDGE ( 'NONE', *, *, #56, .T. ) ;
#271 = SURFACE_STYLE_USAGE ( .BOTH. , #47 ) ;
#272 = PRESENTATION_LAYER_ASSIGNMENT (  '', '', ( #302 ) ) ;
#273 = CARTESIAN_POINT ( 'NONE',  ( -0.09374999999999998612, 0.09375000000000001388, 1.148106374200643247E-17 ) ) ;
#274 = PRESENTATION_STYLE_ASSIGNMENT (( #44 ) ) ;
#275 = ORIENTED_EDGE ( 'NONE', *, *, #193, .T. ) ;
#276 = FILL_AREA_STYLE ('',( #15 ) ) ;
#277 =( GEOMETRIC_REPRESENTATION_CONTEXT ( 3 ) GLOBAL_UNCERTAINTY_ASSIGNED_CONTEXT ( ( #171 ) ) GLOBAL_UNIT_ASSIGNED_CONTEXT ( ( #296, #362, #300 ) ) REPRESENTATION_CONTEXT ( 'NONE', 'WORKASPACE' ) );
#278 =( GEOMETRIC_REPRESENTATION_CONTEXT ( 3 ) GLOBAL_UNCERTAINTY_ASSIGNED_CONTEXT ( ( #336 ) ) GLOBAL_UNIT_ASSIGNED_CONTEXT ( ( #156, #351, #73 ) ) REPRESENTATION_CONTEXT ( 'NONE', 'WORKASPACE' ) );
#279 = MANIFOLD_SOLID_BREP ( 'Revolve - Cutting Edge', #316 ) ;
#280 = DIRECTION ( 'NONE',  ( 0.000000000000000000, 0.000000000000000000, -1.000000000000000000 ) ) ;
#281 = CARTESIAN_POINT ( 'NONE',  ( 0.000000000000000000, 0.09375000000000001388, 0.000000000000000000 ) ) ;
#282 = DIRECTION ( 'NONE',  ( 0.000000000000000000, 0.000000000000000000, -1.000000000000000000 ) ) ;
#283 = LINE ( 'NONE', #2, #310 ) ;
#284 = AXIS2_PLACEMENT_3D ( 'NONE', #61, #121, #261 ) ;
#285 =( NAMED_UNIT ( * ) SI_UNIT ( $, .STERADIAN. ) SOLID_ANGLE_UNIT ( ) );
#286 = AXIS2_PLACEMENT_3D ( 'NONE', #68, #293, #42 ) ;
#287 = DIRECTION ( 'NONE',  ( -1.234313045635524517E-16, 1.000000000000000000, -0.000000000000000000 ) ) ;
#288 = APPLICATION_CONTEXT ( 'automotive_design' ) ;
#289 = PLANE ( 'NONE',  #259 ) ;
#290 = VECTOR ( 'NONE', #111, 39.37007874015748143 ) ;
#291 = AXIS2_PLACEMENT_3D ( 'NONE', #126, #174, #62 ) ;
#292 = ORIENTED_EDGE ( 'NONE', *, *, #321, .T. ) ;
#293 = DIRECTION ( 'NONE',  ( -0.000000000000000000, -1.000000000000000000, -0.000000000000000000 ) ) ;
#294 = DIRECTION ( 'NONE',  ( -1.234313045635524517E-16, 1.000000000000000000, -0.000000000000000000 ) ) ;
#295 = AXIS2_PLACEMENT_3D ( 'NONE', #213, #92, #212 ) ;
#296 =( CONVERSION_BASED_UNIT ( 'INCH', #228 ) LENGTH_UNIT ( ) NAMED_UNIT ( #315 ) );
#297 =( LENGTH_UNIT ( ) NAMED_UNIT ( * ) SI_UNIT ( $, .METRE. ) );
#298 = ORIENTED_EDGE ( 'NONE', *, *, #23, .F. ) ;
#299 = PRODUCT_DEFINITION_CONTEXT ( 'detailed design', #333, 'design' ) ;
#300 =( NAMED_UNIT ( * ) SI_UNIT ( $, .STERADIAN. ) SOLID_ANGLE_UNIT ( ) );
#301 = EDGE_CURVE ( 'NONE', #43, #135, #158, .T. ) ;
#302 = STYLED_ITEM ( 'NONE', ( #195 ), #72 ) ;
#303 = ORIENTED_EDGE ( 'NONE', *, *, #256, .T. ) ;
#304 = AXIS2_PLACEMENT_3D ( 'NONE', #124, #69, #186 ) ;
#305 = CARTESIAN_POINT ( 'NONE',  ( -1.836970198721029688E-16, 4.000000000000000000, 0.000000000000000000 ) ) ;
#306 =( LENGTH_UNIT ( ) NAMED_UNIT ( * ) SI_UNIT ( $, .METRE. ) );
#307 = DIRECTION ( 'NONE',  ( -1.000000000000000000, 0.000000000000000000, 0.000000000000000000 ) ) ;
#308 = ADVANCED_BREP_SHAPE_REPRESENTATION ( '86076', ( #279, #21, #291 ), #5 ) ;
#309 =( LENGTH_UNIT ( ) NAMED_UNIT ( * ) SI_UNIT ( $, .METRE. ) );
#310 = VECTOR ( 'NONE', #320, 39.37007874015748143 ) ;
#311 = APPLICATION_PROTOCOL_DEFINITION ( 'draft international standard', 'automotive_design', 1998, #288 ) ;
#312 = CARTESIAN_POINT ( 'NONE',  ( 0.000000000000000000, 0.09375000000000001388, -0.09374999999999998612 ) ) ;
#313 = SHAPE_DEFINITION_REPRESENTATION ( #361, #308 ) ;
#314 = SURFACE_SIDE_STYLE ('',( #63 ) ) ;
#315 = DIMENSIONAL_EXPONENTS ( 1.000000000000000000, 0.000000000000000000, 0.000000000000000000, 0.000000000000000000, 0.000000000000000000, 0.000000000000000000, 0.000000000000000000 ) ;
#316 = CLOSED_SHELL ( 'NONE', ( #99, #353, #72, #172, #338 ) ) ;
#317 = MECHANICAL_DESIGN_GEOMETRIC_PRESENTATION_REPRESENTATION (  '', ( #133 ), #278 ) ;
#318 = DIRECTION ( 'NONE',  ( -1.000000000000000000, -1.234313045635524517E-16, 0.000000000000000000 ) ) ;
#319 = ORIENTED_EDGE ( 'NONE', *, *, #157, .T. ) ;
#320 = DIRECTION ( 'NONE',  ( -0.000000000000000000, -1.000000000000000000, -0.000000000000000000 ) ) ;
#321 = EDGE_CURVE ( 'NONE', #43, #184, #335, .T. ) ;
#322 = DIRECTION ( 'NONE',  ( -0.000000000000000000, -1.000000000000000000, -0.000000000000000000 ) ) ;
#323 = CARTESIAN_POINT ( 'NONE',  ( 0.09374999999999980571, 1.562500000000000000, 1.148106374200642476E-17 ) ) ;
#324 = VECTOR ( 'NONE', #167, 39.37007874015748143 ) ;
#325 = ORIENTED_EDGE ( 'NONE', *, *, #86, .T. ) ;
#326 = SURFACE_STYLE_FILL_AREA ( #168 ) ;
#327 = ADVANCED_FACE ( 'NONE', ( #38 ), #289, .F. ) ;
#328 = ORIENTED_EDGE ( 'NONE', *, *, #56, .F. ) ;
#329 =( NAMED_UNIT ( * ) SI_UNIT ( $, .STERADIAN. ) SOLID_ANGLE_UNIT ( ) );
#330 = EDGE_LOOP ( 'NONE', ( #248, #345, #106, #319 ) ) ;
#331 = FILL_AREA_STYLE ('',( #222 ) ) ;
#332 =( NAMED_UNIT ( * ) PLANE_ANGLE_UNIT ( ) SI_UNIT ( $, .RADIAN. ) );
#333 = APPLICATION_CONTEXT ( 'automotive_design' ) ;
#334 = DIRECTION ( 'NONE',  ( 1.224646799147353207E-16, -0.000000000000000000, 1.000000000000000000 ) ) ;
#335 = CIRCLE ( 'NONE', #286, 0.09374999999999980571 ) ;
#336 = UNCERTAINTY_MEASURE_WITH_UNIT (LENGTH_MEASURE( 1.000000000000000082E-05 ), #156, 'distance_accuracy_value', 'NONE');
#337 = SURFACE_SIDE_STYLE ('',( #229 ) ) ;
#338 = ADVANCED_FACE ( 'NONE', ( #268 ), #75, .T. ) ;
#339 = CARTESIAN_POINT ( 'NONE',  ( 1.171667850015561029E-16, 1.562500000000000000, 0.000000000000000000 ) ) ;
#340 =( LENGTH_UNIT ( ) NAMED_UNIT ( * ) SI_UNIT ( $, .METRE. ) );
#341 = FILL_AREA_STYLE ('',( #148 ) ) ;
#342 = CIRCLE ( 'NONE', #19, 0.09374999999999998612 ) ;
#343 = PRODUCT_DEFINITION_FORMATION_WITH_SPECIFIED_SOURCE ( 'ANY', '', #50, .NOT_KNOWN. ) ;
#344 = DIRECTION ( 'NONE',  ( -0.000000000000000000, -1.000000000000000000, -0.000000000000000000 ) ) ;
#345 = ORIENTED_EDGE ( 'NONE', *, *, #17, .T. ) ;
#346 = AXIS2_PLACEMENT_3D ( 'NONE', #201, #13, #280 ) ;
#347 = PRESENTATION_LAYER_ASSIGNMENT (  '', '', ( #94 ) ) ;
#348 = DIRECTION ( 'NONE',  ( -0.000000000000000000, -1.000000000000000000, -0.000000000000000000 ) ) ;
#349 = EDGE_LOOP ( 'NONE', ( #70, #210 ) ) ;
#350 = CARTESIAN_POINT ( 'NONE',  ( 0.000000000000000000, 1.562500000000000000, 0.000000000000000000 ) ) ;
#351 =( NAMED_UNIT ( * ) PLANE_ANGLE_UNIT ( ) SI_UNIT ( $, .RADIAN. ) );
#352 = AXIS2_PLACEMENT_3D ( 'NONE', #90, #287, #34 ) ;
#353 = ADVANCED_FACE ( 'NONE', ( #7 ), #14, .T. ) ;
#354 = EDGE_LOOP ( 'NONE', ( #255, #41, #240, #325 ) ) ;
#355 = DIRECTION ( 'NONE',  ( 0.000000000000000000, 0.000000000000000000, -1.000000000000000000 ) ) ;
#356 = DIMENSIONAL_EXPONENTS ( 1.000000000000000000, 0.000000000000000000, 0.000000000000000000, 0.000000000000000000, 0.000000000000000000, 0.000000000000000000, 0.000000000000000000 ) ;
#357 = AXIS2_PLACEMENT_3D ( 'NONE', #192, #294, #247 ) ;
#358 = AXIS2_PLACEMENT_3D ( 'NONE', #67, #236, #206 ) ;
#359 = VERTEX_POINT ( 'NONE', #221 ) ;
#360 = LENGTH_MEASURE_WITH_UNIT ( LENGTH_MEASURE( 0.02539999999999999897 ), #340 );
#361 = PRODUCT_DEFINITION_SHAPE ( 'NONE', 'NONE',  #200 ) ;
#362 =( NAMED_UNIT ( * ) PLANE_ANGLE_UNIT ( ) SI_UNIT ( $, .RADIAN. ) );
#363 = FACE_OUTER_BOUND ( 'NONE', #81, .T. ) ;
#364 = ORIENTED_EDGE ( 'NONE', *, *, #301, .F. ) ;
#365 = FILL_AREA_STYLE_COLOUR ( '', #71 ) ;
#366 = CIRCLE ( 'NONE', #352, 0.09374999999999998612 ) ;
#367 = FACE_OUTER_BOUND ( 'NONE', #330, .T. ) ;
#368 = LENGTH_MEASURE_WITH_UNIT ( LENGTH_MEASURE( 0.02539999999999999897 ), #297 );
#369 = CYLINDRICAL_SURFACE ( 'NONE', #188, 0.09374999999999983347 ) ;
#370 = SURFACE_STYLE_USAGE ( .BOTH. , #145 ) ;
#371 = COLOUR_RGB ( '',1.000000000000000000, 0.000000000000000000, 0.000000000000000000 ) ;
#372 = CIRCLE ( 'NONE', #358, 0.09374999999999998612 ) ;
#373 = LENGTH_MEASURE_WITH_UNIT ( LENGTH_MEASURE( 0.02539999999999999897 ), #57 );
ENDSEC;
END-ISO-10303-21;
