ISO-10303-21;
HEADER;
FILE_DESCRIPTION (( 'STEP AP214' ),
    '1' );
FILE_NAME ('Micro_SFP-156-45.STEP',
    '2021-09-02T06:08:18',
    ( '' ),
    ( '' ),
    'SwSTEP 2.0',
    'SolidWorks 2020',
    '' );
FILE_SCHEMA (( 'AUTOMOTIVE_DESIGN' ));
ENDSEC;

DATA;
#1 = AXIS2_PLACEMENT_3D ( 'NONE', #14, #158, #244 ) ;
#2 = DIRECTION ( 'NONE',  ( 1.000000000000000000, 0.0000000000000000000, -0.0000000000000000000 ) ) ;
#3 = CARTESIAN_POINT ( 'NONE',  ( 0.07802190000000006065, 0.0000000000000000000, 0.6250000000000000000 ) ) ;
#4 = ORIENTED_EDGE ( 'NONE', *, *, #264, .T. ) ;
#5 = COLOUR_RGB ( '',0.7921568627450980005, 0.8196078431372548767, 0.9333333333333333481 ) ;
#6 = ADVANCED_FACE ( 'NONE', ( #294 ), #16, .T. ) ;
#7 = CARTESIAN_POINT ( 'NONE',  ( 0.07802190000000000514, 9.554927009839488851E-18, 0.0000000000000000000 ) ) ;
#8 =( CONVERSION_BASED_UNIT ( 'INCH', #236 ) LENGTH_UNIT ( ) NAMED_UNIT ( #263 ) );
#9 = AXIS2_PLACEMENT_3D ( 'NONE', #66, #214, #209 ) ;
#10 = EDGE_CURVE ( 'NONE', #106, #62, #89, .T. ) ;
#11 = CARTESIAN_POINT ( 'NONE',  ( -0.1249999999999999029, 0.0000000000000000000, 0.8914260444501813652 ) ) ;
#12 = AXIS2_PLACEMENT_3D ( 'NONE', #219, #103, #238 ) ;
#13 = CARTESIAN_POINT ( 'NONE',  ( 0.07802190000000006065, 0.0000000000000000000, 0.6250000000000000000 ) ) ;
#14 = CARTESIAN_POINT ( 'NONE',  ( 7.654042494670957853E-17, 0.0000000000000000000, 0.6250000000000000000 ) ) ;
#15 = ORIENTED_EDGE ( 'NONE', *, *, #170, .T. ) ;
#16 = CONICAL_SURFACE ( 'NONE', #115, 0.1099999999999996397, 0.7853981633974426169 ) ;
#17 = CARTESIAN_POINT ( 'NONE',  ( -0.07802190000000000514, 0.0000000000000000000, 9.554927009839488851E-18 ) ) ;
#18 = CYLINDRICAL_SURFACE ( 'NONE', #143, 0.07802190000000000514 ) ;
#19 = ADVANCED_FACE ( 'NONE', ( #293 ), #195, .F. ) ;
#20 = CARTESIAN_POINT ( 'NONE',  ( 7.654042494670957853E-17, 0.0000000000000000000, 0.6250000000000000000 ) ) ;
#21 = ORIENTED_EDGE ( 'NONE', *, *, #275, .T. ) ;
#22 =( GEOMETRIC_REPRESENTATION_CONTEXT ( 3 ) GLOBAL_UNCERTAINTY_ASSIGNED_CONTEXT ( ( #207 ) ) GLOBAL_UNIT_ASSIGNED_CONTEXT ( ( #64, #225, #42 ) ) REPRESENTATION_CONTEXT ( 'NONE', 'WORKASPACE' ) );
#23 = FILL_AREA_STYLE_COLOUR ( '', #5 ) ;
#24 = ORIENTED_EDGE ( 'NONE', *, *, #217, .T. ) ;
#25 =( LENGTH_UNIT ( ) NAMED_UNIT ( * ) SI_UNIT ( $, .METRE. ) );
#26 = ORIENTED_EDGE ( 'NONE', *, *, #113, .F. ) ;
#27 = EDGE_LOOP ( 'NONE', ( #61, #157, #69, #171 ) ) ;
#28 = PRODUCT_RELATED_PRODUCT_CATEGORY ( 'part', '', ( #192 ) ) ;
#29 = LENGTH_MEASURE_WITH_UNIT ( LENGTH_MEASURE( 0.02539999999999999897 ), #285 );
#30 =( GEOMETRIC_REPRESENTATION_CONTEXT ( 3 ) GLOBAL_UNCERTAINTY_ASSIGNED_CONTEXT ( ( #261 ) ) GLOBAL_UNIT_ASSIGNED_CONTEXT ( ( #169, #122, #100 ) ) REPRESENTATION_CONTEXT ( 'NONE', 'WORKASPACE' ) );
#31 = DIRECTION ( 'NONE',  ( -0.0000000000000000000, -0.0000000000000000000, -1.000000000000000000 ) ) ;
#32 = EDGE_CURVE ( 'NONE', #88, #178, #173, .T. ) ;
#33 = CONICAL_SURFACE ( 'NONE', #291, 0.1099999999999996397, 0.7853981633974426169 ) ;
#34 = DIRECTION ( 'NONE',  ( 0.0000000000000000000, 0.0000000000000000000, 1.000000000000000000 ) ) ;
#35 = PRODUCT_CONTEXT ( 'NONE', #222, 'mechanical' ) ;
#36 = EDGE_LOOP ( 'NONE', ( #47, #45, #232, #24 ) ) ;
#37 = CIRCLE ( 'NONE', #283, 0.1099999999999996397 ) ;
#38 = CARTESIAN_POINT ( 'NONE',  ( 0.0000000000000000000, 0.0000000000000000000, 2.000000000000000000 ) ) ;
#39 = ORIENTED_EDGE ( 'NONE', *, *, #160, .F. ) ;
#40 = EDGE_CURVE ( 'NONE', #80, #62, #166, .T. ) ;
#41 = DIRECTION ( 'NONE',  ( 0.0000000000000000000, 0.0000000000000000000, -1.000000000000000000 ) ) ;
#42 =( NAMED_UNIT ( * ) SI_UNIT ( $, .STERADIAN. ) SOLID_ANGLE_UNIT ( ) );
#43 = CARTESIAN_POINT ( 'NONE',  ( -0.1099999999999996397, 0.0000000000000000000, 2.000000000000000000 ) ) ;
#44 = DIRECTION ( 'NONE',  ( -1.224646799147353207E-16, -0.0000000000000000000, -1.000000000000000000 ) ) ;
#45 = ORIENTED_EDGE ( 'NONE', *, *, #170, .F. ) ;
#46 = DIRECTION ( 'NONE',  ( -1.000000000000000000, 0.0000000000000000000, 0.0000000000000000000 ) ) ;
#47 = ORIENTED_EDGE ( 'NONE', *, *, #40, .F. ) ;
#48 = CIRCLE ( 'NONE', #105, 0.1099999999999996397 ) ;
#49 = CARTESIAN_POINT ( 'NONE',  ( 0.0000000000000000000, 0.0000000000000000000, 2.000000000000000000 ) ) ;
#50 = CARTESIAN_POINT ( 'NONE',  ( 0.07802190000000000514, 9.554927009839488851E-18, -9.554927009839488851E-18 ) ) ;
#51 = VERTEX_POINT ( 'NONE', #154 ) ;
#52 = PRESENTATION_STYLE_ASSIGNMENT (( #78 ) ) ;
#53 = CYLINDRICAL_SURFACE ( 'NONE', #179, 0.1250000000000000000 ) ;
#54 = CARTESIAN_POINT ( 'NONE',  ( 0.0000000000000000000, 0.0000000000000000000, 1.984999999999999432 ) ) ;
#55 = PRODUCT_DEFINITION_CONTEXT ( 'detailed design', #67, 'design' ) ;
#56 = VECTOR ( 'NONE', #174, 39.37007874015748143 ) ;
#57 = DIMENSIONAL_EXPONENTS ( 1.000000000000000000, 0.0000000000000000000, 0.0000000000000000000, 0.0000000000000000000, 0.0000000000000000000, 0.0000000000000000000, 0.0000000000000000000 ) ;
#58 = EDGE_LOOP ( 'NONE', ( #75, #21, #198, #39 ) ) ;
#59 = EDGE_CURVE ( 'NONE', #282, #280, #216, .T. ) ;
#60 = FACE_OUTER_BOUND ( 'NONE', #36, .T. ) ;
#61 = ORIENTED_EDGE ( 'NONE', *, *, #153, .F. ) ;
#62 = VERTEX_POINT ( 'NONE', #11 ) ;
#63 = LINE ( 'NONE', #43, #252 ) ;
#64 =( CONVERSION_BASED_UNIT ( 'INCH', #249 ) LENGTH_UNIT ( ) NAMED_UNIT ( #57 ) );
#65 = DIRECTION ( 'NONE',  ( -1.000000000000000000, 0.0000000000000000000, 0.0000000000000000000 ) ) ;
#66 = CARTESIAN_POINT ( 'NONE',  ( 1.091682052012500869E-16, 0.0000000000000000000, 0.8914260444501813652 ) ) ;
#67 = APPLICATION_CONTEXT ( 'automotive_design' ) ;
#68 = SURFACE_STYLE_USAGE ( .BOTH. , #132 ) ;
#69 = ORIENTED_EDGE ( 'NONE', *, *, #99, .T. ) ;
#70 = PRODUCT_DEFINITION ( 'UNKNOWN', '', #270, #55 ) ;
#71 = DIMENSIONAL_EXPONENTS ( 1.000000000000000000, 0.0000000000000000000, 0.0000000000000000000, 0.0000000000000000000, 0.0000000000000000000, 0.0000000000000000000, 0.0000000000000000000 ) ;
#72 = EDGE_LOOP ( 'NONE', ( #118, #262 ) ) ;
#73 = DIRECTION ( 'NONE',  ( -1.000000000000000000, 0.0000000000000000000, 0.0000000000000000000 ) ) ;
#74 = DIRECTION ( 'NONE',  ( 0.1736481776669313581, 0.0000000000000000000, 0.9848077530122077983 ) ) ;
#75 = ORIENTED_EDGE ( 'NONE', *, *, #153, .T. ) ;
#76 = FACE_OUTER_BOUND ( 'NONE', #96, .T. ) ;
#77 = ORIENTED_EDGE ( 'NONE', *, *, #134, .T. ) ;
#78 = SURFACE_STYLE_USAGE ( .BOTH. , #98 ) ;
#79 = ORIENTED_EDGE ( 'NONE', *, *, #59, .T. ) ;
#80 = VERTEX_POINT ( 'NONE', #108 ) ;
#81 = DIRECTION ( 'NONE',  ( 0.0000000000000000000, 0.0000000000000000000, 1.000000000000000000 ) ) ;
#82 = DIRECTION ( 'NONE',  ( 0.0000000000000000000, 0.0000000000000000000, 1.000000000000000000 ) ) ;
#83 = AXIS2_PLACEMENT_3D ( 'NONE', #253, #230, #92 ) ;
#84 = CARTESIAN_POINT ( 'NONE',  ( 0.0000000000000000000, 0.0000000000000000000, 1.984999999999999432 ) ) ;
#85 = CARTESIAN_POINT ( 'NONE',  ( 0.0000000000000000000, 0.0000000000000000000, 0.0000000000000000000 ) ) ;
#86 = LINE ( 'NONE', #104, #56 ) ;
#87 = CIRCLE ( 'NONE', #224, 0.07802189999999999126 ) ;
#88 = VERTEX_POINT ( 'NONE', #13 ) ;
#89 = LINE ( 'NONE', #274, #168 ) ;
#90 = DIRECTION ( 'NONE',  ( -1.000000000000000000, 0.0000000000000000000, 1.224646799147353207E-16 ) ) ;
#91 = FILL_AREA_STYLE ('',( #23 ) ) ;
#92 = DIRECTION ( 'NONE',  ( -1.000000000000000000, 0.0000000000000000000, 1.224646799147353207E-16 ) ) ;
#93 = EDGE_LOOP ( 'NONE', ( #26, #223, #239, #267 ) ) ;
#94 = CARTESIAN_POINT ( 'NONE',  ( 0.0000000000000000000, 0.0000000000000000000, 0.0000000000000000000 ) ) ;
#95 = CARTESIAN_POINT ( 'NONE',  ( 0.0000000000000000000, 0.0000000000000000000, 2.000000000000000000 ) ) ;
#96 = EDGE_LOOP ( 'NONE', ( #111, #297, #163, #251 ) ) ;
#97 = CONICAL_SURFACE ( 'NONE', #1, 0.07802189999999999126, 0.1745329251994338637 ) ;
#98 = SURFACE_SIDE_STYLE ('',( #120 ) ) ;
#99 = EDGE_CURVE ( 'NONE', #62, #178, #218, .T. ) ;
#100 =( NAMED_UNIT ( * ) SI_UNIT ( $, .STERADIAN. ) SOLID_ANGLE_UNIT ( ) );
#101 = ORIENTED_EDGE ( 'NONE', *, *, #99, .F. ) ;
#102 = EDGE_CURVE ( 'NONE', #256, #51, #37, .T. ) ;
#103 = DIRECTION ( 'NONE',  ( -1.224646799147353207E-16, -0.0000000000000000000, -1.000000000000000000 ) ) ;
#104 = CARTESIAN_POINT ( 'NONE',  ( 0.1250000000000000000, 1.530808498934191509E-17, 2.000000000000000000 ) ) ;
#105 = AXIS2_PLACEMENT_3D ( 'NONE', #240, #34, #114 ) ;
#106 = VERTEX_POINT ( 'NONE', #107 ) ;
#107 = CARTESIAN_POINT ( 'NONE',  ( -0.1250000000000000000, 0.0000000000000000000, 1.984999999999999432 ) ) ;
#108 = CARTESIAN_POINT ( 'NONE',  ( -0.07802189999999992187, 1.243150599959070043E-17, 0.6250000000000000000 ) ) ;
#109 = VERTEX_POINT ( 'NONE', #156 ) ;
#110 = DIRECTION ( 'NONE',  ( 1.000000000000000000, 0.0000000000000000000, 0.0000000000000000000 ) ) ;
#111 = ORIENTED_EDGE ( 'NONE', *, *, #289, .F. ) ;
#112 = DIRECTION ( 'NONE',  ( 0.0000000000000000000, 0.0000000000000000000, 1.000000000000000000 ) ) ;
#113 = EDGE_CURVE ( 'NONE', #109, #178, #86, .T. ) ;
#114 = DIRECTION ( 'NONE',  ( 1.000000000000000000, 0.0000000000000000000, 0.0000000000000000000 ) ) ;
#115 = AXIS2_PLACEMENT_3D ( 'NONE', #38, #221, #201 ) ;
#116 = DIRECTION ( 'NONE',  ( -1.224646799147353207E-16, -0.0000000000000000000, -1.000000000000000000 ) ) ;
#117 = ADVANCED_FACE ( 'NONE', ( #60 ), #97, .T. ) ;
#118 = ORIENTED_EDGE ( 'NONE', *, *, #102, .T. ) ;
#119 = EDGE_LOOP ( 'NONE', ( #161, #182, #137, #245 ) ) ;
#120 = SURFACE_STYLE_FILL_AREA ( #286 ) ;
#121 = AXIS2_PLACEMENT_3D ( 'NONE', #279, #248, #135 ) ;
#122 =( NAMED_UNIT ( * ) PLANE_ANGLE_UNIT ( ) SI_UNIT ( $, .RADIAN. ) );
#123 = CARTESIAN_POINT ( 'NONE',  ( -0.07802189999999992187, 9.554927009839487310E-18, 0.6250000000000000000 ) ) ;
#124 = VECTOR ( 'NONE', #250, 39.37007874015748143 ) ;
#125 = STYLED_ITEM ( 'NONE', ( #52 ), #181 ) ;
#126 = EDGE_CURVE ( 'NONE', #109, #106, #247, .T. ) ;
#127 = EDGE_CURVE ( 'NONE', #51, #256, #48, .T. ) ;
#128 = VECTOR ( 'NONE', #177, 39.37007874015747433 ) ;
#129 = AXIS2_PLACEMENT_3D ( 'NONE', #85, #82, #266 ) ;
#130 = APPLICATION_PROTOCOL_DEFINITION ( 'draft international standard', 'automotive_design', 1998, #67 ) ;
#131 = CARTESIAN_POINT ( 'NONE',  ( 0.0000000000000000000, 0.0000000000000000000, 2.000000000000000000 ) ) ;
#132 = SURFACE_SIDE_STYLE ('',( #184 ) ) ;
#133 = AXIS2_PLACEMENT_3D ( 'NONE', #145, #147, #215 ) ;
#134 = EDGE_CURVE ( 'NONE', #280, #282, #277, .T. ) ;
#135 = DIRECTION ( 'NONE',  ( 1.000000000000000000, 0.0000000000000000000, 0.0000000000000000000 ) ) ;
#136 = CARTESIAN_POINT ( 'NONE',  ( 7.654042494670957853E-17, 0.0000000000000000000, 0.6250000000000000000 ) ) ;
#137 = ORIENTED_EDGE ( 'NONE', *, *, #264, .F. ) ;
#138 = DIRECTION ( 'NONE',  ( -1.224646799147353207E-16, -0.0000000000000000000, -1.000000000000000000 ) ) ;
#139 = AXIS2_PLACEMENT_3D ( 'NONE', #265, #220, #180 ) ;
#140 = DIRECTION ( 'NONE',  ( -0.0000000000000000000, -0.0000000000000000000, -1.000000000000000000 ) ) ;
#141 = PRODUCT_DEFINITION_SHAPE ( 'NONE', 'NONE',  #70 ) ;
#142 = ORIENTED_EDGE ( 'NONE', *, *, #134, .F. ) ;
#143 = AXIS2_PLACEMENT_3D ( 'NONE', #94, #44, #204 ) ;
#144 = CARTESIAN_POINT ( 'NONE',  ( -0.07802190000000000514, 0.0000000000000000000, 1.910985401967897770E-17 ) ) ;
#145 = CARTESIAN_POINT ( 'NONE',  ( 0.0000000000000000000, 0.0000000000000000000, 0.0000000000000000000 ) ) ;
#146 = LINE ( 'NONE', #50, #190 ) ;
#147 = DIRECTION ( 'NONE',  ( 0.0000000000000000000, 0.0000000000000000000, 1.000000000000000000 ) ) ;
#148 = MANIFOLD_SOLID_BREP ( 'Cut-Revolve1', #211 ) ;
#149 = ADVANCED_FACE ( 'NONE', ( #186 ), #18, .T. ) ;
#150 = AXIS2_PLACEMENT_3D ( 'NONE', #54, #164, #255 ) ;
#151 = DIRECTION ( 'NONE',  ( 1.000000000000000000, 0.0000000000000000000, 0.0000000000000000000 ) ) ;
#152 = SHAPE_DEFINITION_REPRESENTATION ( #141, #181 ) ;
#153 = EDGE_CURVE ( 'NONE', #80, #88, #87, .T. ) ;
#154 = CARTESIAN_POINT ( 'NONE',  ( 0.1099999999999996397, 1.438959988998137757E-17, 2.000000000000000000 ) ) ;
#155 = MECHANICAL_DESIGN_GEOMETRIC_PRESENTATION_REPRESENTATION (  '', ( #259 ), #22 ) ;
#156 = CARTESIAN_POINT ( 'NONE',  ( 0.1250000000000000000, 1.530808498934191509E-17, 1.984999999999999432 ) ) ;
#157 = ORIENTED_EDGE ( 'NONE', *, *, #40, .T. ) ;
#158 = DIRECTION ( 'NONE',  ( 1.224646799147353207E-16, 0.0000000000000000000, 1.000000000000000000 ) ) ;
#159 = VECTOR ( 'NONE', #172, 39.37007874015748143 ) ;
#160 = EDGE_CURVE ( 'NONE', #80, #282, #227, .T. ) ;
#161 = ORIENTED_EDGE ( 'NONE', *, *, #127, .F. ) ;
#162 = CIRCLE ( 'NONE', #150, 0.1250000000000000000 ) ;
#163 = ORIENTED_EDGE ( 'NONE', *, *, #199, .T. ) ;
#164 = DIRECTION ( 'NONE',  ( 0.0000000000000000000, 0.0000000000000000000, -1.000000000000000000 ) ) ;
#165 = CARTESIAN_POINT ( 'NONE',  ( 0.1099999999999996397, 1.347111479062084158E-17, 2.000000000000000000 ) ) ;
#166 = LINE ( 'NONE', #123, #128 ) ;
#167 =( NAMED_UNIT ( * ) SI_UNIT ( $, .STERADIAN. ) SOLID_ANGLE_UNIT ( ) );
#168 = VECTOR ( 'NONE', #257, 39.37007874015748143 ) ;
#169 =( CONVERSION_BASED_UNIT ( 'INCH', #29 ) LENGTH_UNIT ( ) NAMED_UNIT ( #71 ) );
#170 = EDGE_CURVE ( 'NONE', #88, #80, #200, .T. ) ;
#171 = ORIENTED_EDGE ( 'NONE', *, *, #32, .F. ) ;
#172 = DIRECTION ( 'NONE',  ( 0.7071067811865434649, 8.659560562354883554E-17, -0.7071067811865515695 ) ) ;
#173 = LINE ( 'NONE', #3, #243 ) ;
#174 = DIRECTION ( 'NONE',  ( -0.0000000000000000000, -0.0000000000000000000, -1.000000000000000000 ) ) ;
#175 = PRESENTATION_LAYER_ASSIGNMENT (  '', '', ( #259 ) ) ;
#176 = ADVANCED_FACE ( 'NONE', ( #188 ), #205, .T. ) ;
#177 = DIRECTION ( 'NONE',  ( -0.1736481776669311639, 2.126576849575783008E-17, 0.9848077530122080203 ) ) ;
#178 = VERTEX_POINT ( 'NONE', #185 ) ;
#179 = AXIS2_PLACEMENT_3D ( 'NONE', #95, #31, #73 ) ;
#180 = DIRECTION ( 'NONE',  ( 1.000000000000000000, 0.0000000000000000000, 0.0000000000000000000 ) ) ;
#181 = ADVANCED_BREP_SHAPE_REPRESENTATION ( 'Micro_SFP-156-45', ( #148, #129 ), #235 ) ;
#182 = ORIENTED_EDGE ( 'NONE', *, *, #289, .T. ) ;
#183 = ADVANCED_FACE ( 'NONE', ( #229 ), #208, .T. ) ;
#184 = SURFACE_STYLE_FILL_AREA ( #91 ) ;
#185 = CARTESIAN_POINT ( 'NONE',  ( 0.1250000000000001110, 1.530808498934192742E-17, 0.8914260444501813652 ) ) ;
#186 = FACE_OUTER_BOUND ( 'NONE', #271, .T. ) ;
#187 = FACE_OUTER_BOUND ( 'NONE', #27, .T. ) ;
#188 = FACE_OUTER_BOUND ( 'NONE', #191, .T. ) ;
#189 = LINE ( 'NONE', #165, #159 ) ;
#190 = VECTOR ( 'NONE', #196, 39.37007874015748143 ) ;
#191 = EDGE_LOOP ( 'NONE', ( #4, #234, #101, #290 ) ) ;
#192 = PRODUCT ( 'Micro_SFP-156-45', 'Micro_SFP-156-45', '', ( #35 ) ) ;
#193 = ADVANCED_FACE ( 'NONE', ( #298 ), #281, .T. ) ;
#194 = DIRECTION ( 'NONE',  ( 0.0000000000000000000, 0.0000000000000000000, -1.000000000000000000 ) ) ;
#195 = PLANE ( 'NONE',  #133 ) ;
#196 = DIRECTION ( 'NONE',  ( -1.224646799147353207E-16, -0.0000000000000000000, -1.000000000000000000 ) ) ;
#197 = AXIS2_PLACEMENT_3D ( 'NONE', #49, #140, #273 ) ;
#198 = ORIENTED_EDGE ( 'NONE', *, *, #59, .F. ) ;
#199 = EDGE_CURVE ( 'NONE', #256, #106, #63, .T. ) ;
#200 = CIRCLE ( 'NONE', #287, 0.07802189999999999126 ) ;
#201 = DIRECTION ( 'NONE',  ( -1.000000000000000000, 0.0000000000000000000, 0.0000000000000000000 ) ) ;
#202 = PRESENTATION_STYLE_ASSIGNMENT (( #68 ) ) ;
#203 = ADVANCED_FACE ( 'NONE', ( #187 ), #212, .T. ) ;
#204 = DIRECTION ( 'NONE',  ( -1.000000000000000000, 0.0000000000000000000, 1.224646799147353207E-16 ) ) ;
#205 = CYLINDRICAL_SURFACE ( 'NONE', #197, 0.1250000000000000000 ) ;
#206 = AXIS2_PLACEMENT_3D ( 'NONE', #84, #41, #151 ) ;
#207 = UNCERTAINTY_MEASURE_WITH_UNIT (LENGTH_MEASURE( 1.000000000000000082E-05 ), #64, 'distance_accuracy_value', 'NONE');
#208 = PLANE ( 'NONE',  #242 ) ;
#209 = DIRECTION ( 'NONE',  ( 1.000000000000000000, 0.0000000000000000000, 0.0000000000000000000 ) ) ;
#210 =( LENGTH_UNIT ( ) NAMED_UNIT ( * ) SI_UNIT ( $, .METRE. ) );
#211 = CLOSED_SHELL ( 'NONE', ( #193, #203, #6, #176, #231, #183, #241, #117, #149, #19 ) ) ;
#212 = CONICAL_SURFACE ( 'NONE', #121, 0.07802189999999999126, 0.1745329251994338637 ) ;
#213 =( NAMED_UNIT ( * ) PLANE_ANGLE_UNIT ( ) SI_UNIT ( $, .RADIAN. ) );
#214 = DIRECTION ( 'NONE',  ( -1.224646799147353207E-16, -0.0000000000000000000, -1.000000000000000000 ) ) ;
#215 = DIRECTION ( 'NONE',  ( 1.000000000000000000, 0.0000000000000000000, -0.0000000000000000000 ) ) ;
#216 = CIRCLE ( 'NONE', #12, 0.07802190000000000514 ) ;
#217 = EDGE_CURVE ( 'NONE', #178, #62, #269, .T. ) ;
#218 = CIRCLE ( 'NONE', #139, 0.1250000000000000000 ) ;
#219 = CARTESIAN_POINT ( 'NONE',  ( 1.170141077868652023E-33, 0.0000000000000000000, 9.554927009839488851E-18 ) ) ;
#220 = DIRECTION ( 'NONE',  ( -1.224646799147353207E-16, -0.0000000000000000000, -1.000000000000000000 ) ) ;
#221 = DIRECTION ( 'NONE',  ( 0.0000000000000000000, 0.0000000000000000000, -1.000000000000000000 ) ) ;
#222 = APPLICATION_CONTEXT ( 'automotive_design' ) ;
#223 = ORIENTED_EDGE ( 'NONE', *, *, #126, .T. ) ;
#224 = AXIS2_PLACEMENT_3D ( 'NONE', #136, #138, #46 ) ;
#225 =( NAMED_UNIT ( * ) PLANE_ANGLE_UNIT ( ) SI_UNIT ( $, .RADIAN. ) );
#226 = UNCERTAINTY_MEASURE_WITH_UNIT (LENGTH_MEASURE( 1.000000000000000082E-05 ), #8, 'distance_accuracy_value', 'NONE');
#227 = LINE ( 'NONE', #17, #124 ) ;
#228 = AXIS2_PLACEMENT_3D ( 'NONE', #299, #278, #90 ) ;
#229 = FACE_OUTER_BOUND ( 'NONE', #72, .T. ) ;
#230 = DIRECTION ( 'NONE',  ( -1.224646799147353207E-16, -0.0000000000000000000, -1.000000000000000000 ) ) ;
#231 = ADVANCED_FACE ( 'NONE', ( #284 ), #53, .T. ) ;
#232 = ORIENTED_EDGE ( 'NONE', *, *, #32, .T. ) ;
#233 = DIRECTION ( 'NONE',  ( -1.000000000000000000, 0.0000000000000000000, 0.0000000000000000000 ) ) ;
#234 = ORIENTED_EDGE ( 'NONE', *, *, #113, .T. ) ;
#235 =( GEOMETRIC_REPRESENTATION_CONTEXT ( 3 ) GLOBAL_UNCERTAINTY_ASSIGNED_CONTEXT ( ( #226 ) ) GLOBAL_UNIT_ASSIGNED_CONTEXT ( ( #8, #213, #167 ) ) REPRESENTATION_CONTEXT ( 'NONE', 'WORKASPACE' ) );
#236 = LENGTH_MEASURE_WITH_UNIT ( LENGTH_MEASURE( 0.02539999999999999897 ), #210 );
#237 = CARTESIAN_POINT ( 'NONE',  ( -0.1099999999999996397, 0.0000000000000000000, 2.000000000000000000 ) ) ;
#238 = DIRECTION ( 'NONE',  ( -1.000000000000000000, 0.0000000000000000000, 1.224646799147353207E-16 ) ) ;
#239 = ORIENTED_EDGE ( 'NONE', *, *, #10, .T. ) ;
#240 = CARTESIAN_POINT ( 'NONE',  ( 0.0000000000000000000, 0.0000000000000000000, 2.000000000000000000 ) ) ;
#241 = ADVANCED_FACE ( 'NONE', ( #76 ), #33, .T. ) ;
#242 = AXIS2_PLACEMENT_3D ( 'NONE', #246, #112, #2 ) ;
#243 = VECTOR ( 'NONE', #74, 39.37007874015748143 ) ;
#244 = DIRECTION ( 'NONE',  ( 1.000000000000000000, 0.0000000000000000000, 0.0000000000000000000 ) ) ;
#245 = ORIENTED_EDGE ( 'NONE', *, *, #199, .F. ) ;
#246 = CARTESIAN_POINT ( 'NONE',  ( 0.0000000000000000000, 0.0000000000000000000, 2.000000000000000000 ) ) ;
#247 = CIRCLE ( 'NONE', #206, 0.1250000000000000000 ) ;
#248 = DIRECTION ( 'NONE',  ( 1.224646799147353207E-16, 0.0000000000000000000, 1.000000000000000000 ) ) ;
#249 = LENGTH_MEASURE_WITH_UNIT ( LENGTH_MEASURE( 0.02539999999999999897 ), #25 );
#250 = DIRECTION ( 'NONE',  ( -1.224646799147353207E-16, -0.0000000000000000000, -1.000000000000000000 ) ) ;
#251 = ORIENTED_EDGE ( 'NONE', *, *, #126, .F. ) ;
#252 = VECTOR ( 'NONE', #276, 39.37007874015748143 ) ;
#253 = CARTESIAN_POINT ( 'NONE',  ( 0.0000000000000000000, 0.0000000000000000000, 0.0000000000000000000 ) ) ;
#254 = ORIENTED_EDGE ( 'NONE', *, *, #275, .F. ) ;
#255 = DIRECTION ( 'NONE',  ( 1.000000000000000000, 0.0000000000000000000, 0.0000000000000000000 ) ) ;
#256 = VERTEX_POINT ( 'NONE', #237 ) ;
#257 = DIRECTION ( 'NONE',  ( -0.0000000000000000000, -0.0000000000000000000, -1.000000000000000000 ) ) ;
#258 = FILL_AREA_STYLE_COLOUR ( '', #292 ) ;
#259 = STYLED_ITEM ( 'NONE', ( #202 ), #148 ) ;
#260 = PRESENTATION_LAYER_ASSIGNMENT (  '', '', ( #125 ) ) ;
#261 = UNCERTAINTY_MEASURE_WITH_UNIT (LENGTH_MEASURE( 1.000000000000000082E-05 ), #169, 'distance_accuracy_value', 'NONE');
#262 = ORIENTED_EDGE ( 'NONE', *, *, #127, .T. ) ;
#263 = DIMENSIONAL_EXPONENTS ( 1.000000000000000000, 0.0000000000000000000, 0.0000000000000000000, 0.0000000000000000000, 0.0000000000000000000, 0.0000000000000000000, 0.0000000000000000000 ) ;
#264 = EDGE_CURVE ( 'NONE', #106, #109, #162, .T. ) ;
#265 = CARTESIAN_POINT ( 'NONE',  ( 1.091682052012500869E-16, 0.0000000000000000000, 0.8914260444501813652 ) ) ;
#266 = DIRECTION ( 'NONE',  ( 1.000000000000000000, 0.0000000000000000000, 0.0000000000000000000 ) ) ;
#267 = ORIENTED_EDGE ( 'NONE', *, *, #217, .F. ) ;
#268 = APPLICATION_PROTOCOL_DEFINITION ( 'draft international standard', 'automotive_design', 1998, #222 ) ;
#269 = CIRCLE ( 'NONE', #9, 0.1250000000000000000 ) ;
#270 = PRODUCT_DEFINITION_FORMATION_WITH_SPECIFIED_SOURCE ( 'ANY', '', #192, .NOT_KNOWN. ) ;
#271 = EDGE_LOOP ( 'NONE', ( #254, #15, #272, #142 ) ) ;
#272 = ORIENTED_EDGE ( 'NONE', *, *, #160, .T. ) ;
#273 = DIRECTION ( 'NONE',  ( -1.000000000000000000, 0.0000000000000000000, 0.0000000000000000000 ) ) ;
#274 = CARTESIAN_POINT ( 'NONE',  ( -0.1250000000000000000, 0.0000000000000000000, 2.000000000000000000 ) ) ;
#275 = EDGE_CURVE ( 'NONE', #88, #280, #146, .T. ) ;
#276 = DIRECTION ( 'NONE',  ( -0.7071067811865434649, 0.0000000000000000000, -0.7071067811865515695 ) ) ;
#277 = CIRCLE ( 'NONE', #228, 0.07802190000000000514 ) ;
#278 = DIRECTION ( 'NONE',  ( -1.224646799147353207E-16, -0.0000000000000000000, -1.000000000000000000 ) ) ;
#279 = CARTESIAN_POINT ( 'NONE',  ( 7.654042494670957853E-17, 0.0000000000000000000, 0.6250000000000000000 ) ) ;
#280 = VERTEX_POINT ( 'NONE', #7 ) ;
#281 = CYLINDRICAL_SURFACE ( 'NONE', #83, 0.07802190000000000514 ) ;
#282 = VERTEX_POINT ( 'NONE', #144 ) ;
#283 = AXIS2_PLACEMENT_3D ( 'NONE', #131, #81, #110 ) ;
#284 = FACE_OUTER_BOUND ( 'NONE', #93, .T. ) ;
#285 =( LENGTH_UNIT ( ) NAMED_UNIT ( * ) SI_UNIT ( $, .METRE. ) );
#286 = FILL_AREA_STYLE ('',( #258 ) ) ;
#287 = AXIS2_PLACEMENT_3D ( 'NONE', #20, #116, #65 ) ;
#288 = CARTESIAN_POINT ( 'NONE',  ( 0.0000000000000000000, 0.0000000000000000000, 2.000000000000000000 ) ) ;
#289 = EDGE_CURVE ( 'NONE', #51, #109, #189, .T. ) ;
#290 = ORIENTED_EDGE ( 'NONE', *, *, #10, .F. ) ;
#291 = AXIS2_PLACEMENT_3D ( 'NONE', #288, #194, #233 ) ;
#292 = COLOUR_RGB ( '',0.7921568627450980005, 0.8196078431372548767, 0.9333333333333333481 ) ;
#293 = FACE_OUTER_BOUND ( 'NONE', #296, .T. ) ;
#294 = FACE_OUTER_BOUND ( 'NONE', #119, .T. ) ;
#295 = MECHANICAL_DESIGN_GEOMETRIC_PRESENTATION_REPRESENTATION (  '', ( #125 ), #30 ) ;
#296 = EDGE_LOOP ( 'NONE', ( #79, #77 ) ) ;
#297 = ORIENTED_EDGE ( 'NONE', *, *, #102, .F. ) ;
#298 = FACE_OUTER_BOUND ( 'NONE', #58, .T. ) ;
#299 = CARTESIAN_POINT ( 'NONE',  ( 1.170141077868652023E-33, 0.0000000000000000000, 9.554927009839488851E-18 ) ) ;
ENDSEC;
END-ISO-10303-21;
