ISO-10303-21;
HEADER;
FILE_DESCRIPTION (( 'STEP AP214' ),
    '1' );
FILE_NAME ('82273W.STEP',
    '2023-06-23T05:21:01',
    ( '' ),
    ( '' ),
    'SwSTEP 2.0',
    'SolidWorks 2023',
    '' );
FILE_SCHEMA (( 'AUTOMOTIVE_DESIGN' ));
ENDSEC;

DATA;
#1 = DIRECTION ( 'NONE',  ( -5.156407575357275916E-17, 1.000000000000000000, -0.000000000000000000 ) ) ;
#2 = COLOUR_RGB ( '',0.7921568627450980005, 0.8196078431372548767, 0.9333333333333333481 ) ;
#3 = EDGE_CURVE ( 'NONE', #49, #164, #115, .T. ) ;
#4 = SURFACE_STYLE_FILL_AREA ( #129 ) ;
#5 = DIRECTION ( 'NONE',  ( -5.156407575357275916E-17, 1.000000000000000000, -0.000000000000000000 ) ) ;
#6 = DIRECTION ( 'NONE',  ( -0.000000000000000000, -1.000000000000000000, -0.000000000000000000 ) ) ;
#7 = FILL_AREA_STYLE ('',( #251 ) ) ;
#8 = CIRCLE ( 'NONE', #298, 0.2500000000000000000 ) ;
#9 = DIRECTION ( 'NONE',  ( 0.000000000000000000, -1.000000000000000000, -0.000000000000000000 ) ) ;
#10 = SURFACE_SIDE_STYLE ('',( #4 ) ) ;
#11 = PRESENTATION_LAYER_ASSIGNMENT (  '', '', ( #195 ) ) ;
#12 = MECHANICAL_DESIGN_GEOMETRIC_PRESENTATION_REPRESENTATION (  '', ( #226 ), #92 ) ;
#13 = LENGTH_MEASURE_WITH_UNIT ( LENGTH_MEASURE( 0.02539999999999999897 ), #227 );
#14 = ORIENTED_EDGE ( 'NONE', *, *, #3, .T. ) ;
#15 = FILL_AREA_STYLE ('',( #231 ) ) ;
#16 = ORIENTED_EDGE ( 'NONE', *, *, #204, .F. ) ;
#17 =( NAMED_UNIT ( * ) SI_UNIT ( $, .STERADIAN. ) SOLID_ANGLE_UNIT ( ) );
#18 = ORIENTED_EDGE ( 'NONE', *, *, #122, .F. ) ;
#19 = CARTESIAN_POINT ( 'NONE',  ( -0.2500000000000002220, 4.000000000000000000, 0.000000000000000000 ) ) ;
#20 = CARTESIAN_POINT ( 'NONE',  ( 0.000000000000000000, 1.625000000000000000, 0.000000000000000000 ) ) ;
#21 = ADVANCED_FACE ( 'NONE', ( #65 ), #135, .T. ) ;
#22 = CIRCLE ( 'NONE', #199, 0.2500000000000001110 ) ;
#23 = PRODUCT_DEFINITION_FORMATION_WITH_SPECIFIED_SOURCE ( 'ANY', '', #123, .NOT_KNOWN. ) ;
#24 = EDGE_LOOP ( 'NONE', ( #288, #307 ) ) ;
#25 = CARTESIAN_POINT ( 'NONE',  ( 0.2499999999999999167, 4.000000000000000000, 3.061616997868383634E-17 ) ) ;
#26 = LINE ( 'NONE', #25, #277 ) ;
#27 = LENGTH_MEASURE_WITH_UNIT ( LENGTH_MEASURE( 0.02539999999999999897 ), #33 );
#28 = PRODUCT_DEFINITION ( 'UNKNOWN', '', #23, #302 ) ;
#29 = DIRECTION ( 'NONE',  ( 0.000000000000000000, 1.000000000000000000, 0.000000000000000000 ) ) ;
#30 = CARTESIAN_POINT ( 'NONE',  ( 0.000000000000000000, 1.625000000000000000, 0.000000000000000000 ) ) ;
#31 = DIRECTION ( 'NONE',  ( 0.000000000000000000, -0.000000000000000000, 1.000000000000000000 ) ) ;
#32 = ADVANCED_BREP_SHAPE_REPRESENTATION ( '82273W', ( #118, #116, #151 ), #286 ) ;
#33 =( LENGTH_UNIT ( ) NAMED_UNIT ( * ) SI_UNIT ( $, .METRE. ) );
#34 = CARTESIAN_POINT ( 'NONE',  ( 0.000000000000000000, 0.000000000000000000, 0.000000000000000000 ) ) ;
#35 = CIRCLE ( 'NONE', #64, 0.2500000000000000000 ) ;
#36 = AXIS2_PLACEMENT_3D ( 'NONE', #260, #236, #94 ) ;
#37 = LENGTH_MEASURE_WITH_UNIT ( LENGTH_MEASURE( 0.02539999999999999897 ), #224 );
#38 = DIRECTION ( 'NONE',  ( -5.156407575357275299E-17, 1.000000000000000000, -0.000000000000000000 ) ) ;
#39 = DIMENSIONAL_EXPONENTS ( 1.000000000000000000, 0.000000000000000000, 0.000000000000000000, 0.000000000000000000, 0.000000000000000000, 0.000000000000000000, 0.000000000000000000 ) ;
#40 = CARTESIAN_POINT ( 'NONE',  ( -0.2500000000000000000, 1.625000000000000000, 0.000000000000000000 ) ) ;
#41 = VERTEX_POINT ( 'NONE', #153 ) ;
#42 = PRESENTATION_LAYER_ASSIGNMENT (  '', '', ( #186 ) ) ;
#43 = VERTEX_POINT ( 'NONE', #99 ) ;
#44 = DIRECTION ( 'NONE',  ( -5.156407575357275299E-17, 1.000000000000000000, -0.000000000000000000 ) ) ;
#45 = FILL_AREA_STYLE ('',( #176 ) ) ;
#46 = EDGE_CURVE ( 'NONE', #164, #49, #35, .T. ) ;
#47 = LENGTH_MEASURE_WITH_UNIT ( LENGTH_MEASURE( 0.02539999999999999897 ), #130 );
#48 = FACE_OUTER_BOUND ( 'NONE', #55, .T. ) ;
#49 = VERTEX_POINT ( 'NONE', #175 ) ;
#50 =( CONVERSION_BASED_UNIT ( 'INCH', #51 ) LENGTH_UNIT ( ) NAMED_UNIT ( #155 ) );
#51 = LENGTH_MEASURE_WITH_UNIT ( LENGTH_MEASURE( 0.02539999999999999897 ), #120 );
#52 = AXIS2_PLACEMENT_3D ( 'NONE', #258, #187, #233 ) ;
#53 = EDGE_LOOP ( 'NONE', ( #259, #93, #266, #16 ) ) ;
#54 = DIRECTION ( 'NONE',  ( -1.000000000000000000, 0.000000000000000000, 0.000000000000000000 ) ) ;
#55 = EDGE_LOOP ( 'NONE', ( #91, #283 ) ) ;
#56 = DIRECTION ( 'NONE',  ( 1.000000000000000000, 5.156407575357275916E-17, 0.000000000000000000 ) ) ;
#57 =( NAMED_UNIT ( * ) SI_UNIT ( $, .STERADIAN. ) SOLID_ANGLE_UNIT ( ) );
#58 =( NAMED_UNIT ( * ) SI_UNIT ( $, .STERADIAN. ) SOLID_ANGLE_UNIT ( ) );
#59 =( NAMED_UNIT ( * ) SI_UNIT ( $, .STERADIAN. ) SOLID_ANGLE_UNIT ( ) );
#60 = SURFACE_SIDE_STYLE ('',( #223 ) ) ;
#61 =( NAMED_UNIT ( * ) PLANE_ANGLE_UNIT ( ) SI_UNIT ( $, .RADIAN. ) );
#62 = COLOUR_RGB ( '',1.000000000000000000, 0.000000000000000000, 0.000000000000000000 ) ;
#63 = AXIS2_PLACEMENT_3D ( 'NONE', #163, #141, #239 ) ;
#64 = AXIS2_PLACEMENT_3D ( 'NONE', #20, #147, #127 ) ;
#65 = FACE_OUTER_BOUND ( 'NONE', #158, .T. ) ;
#66 = EDGE_LOOP ( 'NONE', ( #284, #232, #240, #18 ) ) ;
#67 = DIRECTION ( 'NONE',  ( -5.156407575357275299E-17, 1.000000000000000000, -0.000000000000000000 ) ) ;
#68 = SURFACE_SIDE_STYLE ('',( #90 ) ) ;
#69 = ORIENTED_EDGE ( 'NONE', *, *, #270, .T. ) ;
#70 = AXIS2_PLACEMENT_3D ( 'NONE', #250, #281, #253 ) ;
#71 = EDGE_CURVE ( 'NONE', #209, #41, #169, .T. ) ;
#72 = AXIS2_PLACEMENT_3D ( 'NONE', #193, #290, #166 ) ;
#73 = ORIENTED_EDGE ( 'NONE', *, *, #104, .F. ) ;
#74 = ORIENTED_EDGE ( 'NONE', *, *, #71, .F. ) ;
#75 = CARTESIAN_POINT ( 'NONE',  ( 0.000000000000000000, 0.000000000000000000, -0.2500000000000000000 ) ) ;
#76 = UNCERTAINTY_MEASURE_WITH_UNIT (LENGTH_MEASURE( 1.000000000000000082E-05 ), #50, 'distance_accuracy_value', 'NONE');
#77 = CYLINDRICAL_SURFACE ( 'NONE', #242, 0.2500000000000000555 ) ;
#78 = PRESENTATION_LAYER_ASSIGNMENT (  '', '', ( #208 ) ) ;
#79 = CARTESIAN_POINT ( 'NONE',  ( 3.061616997868383018E-17, 0.000000000000000000, 0.2500000000000000000 ) ) ;
#80 = CARTESIAN_POINT ( 'NONE',  ( 0.2500000000000000000, 4.000000000000000000, 0.000000000000000000 ) ) ;
#81 = FACE_OUTER_BOUND ( 'NONE', #136, .T. ) ;
#82 = ADVANCED_FACE ( 'NONE', ( #221 ), #229, .T. ) ;
#83 = AXIS2_PLACEMENT_3D ( 'NONE', #177, #6, #272 ) ;
#84 = SURFACE_STYLE_USAGE ( .BOTH. , #60 ) ;
#85 = DIRECTION ( 'NONE',  ( -0.000000000000000000, -1.000000000000000000, -0.000000000000000000 ) ) ;
#86 = PRESENTATION_STYLE_ASSIGNMENT (( #84 ) ) ;
#87 =( GEOMETRIC_REPRESENTATION_CONTEXT ( 3 ) GLOBAL_UNCERTAINTY_ASSIGNED_CONTEXT ( ( #246 ) ) GLOBAL_UNIT_ASSIGNED_CONTEXT ( ( #105, #174, #59 ) ) REPRESENTATION_CONTEXT ( 'NONE', 'WORKASPACE' ) );
#88 =( CONVERSION_BASED_UNIT ( 'INCH', #37 ) LENGTH_UNIT ( ) NAMED_UNIT ( #282 ) );
#89 = SURFACE_STYLE_FILL_AREA ( #45 ) ;
#90 = SURFACE_STYLE_FILL_AREA ( #15 ) ;
#91 = ORIENTED_EDGE ( 'NONE', *, *, #71, .T. ) ;
#92 =( GEOMETRIC_REPRESENTATION_CONTEXT ( 3 ) GLOBAL_UNCERTAINTY_ASSIGNED_CONTEXT ( ( #156 ) ) GLOBAL_UNIT_ASSIGNED_CONTEXT ( ( #88, #109, #150 ) ) REPRESENTATION_CONTEXT ( 'NONE', 'WORKASPACE' ) );
#93 = ORIENTED_EDGE ( 'NONE', *, *, #46, .T. ) ;
#94 = DIRECTION ( 'NONE',  ( 0.000000000000000000, 0.000000000000000000, -1.000000000000000000 ) ) ;
#95 =( LENGTH_UNIT ( ) NAMED_UNIT ( * ) SI_UNIT ( $, .METRE. ) );
#96 = CYLINDRICAL_SURFACE ( 'NONE', #36, 0.2500000000000000000 ) ;
#97 = ORIENTED_EDGE ( 'NONE', *, *, #46, .F. ) ;
#98 = DIRECTION ( 'NONE',  ( -1.000000000000000000, 0.000000000000000000, 0.000000000000000000 ) ) ;
#99 = CARTESIAN_POINT ( 'NONE',  ( 0.2500000000000000555, 1.625000000000000000, 3.061616997868384251E-17 ) ) ;
#100 = VERTEX_POINT ( 'NONE', #40 ) ;
#101 = CARTESIAN_POINT ( 'NONE',  ( 3.032960542342103792E-32, 1.625000000000000000, 0.000000000000000000 ) ) ;
#102 = PRESENTATION_LAYER_ASSIGNMENT (  '', '', ( #285 ) ) ;
#103 =( NAMED_UNIT ( * ) PLANE_ANGLE_UNIT ( ) SI_UNIT ( $, .RADIAN. ) );
#104 = EDGE_CURVE ( 'NONE', #305, #192, #108, .T. ) ;
#105 =( CONVERSION_BASED_UNIT ( 'INCH', #243 ) LENGTH_UNIT ( ) NAMED_UNIT ( #39 ) );
#106 = STYLED_ITEM ( 'NONE', ( #191 ), #116 ) ;
#107 = DIMENSIONAL_EXPONENTS ( 1.000000000000000000, 0.000000000000000000, 0.000000000000000000, 0.000000000000000000, 0.000000000000000000, 0.000000000000000000, 0.000000000000000000 ) ;
#108 = CIRCLE ( 'NONE', #133, 0.2500000000000001110 ) ;
#109 =( NAMED_UNIT ( * ) PLANE_ANGLE_UNIT ( ) SI_UNIT ( $, .RADIAN. ) );
#110 = DIRECTION ( 'NONE',  ( 0.000000000000000000, 0.000000000000000000, 1.000000000000000000 ) ) ;
#111 = SURFACE_STYLE_USAGE ( .BOTH. , #206 ) ;
#112 = LINE ( 'NONE', #172, #128 ) ;
#113 =( LENGTH_UNIT ( ) NAMED_UNIT ( * ) SI_UNIT ( $, .METRE. ) );
#114 = DIMENSIONAL_EXPONENTS ( 1.000000000000000000, 0.000000000000000000, 0.000000000000000000, 0.000000000000000000, 0.000000000000000000, 0.000000000000000000, 0.000000000000000000 ) ;
#115 = CIRCLE ( 'NONE', #291, 0.2500000000000000000 ) ;
#116 = MANIFOLD_SOLID_BREP ( 'Revolve - Tool Body (Straight Shanked)', #121 ) ;
#117 = ORIENTED_EDGE ( 'NONE', *, *, #300, .T. ) ;
#118 = MANIFOLD_SOLID_BREP ( 'Revolve - Cutting Edge', #207 ) ;
#119 = PLANE ( 'NONE',  #140 ) ;
#120 =( LENGTH_UNIT ( ) NAMED_UNIT ( * ) SI_UNIT ( $, .METRE. ) );
#121 = CLOSED_SHELL ( 'NONE', ( #276, #268, #188, #170 ) ) ;
#122 = EDGE_CURVE ( 'NONE', #192, #305, #22, .T. ) ;
#123 = PRODUCT ( '82273W', '82273W', '', ( #249 ) ) ;
#124 = UNCERTAINTY_MEASURE_WITH_UNIT (LENGTH_MEASURE( 1.000000000000000082E-05 ), #168, 'distance_accuracy_value', 'NONE');
#125 = FACE_OUTER_BOUND ( 'NONE', #66, .T. ) ;
#126 = PRESENTATION_STYLE_ASSIGNMENT (( #295 ) ) ;
#127 = DIRECTION ( 'NONE',  ( 0.000000000000000000, 0.000000000000000000, -1.000000000000000000 ) ) ;
#128 = VECTOR ( 'NONE', #245, 39.37007874015748143 ) ;
#129 = FILL_AREA_STYLE ('',( #171 ) ) ;
#130 =( LENGTH_UNIT ( ) NAMED_UNIT ( * ) SI_UNIT ( $, .METRE. ) );
#131 =( NAMED_UNIT ( * ) SI_UNIT ( $, .STERADIAN. ) SOLID_ANGLE_UNIT ( ) );
#132 = ADVANCED_FACE ( 'NONE', ( #48 ), #152, .T. ) ;
#133 = AXIS2_PLACEMENT_3D ( 'NONE', #304, #67, #299 ) ;
#134 = VECTOR ( 'NONE', #267, 39.37007874015748143 ) ;
#135 = PLANE ( 'NONE',  #225 ) ;
#136 = EDGE_LOOP ( 'NONE', ( #238, #189 ) ) ;
#137 = CYLINDRICAL_SURFACE ( 'NONE', #52, 0.2500000000000000555 ) ;
#138 = EDGE_LOOP ( 'NONE', ( #14, #117, #74, #287 ) ) ;
#139 = FILL_AREA_STYLE_COLOUR ( '', #165 ) ;
#140 = AXIS2_PLACEMENT_3D ( 'NONE', #80, #247, #56 ) ;
#141 = DIRECTION ( 'NONE',  ( -5.156407575357275916E-17, 1.000000000000000000, 0.000000000000000000 ) ) ;
#142 = CARTESIAN_POINT ( 'NONE',  ( 0.000000000000000000, 0.000000000000000000, 0.000000000000000000 ) ) ;
#143 = CARTESIAN_POINT ( 'NONE',  ( 0.000000000000000000, 1.625000000000000000, 0.000000000000000000 ) ) ;
#144 = DIRECTION ( 'NONE',  ( -0.000000000000000000, -1.000000000000000000, -0.000000000000000000 ) ) ;
#145 =( GEOMETRIC_REPRESENTATION_CONTEXT ( 3 ) GLOBAL_UNCERTAINTY_ASSIGNED_CONTEXT ( ( #275 ) ) GLOBAL_UNIT_ASSIGNED_CONTEXT ( ( #154, #61, #58 ) ) REPRESENTATION_CONTEXT ( 'NONE', 'WORKASPACE' ) );
#146 = COLOUR_RGB ( '',0.7921568627450980005, 0.8196078431372548767, 0.9333333333333333481 ) ;
#147 = DIRECTION ( 'NONE',  ( -0.000000000000000000, -1.000000000000000000, -0.000000000000000000 ) ) ;
#148 = COLOUR_RGB ( '',1.000000000000000000, 0.000000000000000000, 0.000000000000000000 ) ;
#149 = EDGE_CURVE ( 'NONE', #49, #209, #112, .T. ) ;
#150 =( NAMED_UNIT ( * ) SI_UNIT ( $, .STERADIAN. ) SOLID_ANGLE_UNIT ( ) );
#151 = AXIS2_PLACEMENT_3D ( 'NONE', #34, #110, #173 ) ;
#152 = PLANE ( 'NONE',  #265 ) ;
#153 = CARTESIAN_POINT ( 'NONE',  ( 3.061616997868383018E-17, 0.000000000000000000, 0.2500000000000000000 ) ) ;
#154 =( CONVERSION_BASED_UNIT ( 'INCH', #27 ) LENGTH_UNIT ( ) NAMED_UNIT ( #114 ) );
#155 = DIMENSIONAL_EXPONENTS ( 1.000000000000000000, 0.000000000000000000, 0.000000000000000000, 0.000000000000000000, 0.000000000000000000, 0.000000000000000000, 0.000000000000000000 ) ;
#156 = UNCERTAINTY_MEASURE_WITH_UNIT (LENGTH_MEASURE( 1.000000000000000082E-05 ), #88, 'distance_accuracy_value', 'NONE');
#157 = DIRECTION ( 'NONE',  ( -5.156407575357275299E-17, 1.000000000000000000, -0.000000000000000000 ) ) ;
#158 = EDGE_LOOP ( 'NONE', ( #278, #97 ) ) ;
#159 = CARTESIAN_POINT ( 'NONE',  ( 0.2500000000000000555, 4.000000000000000000, 3.061616997868384251E-17 ) ) ;
#160 = PRODUCT_RELATED_PRODUCT_CATEGORY ( 'part', '', ( #123 ) ) ;
#161 = FILL_AREA_STYLE ('',( #210 ) ) ;
#162 = ORIENTED_EDGE ( 'NONE', *, *, #222, .F. ) ;
#163 = CARTESIAN_POINT ( 'NONE',  ( 3.323567385400236968E-34, 1.625000000000000000, 0.000000000000000000 ) ) ;
#164 = VERTEX_POINT ( 'NONE', #200 ) ;
#165 = COLOUR_RGB ( '',1.000000000000000000, 0.000000000000000000, 0.000000000000000000 ) ;
#166 = DIRECTION ( 'NONE',  ( -1.000000000000000000, 0.000000000000000000, 0.000000000000000000 ) ) ;
#167 = FACE_OUTER_BOUND ( 'NONE', #138, .T. ) ;
#168 =( CONVERSION_BASED_UNIT ( 'INCH', #13 ) LENGTH_UNIT ( ) NAMED_UNIT ( #303 ) );
#169 = CIRCLE ( 'NONE', #83, 0.2500000000000000000 ) ;
#170 = ADVANCED_FACE ( 'NONE', ( #81 ), #119, .F. ) ;
#171 = FILL_AREA_STYLE_COLOUR ( '', #214 ) ;
#172 = CARTESIAN_POINT ( 'NONE',  ( 0.000000000000000000, 0.000000000000000000, -0.2500000000000000000 ) ) ;
#173 = DIRECTION ( 'NONE',  ( 1.000000000000000000, 0.000000000000000000, 0.000000000000000000 ) ) ;
#174 =( NAMED_UNIT ( * ) PLANE_ANGLE_UNIT ( ) SI_UNIT ( $, .RADIAN. ) );
#175 = CARTESIAN_POINT ( 'NONE',  ( 0.000000000000000000, 1.625000000000000000, -0.2500000000000000000 ) ) ;
#176 = FILL_AREA_STYLE_COLOUR ( '', #146 ) ;
#177 = CARTESIAN_POINT ( 'NONE',  ( 0.000000000000000000, 0.000000000000000000, 0.000000000000000000 ) ) ;
#178 = APPLICATION_CONTEXT ( 'automotive_design' ) ;
#179 = MECHANICAL_DESIGN_GEOMETRIC_PRESENTATION_REPRESENTATION (  '', ( #106 ), #145 ) ;
#180 = CARTESIAN_POINT ( 'NONE',  ( -1.224646799147352714E-16, 4.000000000000000000, 0.000000000000000000 ) ) ;
#181 = APPLICATION_PROTOCOL_DEFINITION ( 'draft international standard', 'automotive_design', 1998, #178 ) ;
#182 =( CONVERSION_BASED_UNIT ( 'INCH', #263 ) LENGTH_UNIT ( ) NAMED_UNIT ( #203 ) );
#183 =( GEOMETRIC_REPRESENTATION_CONTEXT ( 3 ) GLOBAL_UNCERTAINTY_ASSIGNED_CONTEXT ( ( #306 ) ) GLOBAL_UNIT_ASSIGNED_CONTEXT ( ( #182, #255, #17 ) ) REPRESENTATION_CONTEXT ( 'NONE', 'WORKASPACE' ) );
#184 = EDGE_CURVE ( 'NONE', #43, #100, #292, .T. ) ;
#185 = ORIENTED_EDGE ( 'NONE', *, *, #297, .T. ) ;
#186 = STYLED_ITEM ( 'NONE', ( #205 ), #118 ) ;
#187 = DIRECTION ( 'NONE',  ( -5.156407575357275299E-17, 1.000000000000000000, -0.000000000000000000 ) ) ;
#188 = ADVANCED_FACE ( 'NONE', ( #125 ), #137, .T. ) ;
#189 = ORIENTED_EDGE ( 'NONE', *, *, #122, .T. ) ;
#190 = LINE ( 'NONE', #19, #215 ) ;
#191 = PRESENTATION_STYLE_ASSIGNMENT (( #237 ) ) ;
#192 = VERTEX_POINT ( 'NONE', #159 ) ;
#193 = CARTESIAN_POINT ( 'NONE',  ( 3.032960542342103792E-32, 1.625000000000000000, 0.000000000000000000 ) ) ;
#194 = DIRECTION ( 'NONE',  ( 0.000000000000000000, 0.000000000000000000, -1.000000000000000000 ) ) ;
#195 = STYLED_ITEM ( 'NONE', ( #202 ), #21 ) ;
#196 = CARTESIAN_POINT ( 'NONE',  ( -0.2500000000000002776, 4.000000000000000000, 0.000000000000000000 ) ) ;
#197 = APPLICATION_CONTEXT ( 'automotive_design' ) ;
#198 = FACE_OUTER_BOUND ( 'NONE', #252, .T. ) ;
#199 = AXIS2_PLACEMENT_3D ( 'NONE', #180, #38, #257 ) ;
#200 = CARTESIAN_POINT ( 'NONE',  ( 3.061616997868383018E-17, 1.625000000000000000, 0.2500000000000000000 ) ) ;
#201 =( GEOMETRIC_REPRESENTATION_CONTEXT ( 3 ) GLOBAL_UNCERTAINTY_ASSIGNED_CONTEXT ( ( #76 ) ) GLOBAL_UNIT_ASSIGNED_CONTEXT ( ( #50, #103, #219 ) ) REPRESENTATION_CONTEXT ( 'NONE', 'WORKASPACE' ) );
#202 = PRESENTATION_STYLE_ASSIGNMENT (( #296 ) ) ;
#203 = DIMENSIONAL_EXPONENTS ( 1.000000000000000000, 0.000000000000000000, 0.000000000000000000, 0.000000000000000000, 0.000000000000000000, 0.000000000000000000, 0.000000000000000000 ) ;
#204 = EDGE_CURVE ( 'NONE', #41, #209, #8, .T. ) ;
#205 = PRESENTATION_STYLE_ASSIGNMENT (( #111 ) ) ;
#206 = SURFACE_SIDE_STYLE ('',( #89 ) ) ;
#207 = CLOSED_SHELL ( 'NONE', ( #212, #21, #82, #132 ) ) ;
#208 = STYLED_ITEM ( 'NONE', ( #126 ), #212 ) ;
#209 = VERTEX_POINT ( 'NONE', #75 ) ;
#210 = FILL_AREA_STYLE_COLOUR ( '', #2 ) ;
#211 = PRESENTATION_STYLE_ASSIGNMENT (( #280 ) ) ;
#212 = ADVANCED_FACE ( 'NONE', ( #167 ), #96, .T. ) ;
#213 = SURFACE_STYLE_FILL_AREA ( #216 ) ;
#214 = COLOUR_RGB ( '',1.000000000000000000, 0.000000000000000000, 0.000000000000000000 ) ;
#215 = VECTOR ( 'NONE', #5, 39.37007874015748143 ) ;
#216 = FILL_AREA_STYLE ('',( #139 ) ) ;
#217 = LINE ( 'NONE', #79, #134 ) ;
#218 = MECHANICAL_DESIGN_GEOMETRIC_PRESENTATION_REPRESENTATION (  '', ( #186 ), #87 ) ;
#219 =( NAMED_UNIT ( * ) SI_UNIT ( $, .STERADIAN. ) SOLID_ANGLE_UNIT ( ) );
#220 = SHAPE_DEFINITION_REPRESENTATION ( #261, #32 ) ;
#221 = FACE_OUTER_BOUND ( 'NONE', #53, .T. ) ;
#222 = EDGE_CURVE ( 'NONE', #100, #305, #190, .T. ) ;
#223 = SURFACE_STYLE_FILL_AREA ( #7 ) ;
#224 =( LENGTH_UNIT ( ) NAMED_UNIT ( * ) SI_UNIT ( $, .METRE. ) );
#225 = AXIS2_PLACEMENT_3D ( 'NONE', #143, #29, #31 ) ;
#226 = STYLED_ITEM ( 'NONE', ( #86 ), #132 ) ;
#227 =( LENGTH_UNIT ( ) NAMED_UNIT ( * ) SI_UNIT ( $, .METRE. ) );
#228 =( NAMED_UNIT ( * ) PLANE_ANGLE_UNIT ( ) SI_UNIT ( $, .RADIAN. ) );
#229 = CYLINDRICAL_SURFACE ( 'NONE', #70, 0.2500000000000000000 ) ;
#230 =( GEOMETRIC_REPRESENTATION_CONTEXT ( 3 ) GLOBAL_UNCERTAINTY_ASSIGNED_CONTEXT ( ( #273 ) ) GLOBAL_UNIT_ASSIGNED_CONTEXT ( ( #234, #228, #131 ) ) REPRESENTATION_CONTEXT ( 'NONE', 'WORKASPACE' ) );
#231 = FILL_AREA_STYLE_COLOUR ( '', #148 ) ;
#232 = ORIENTED_EDGE ( 'NONE', *, *, #184, .T. ) ;
#233 = DIRECTION ( 'NONE',  ( -1.000000000000000000, 0.000000000000000000, 0.000000000000000000 ) ) ;
#234 =( CONVERSION_BASED_UNIT ( 'INCH', #47 ) LENGTH_UNIT ( ) NAMED_UNIT ( #107 ) );
#235 = SURFACE_STYLE_FILL_AREA ( #161 ) ;
#236 = DIRECTION ( 'NONE',  ( -0.000000000000000000, -1.000000000000000000, -0.000000000000000000 ) ) ;
#237 = SURFACE_STYLE_USAGE ( .BOTH. , #262 ) ;
#238 = ORIENTED_EDGE ( 'NONE', *, *, #104, .T. ) ;
#239 = DIRECTION ( 'NONE',  ( -1.000000000000000000, -5.156407575357275916E-17, 0.000000000000000000 ) ) ;
#240 = ORIENTED_EDGE ( 'NONE', *, *, #222, .T. ) ;
#241 = DIRECTION ( 'NONE',  ( 0.000000000000000000, 0.000000000000000000, -1.000000000000000000 ) ) ;
#242 = AXIS2_PLACEMENT_3D ( 'NONE', #294, #157, #98 ) ;
#243 = LENGTH_MEASURE_WITH_UNIT ( LENGTH_MEASURE( 0.02539999999999999897 ), #113 );
#244 = MECHANICAL_DESIGN_GEOMETRIC_PRESENTATION_REPRESENTATION (  '', ( #208 ), #201 ) ;
#245 = DIRECTION ( 'NONE',  ( -0.000000000000000000, -1.000000000000000000, -0.000000000000000000 ) ) ;
#246 = UNCERTAINTY_MEASURE_WITH_UNIT (LENGTH_MEASURE( 1.000000000000000082E-05 ), #105, 'distance_accuracy_value', 'NONE');
#247 = DIRECTION ( 'NONE',  ( 5.156407575357275916E-17, -1.000000000000000000, 0.000000000000000000 ) ) ;
#248 = MECHANICAL_DESIGN_GEOMETRIC_PRESENTATION_REPRESENTATION (  '', ( #195 ), #230 ) ;
#249 = PRODUCT_CONTEXT ( 'NONE', #178, 'mechanical' ) ;
#250 = CARTESIAN_POINT ( 'NONE',  ( 0.000000000000000000, 0.000000000000000000, 0.000000000000000000 ) ) ;
#251 = FILL_AREA_STYLE_COLOUR ( '', #62 ) ;
#252 = EDGE_LOOP ( 'NONE', ( #185, #69, #73, #162 ) ) ;
#253 = DIRECTION ( 'NONE',  ( 0.000000000000000000, 0.000000000000000000, -1.000000000000000000 ) ) ;
#254 = CARTESIAN_POINT ( 'NONE',  ( 0.000000000000000000, 0.000000000000000000, 0.000000000000000000 ) ) ;
#255 =( NAMED_UNIT ( * ) PLANE_ANGLE_UNIT ( ) SI_UNIT ( $, .RADIAN. ) );
#256 = PRESENTATION_LAYER_ASSIGNMENT (  '', '', ( #226 ) ) ;
#257 = DIRECTION ( 'NONE',  ( -1.000000000000000000, 0.000000000000000000, 0.000000000000000000 ) ) ;
#258 = CARTESIAN_POINT ( 'NONE',  ( -1.224646799147352714E-16, 4.000000000000000000, 0.000000000000000000 ) ) ;
#259 = ORIENTED_EDGE ( 'NONE', *, *, #300, .F. ) ;
#260 = CARTESIAN_POINT ( 'NONE',  ( 0.000000000000000000, 0.000000000000000000, 0.000000000000000000 ) ) ;
#261 = PRODUCT_DEFINITION_SHAPE ( 'NONE', 'NONE',  #28 ) ;
#262 = SURFACE_SIDE_STYLE ('',( #235 ) ) ;
#263 = LENGTH_MEASURE_WITH_UNIT ( LENGTH_MEASURE( 0.02539999999999999897 ), #95 );
#264 = SURFACE_SIDE_STYLE ('',( #213 ) ) ;
#265 = AXIS2_PLACEMENT_3D ( 'NONE', #254, #9, #194 ) ;
#266 = ORIENTED_EDGE ( 'NONE', *, *, #149, .T. ) ;
#267 = DIRECTION ( 'NONE',  ( -0.000000000000000000, -1.000000000000000000, -0.000000000000000000 ) ) ;
#268 = ADVANCED_FACE ( 'NONE', ( #308 ), #289, .F. ) ;
#269 = AXIS2_PLACEMENT_3D ( 'NONE', #101, #44, #54 ) ;
#270 = EDGE_CURVE ( 'NONE', #43, #192, #26, .T. ) ;
#271 = APPLICATION_PROTOCOL_DEFINITION ( 'draft international standard', 'automotive_design', 1998, #197 ) ;
#272 = DIRECTION ( 'NONE',  ( 0.000000000000000000, 0.000000000000000000, -1.000000000000000000 ) ) ;
#273 = UNCERTAINTY_MEASURE_WITH_UNIT (LENGTH_MEASURE( 1.000000000000000082E-05 ), #234, 'distance_accuracy_value', 'NONE');
#274 = MECHANICAL_DESIGN_GEOMETRIC_PRESENTATION_REPRESENTATION (  '', ( #285 ), #183 ) ;
#275 = UNCERTAINTY_MEASURE_WITH_UNIT (LENGTH_MEASURE( 1.000000000000000082E-05 ), #154, 'distance_accuracy_value', 'NONE');
#276 = ADVANCED_FACE ( 'NONE', ( #198 ), #77, .T. ) ;
#277 = VECTOR ( 'NONE', #1, 39.37007874015748143 ) ;
#278 = ORIENTED_EDGE ( 'NONE', *, *, #3, .F. ) ;
#279 = DIRECTION ( 'NONE',  ( 0.000000000000000000, 0.000000000000000000, -1.000000000000000000 ) ) ;
#280 = SURFACE_STYLE_USAGE ( .BOTH. , #10 ) ;
#281 = DIRECTION ( 'NONE',  ( -0.000000000000000000, -1.000000000000000000, -0.000000000000000000 ) ) ;
#282 = DIMENSIONAL_EXPONENTS ( 1.000000000000000000, 0.000000000000000000, 0.000000000000000000, 0.000000000000000000, 0.000000000000000000, 0.000000000000000000, 0.000000000000000000 ) ;
#283 = ORIENTED_EDGE ( 'NONE', *, *, #204, .T. ) ;
#284 = ORIENTED_EDGE ( 'NONE', *, *, #270, .F. ) ;
#285 = STYLED_ITEM ( 'NONE', ( #211 ), #82 ) ;
#286 =( GEOMETRIC_REPRESENTATION_CONTEXT ( 3 ) GLOBAL_UNCERTAINTY_ASSIGNED_CONTEXT ( ( #124 ) ) GLOBAL_UNIT_ASSIGNED_CONTEXT ( ( #168, #301, #57 ) ) REPRESENTATION_CONTEXT ( 'NONE', 'WORKASPACE' ) );
#287 = ORIENTED_EDGE ( 'NONE', *, *, #149, .F. ) ;
#288 = ORIENTED_EDGE ( 'NONE', *, *, #297, .F. ) ;
#289 = PLANE ( 'NONE',  #63 ) ;
#290 = DIRECTION ( 'NONE',  ( -5.156407575357275299E-17, 1.000000000000000000, -0.000000000000000000 ) ) ;
#291 = AXIS2_PLACEMENT_3D ( 'NONE', #30, #85, #279 ) ;
#292 = CIRCLE ( 'NONE', #269, 0.2500000000000000000 ) ;
#293 = CIRCLE ( 'NONE', #72, 0.2500000000000000000 ) ;
#294 = CARTESIAN_POINT ( 'NONE',  ( -1.224646799147352714E-16, 4.000000000000000000, 0.000000000000000000 ) ) ;
#295 = SURFACE_STYLE_USAGE ( .BOTH. , #264 ) ;
#296 = SURFACE_STYLE_USAGE ( .BOTH. , #68 ) ;
#297 = EDGE_CURVE ( 'NONE', #100, #43, #293, .T. ) ;
#298 = AXIS2_PLACEMENT_3D ( 'NONE', #142, #144, #241 ) ;
#299 = DIRECTION ( 'NONE',  ( -1.000000000000000000, 0.000000000000000000, 0.000000000000000000 ) ) ;
#300 = EDGE_CURVE ( 'NONE', #164, #41, #217, .T. ) ;
#301 =( NAMED_UNIT ( * ) PLANE_ANGLE_UNIT ( ) SI_UNIT ( $, .RADIAN. ) );
#302 = PRODUCT_DEFINITION_CONTEXT ( 'detailed design', #197, 'design' ) ;
#303 = DIMENSIONAL_EXPONENTS ( 1.000000000000000000, 0.000000000000000000, 0.000000000000000000, 0.000000000000000000, 0.000000000000000000, 0.000000000000000000, 0.000000000000000000 ) ;
#304 = CARTESIAN_POINT ( 'NONE',  ( -1.224646799147352714E-16, 4.000000000000000000, 0.000000000000000000 ) ) ;
#305 = VERTEX_POINT ( 'NONE', #196 ) ;
#306 = UNCERTAINTY_MEASURE_WITH_UNIT (LENGTH_MEASURE( 1.000000000000000082E-05 ), #182, 'distance_accuracy_value', 'NONE');
#307 = ORIENTED_EDGE ( 'NONE', *, *, #184, .F. ) ;
#308 = FACE_OUTER_BOUND ( 'NONE', #24, .T. ) ;
#309 = PRESENTATION_LAYER_ASSIGNMENT (  '', '', ( #106 ) ) ;
ENDSEC;
END-ISO-10303-21;
