ISO-10303-21;
HEADER;
FILE_DESCRIPTION (( 'STEP AP214' ),
    '1' );
FILE_NAME ('26247.STEP',
    '2023-06-22T17:33:16',
    ( '' ),
    ( '' ),
    'SwSTEP 2.0',
    'SolidWorks 2023',
    '' );
FILE_SCHEMA (( 'AUTOMOTIVE_DESIGN' ));
ENDSEC;

DATA;
#1 = CLOSED_SHELL ( 'NONE', ( #98, #286, #239, #221 ) ) ;
#2 = AXIS2_PLACEMENT_3D ( 'NONE', #306, #140, #182 ) ;
#3 = PRODUCT_DEFINITION_SHAPE ( 'NONE', 'NONE',  #95 ) ;
#4 = CARTESIAN_POINT ( 'NONE',  ( 2.296212748401286801E-17, 0.000000000000000000, 0.1874999999999999722 ) ) ;
#5 =( GEOMETRIC_REPRESENTATION_CONTEXT ( 3 ) GLOBAL_UNCERTAINTY_ASSIGNED_CONTEXT ( ( #193 ) ) GLOBAL_UNIT_ASSIGNED_CONTEXT ( ( #86, #192, #175 ) ) REPRESENTATION_CONTEXT ( 'NONE', 'WORKASPACE' ) );
#6 = DIRECTION ( 'NONE',  ( -1.000000000000000000, 0.000000000000000000, 0.000000000000000000 ) ) ;
#7 = PLANE ( 'NONE',  #2 ) ;
#8 = FILL_AREA_STYLE ('',( #204 ) ) ;
#9 = EDGE_CURVE ( 'NONE', #280, #42, #97, .T. ) ;
#10 =( GEOMETRIC_REPRESENTATION_CONTEXT ( 3 ) GLOBAL_UNCERTAINTY_ASSIGNED_CONTEXT ( ( #209 ) ) GLOBAL_UNIT_ASSIGNED_CONTEXT ( ( #27, #23, #147 ) ) REPRESENTATION_CONTEXT ( 'NONE', 'WORKASPACE' ) );
#11 = DIRECTION ( 'NONE',  ( -0.000000000000000000, -1.000000000000000000, -0.000000000000000000 ) ) ;
#12 =( GEOMETRIC_REPRESENTATION_CONTEXT ( 3 ) GLOBAL_UNCERTAINTY_ASSIGNED_CONTEXT ( ( #285 ) ) GLOBAL_UNIT_ASSIGNED_CONTEXT ( ( #78, #127, #55 ) ) REPRESENTATION_CONTEXT ( 'NONE', 'WORKASPACE' ) );
#13 = LENGTH_MEASURE_WITH_UNIT ( LENGTH_MEASURE( 0.02539999999999999897 ), #229 );
#14 = EDGE_CURVE ( 'NONE', #87, #253, #53, .T. ) ;
#15 = ORIENTED_EDGE ( 'NONE', *, *, #36, .T. ) ;
#16 = VERTEX_POINT ( 'NONE', #295 ) ;
#17 = EDGE_LOOP ( 'NONE', ( #38, #274 ) ) ;
#18 = CIRCLE ( 'NONE', #151, 0.1875000000000000278 ) ;
#19 = ORIENTED_EDGE ( 'NONE', *, *, #79, .T. ) ;
#20 = EDGE_CURVE ( 'NONE', #42, #16, #155, .T. ) ;
#21 = EDGE_CURVE ( 'NONE', #160, #277, #141, .T. ) ;
#22 = CARTESIAN_POINT ( 'NONE',  ( 0.000000000000000000, 0.000000000000000000, -0.1874999999999999722 ) ) ;
#23 =( NAMED_UNIT ( * ) PLANE_ANGLE_UNIT ( ) SI_UNIT ( $, .RADIAN. ) );
#24 = LINE ( 'NONE', #22, #201 ) ;
#25 = CIRCLE ( 'NONE', #187, 0.1875000000000001110 ) ;
#26 = PRODUCT_DEFINITION_FORMATION_WITH_SPECIFIED_SOURCE ( 'ANY', '', #50, .NOT_KNOWN. ) ;
#27 =( CONVERSION_BASED_UNIT ( 'INCH', #54 ) LENGTH_UNIT ( ) NAMED_UNIT ( #195 ) );
#28 = CYLINDRICAL_SURFACE ( 'NONE', #166, 0.1874999999999999722 ) ;
#29 = FACE_OUTER_BOUND ( 'NONE', #94, .T. ) ;
#30 = FACE_OUTER_BOUND ( 'NONE', #63, .T. ) ;
#31 = FACE_OUTER_BOUND ( 'NONE', #67, .T. ) ;
#32 = SURFACE_STYLE_USAGE ( .BOTH. , #249 ) ;
#33 = PRESENTATION_STYLE_ASSIGNMENT (( #133 ) ) ;
#34 = CARTESIAN_POINT ( 'NONE',  ( 0.1874999999999999722, 1.500000000000000222, 2.296212748401288342E-17 ) ) ;
#35 = DIRECTION ( 'NONE',  ( -6.123233995736767268E-17, 1.000000000000000000, -0.000000000000000000 ) ) ;
#36 = EDGE_CURVE ( 'NONE', #253, #87, #156, .T. ) ;
#37 =( LENGTH_UNIT ( ) NAMED_UNIT ( * ) SI_UNIT ( $, .METRE. ) );
#38 = ORIENTED_EDGE ( 'NONE', *, *, #288, .T. ) ;
#39 = PRESENTATION_LAYER_ASSIGNMENT (  '', '', ( #254 ) ) ;
#40 = LENGTH_MEASURE_WITH_UNIT ( LENGTH_MEASURE( 0.02539999999999999897 ), #37 );
#41 = DIMENSIONAL_EXPONENTS ( 1.000000000000000000, 0.000000000000000000, 0.000000000000000000, 0.000000000000000000, 0.000000000000000000, 0.000000000000000000, 0.000000000000000000 ) ;
#42 = VERTEX_POINT ( 'NONE', #164 ) ;
#43 = APPLICATION_CONTEXT ( 'automotive_design' ) ;
#44 = APPLICATION_PROTOCOL_DEFINITION ( 'draft international standard', 'automotive_design', 1998, #43 ) ;
#45 = ADVANCED_FACE ( 'NONE', ( #144 ), #47, .T. ) ;
#46 = STYLED_ITEM ( 'NONE', ( #205 ), #98 ) ;
#47 = CYLINDRICAL_SURFACE ( 'NONE', #282, 0.1875000000000000555 ) ;
#48 = AXIS2_PLACEMENT_3D ( 'NONE', #137, #208, #298 ) ;
#49 = DIRECTION ( 'NONE',  ( 0.000000000000000000, 0.000000000000000000, -1.000000000000000000 ) ) ;
#50 = PRODUCT ( '26247', '26247', '', ( #302 ) ) ;
#51 = FILL_AREA_STYLE ('',( #128 ) ) ;
#52 = CARTESIAN_POINT ( 'NONE',  ( 2.296212748401286801E-17, 1.500000000000000222, 0.1874999999999999722 ) ) ;
#53 = CIRCLE ( 'NONE', #215, 0.1874999999999999722 ) ;
#54 = LENGTH_MEASURE_WITH_UNIT ( LENGTH_MEASURE( 0.02539999999999999897 ), #198 );
#55 =( NAMED_UNIT ( * ) SI_UNIT ( $, .STERADIAN. ) SOLID_ANGLE_UNIT ( ) );
#56 = CYLINDRICAL_SURFACE ( 'NONE', #72, 0.1874999999999999722 ) ;
#57 = DIRECTION ( 'NONE',  ( -6.123233995736767268E-17, 1.000000000000000000, -0.000000000000000000 ) ) ;
#58 = CIRCLE ( 'NONE', #240, 0.1874999999999999722 ) ;
#59 = AXIS2_PLACEMENT_3D ( 'NONE', #220, #308, #99 ) ;
#60 = LENGTH_MEASURE_WITH_UNIT ( LENGTH_MEASURE( 0.02539999999999999897 ), #88 );
#61 = EDGE_CURVE ( 'NONE', #253, #160, #24, .T. ) ;
#62 =( LENGTH_UNIT ( ) NAMED_UNIT ( * ) SI_UNIT ( $, .METRE. ) );
#63 = EDGE_LOOP ( 'NONE', ( #136, #297 ) ) ;
#64 = ORIENTED_EDGE ( 'NONE', *, *, #265, .F. ) ;
#65 = VECTOR ( 'NONE', #291, 39.37007874015748143 ) ;
#66 = ORIENTED_EDGE ( 'NONE', *, *, #14, .T. ) ;
#67 = EDGE_LOOP ( 'NONE', ( #64, #180, #119, #256 ) ) ;
#68 = COLOUR_RGB ( '',1.000000000000000000, 0.000000000000000000, 0.000000000000000000 ) ;
#69 = SHAPE_DEFINITION_REPRESENTATION ( #3, #242 ) ;
#70 = FACE_OUTER_BOUND ( 'NONE', #17, .T. ) ;
#71 = CLOSED_SHELL ( 'NONE', ( #45, #268, #161, #238 ) ) ;
#72 = AXIS2_PLACEMENT_3D ( 'NONE', #81, #233, #194 ) ;
#73 = SURFACE_SIDE_STYLE ('',( #264 ) ) ;
#74 = DIRECTION ( 'NONE',  ( -0.000000000000000000, -1.000000000000000000, -0.000000000000000000 ) ) ;
#75 = SURFACE_SIDE_STYLE ('',( #96 ) ) ;
#76 = DIRECTION ( 'NONE',  ( 0.000000000000000000, 0.000000000000000000, -1.000000000000000000 ) ) ;
#77 = PRESENTATION_LAYER_ASSIGNMENT (  '', '', ( #168 ) ) ;
#78 =( CONVERSION_BASED_UNIT ( 'INCH', #216 ) LENGTH_UNIT ( ) NAMED_UNIT ( #109 ) );
#79 = EDGE_CURVE ( 'NONE', #87, #277, #124, .T. ) ;
#80 = DIRECTION ( 'NONE',  ( -1.000000000000000000, 0.000000000000000000, 0.000000000000000000 ) ) ;
#81 = CARTESIAN_POINT ( 'NONE',  ( 0.000000000000000000, 0.000000000000000000, 0.000000000000000000 ) ) ;
#82 =( NAMED_UNIT ( * ) SI_UNIT ( $, .STERADIAN. ) SOLID_ANGLE_UNIT ( ) );
#83 = DIRECTION ( 'NONE',  ( -6.123233995736767268E-17, 1.000000000000000000, -0.000000000000000000 ) ) ;
#84 = PRESENTATION_LAYER_ASSIGNMENT (  '', '', ( #237 ) ) ;
#85 =( NAMED_UNIT ( * ) SI_UNIT ( $, .STERADIAN. ) SOLID_ANGLE_UNIT ( ) );
#86 =( CONVERSION_BASED_UNIT ( 'INCH', #13 ) LENGTH_UNIT ( ) NAMED_UNIT ( #163 ) );
#87 = VERTEX_POINT ( 'NONE', #52 ) ;
#88 =( LENGTH_UNIT ( ) NAMED_UNIT ( * ) SI_UNIT ( $, .METRE. ) );
#89 = PLANE ( 'NONE',  #241 ) ;
#90 = MANIFOLD_SOLID_BREP ( 'Revolve - Cutting Edge', #1 ) ;
#91 = MECHANICAL_DESIGN_GEOMETRIC_PRESENTATION_REPRESENTATION (  '', ( #158 ), #191 ) ;
#92 = UNCERTAINTY_MEASURE_WITH_UNIT (LENGTH_MEASURE( 1.000000000000000082E-05 ), #294, 'distance_accuracy_value', 'NONE');
#93 = ORIENTED_EDGE ( 'NONE', *, *, #178, .T. ) ;
#94 = EDGE_LOOP ( 'NONE', ( #15, #19, #213, #177 ) ) ;
#95 = PRODUCT_DEFINITION ( 'UNKNOWN', '', #26, #143 ) ;
#96 = SURFACE_STYLE_FILL_AREA ( #121 ) ;
#97 = CIRCLE ( 'NONE', #278, 0.1874999999999999722 ) ;
#98 = ADVANCED_FACE ( 'NONE', ( #29 ), #28, .T. ) ;
#99 = DIRECTION ( 'NONE',  ( 0.000000000000000000, 0.000000000000000000, -1.000000000000000000 ) ) ;
#100 = DIRECTION ( 'NONE',  ( -6.123233995736767268E-17, 1.000000000000000000, -0.000000000000000000 ) ) ;
#101 = CARTESIAN_POINT ( 'NONE',  ( 0.000000000000000000, 0.000000000000000000, 0.000000000000000000 ) ) ;
#102 = SURFACE_STYLE_FILL_AREA ( #219 ) ;
#103 = EDGE_CURVE ( 'NONE', #277, #160, #18, .T. ) ;
#104 = CARTESIAN_POINT ( 'NONE',  ( 0.000000000000000000, 0.000000000000000000, 0.000000000000000000 ) ) ;
#105 = VECTOR ( 'NONE', #74, 39.37007874015748143 ) ;
#106 = CYLINDRICAL_SURFACE ( 'NONE', #217, 0.1875000000000000555 ) ;
#107 = SURFACE_SIDE_STYLE ('',( #200 ) ) ;
#108 = CARTESIAN_POINT ( 'NONE',  ( 2.296212748401287109E-17, 0.000000000000000000, 0.1875000000000000278 ) ) ;
#109 = DIMENSIONAL_EXPONENTS ( 1.000000000000000000, 0.000000000000000000, 0.000000000000000000, 0.000000000000000000, 0.000000000000000000, 0.000000000000000000, 0.000000000000000000 ) ;
#110 = COLOUR_RGB ( '',0.7921568627450980005, 0.8196078431372548767, 0.9333333333333333481 ) ;
#111 = CARTESIAN_POINT ( 'NONE',  ( 0.1874999999999999167, 3.500000000000000000, 2.296212748401288034E-17 ) ) ;
#112 = DIRECTION ( 'NONE',  ( 0.000000000000000000, 0.000000000000000000, -1.000000000000000000 ) ) ;
#113 = DIRECTION ( 'NONE',  ( -0.000000000000000000, -1.000000000000000000, -0.000000000000000000 ) ) ;
#114 = FACE_OUTER_BOUND ( 'NONE', #251, .T. ) ;
#115 = ORIENTED_EDGE ( 'NONE', *, *, #79, .F. ) ;
#116 = EDGE_LOOP ( 'NONE', ( #115, #66, #235, #207 ) ) ;
#117 = APPLICATION_PROTOCOL_DEFINITION ( 'draft international standard', 'automotive_design', 1998, #260 ) ;
#118 = VECTOR ( 'NONE', #100, 39.37007874015748143 ) ;
#119 = ORIENTED_EDGE ( 'NONE', *, *, #20, .T. ) ;
#120 = ORIENTED_EDGE ( 'NONE', *, *, #265, .T. ) ;
#121 = FILL_AREA_STYLE ('',( #173 ) ) ;
#122 = PRESENTATION_LAYER_ASSIGNMENT (  '', '', ( #245 ) ) ;
#123 = DIRECTION ( 'NONE',  ( -6.123233995736767268E-17, 1.000000000000000000, -0.000000000000000000 ) ) ;
#124 = LINE ( 'NONE', #4, #105 ) ;
#125 = UNCERTAINTY_MEASURE_WITH_UNIT (LENGTH_MEASURE( 1.000000000000000082E-05 ), #184, 'distance_accuracy_value', 'NONE');
#126 = FILL_AREA_STYLE_COLOUR ( '', #142 ) ;
#127 =( NAMED_UNIT ( * ) PLANE_ANGLE_UNIT ( ) SI_UNIT ( $, .RADIAN. ) );
#128 = FILL_AREA_STYLE_COLOUR ( '', #185 ) ;
#129 = CARTESIAN_POINT ( 'NONE',  ( -1.224646799147353207E-16, 3.500000000000000000, 0.000000000000000000 ) ) ;
#130 = PRESENTATION_LAYER_ASSIGNMENT (  '', '', ( #46 ) ) ;
#131 = DIRECTION ( 'NONE',  ( -6.123233995736767268E-17, 1.000000000000000000, 0.000000000000000000 ) ) ;
#132 = DIRECTION ( 'NONE',  ( -1.000000000000000000, 0.000000000000000000, 0.000000000000000000 ) ) ;
#133 = SURFACE_STYLE_USAGE ( .BOTH. , #190 ) ;
#134 = AXIS2_PLACEMENT_3D ( 'NONE', #101, #188, #76 ) ;
#135 =( GEOMETRIC_REPRESENTATION_CONTEXT ( 3 ) GLOBAL_UNCERTAINTY_ASSIGNED_CONTEXT ( ( #125 ) ) GLOBAL_UNIT_ASSIGNED_CONTEXT ( ( #184, #236, #259 ) ) REPRESENTATION_CONTEXT ( 'NONE', 'WORKASPACE' ) );
#136 = ORIENTED_EDGE ( 'NONE', *, *, #21, .T. ) ;
#137 = CARTESIAN_POINT ( 'NONE',  ( 0.000000000000000000, 0.000000000000000000, 0.000000000000000000 ) ) ;
#138 = PRODUCT_RELATED_PRODUCT_CATEGORY ( 'part', '', ( #50 ) ) ;
#139 = EDGE_LOOP ( 'NONE', ( #212, #183 ) ) ;
#140 = DIRECTION ( 'NONE',  ( 0.000000000000000000, 1.000000000000000000, 0.000000000000000000 ) ) ;
#141 = CIRCLE ( 'NONE', #134, 0.1875000000000000278 ) ;
#142 = COLOUR_RGB ( '',0.7921568627450980005, 0.8196078431372548767, 0.9333333333333333481 ) ;
#143 = PRODUCT_DEFINITION_CONTEXT ( 'detailed design', #43, 'design' ) ;
#144 = FACE_OUTER_BOUND ( 'NONE', #303, .T. ) ;
#145 = CARTESIAN_POINT ( 'NONE',  ( -1.224646799147353207E-16, 3.500000000000000000, 0.000000000000000000 ) ) ;
#146 = DIRECTION ( 'NONE',  ( -0.000000000000000000, -1.000000000000000000, -0.000000000000000000 ) ) ;
#147 =( NAMED_UNIT ( * ) SI_UNIT ( $, .STERADIAN. ) SOLID_ANGLE_UNIT ( ) );
#148 = EDGE_CURVE ( 'NONE', #258, #16, #25, .T. ) ;
#149 =( NAMED_UNIT ( * ) PLANE_ANGLE_UNIT ( ) SI_UNIT ( $, .RADIAN. ) );
#150 = DIRECTION ( 'NONE',  ( -1.000000000000000000, 0.000000000000000000, 0.000000000000000000 ) ) ;
#151 = AXIS2_PLACEMENT_3D ( 'NONE', #275, #146, #290 ) ;
#152 = DIRECTION ( 'NONE',  ( 1.000000000000000000, 6.123233995736767268E-17, 0.000000000000000000 ) ) ;
#153 = ORIENTED_EDGE ( 'NONE', *, *, #36, .F. ) ;
#154 = SURFACE_STYLE_FILL_AREA ( #273 ) ;
#155 = LINE ( 'NONE', #162, #118 ) ;
#156 = CIRCLE ( 'NONE', #181, 0.1874999999999999722 ) ;
#157 =( CONVERSION_BASED_UNIT ( 'INCH', #40 ) LENGTH_UNIT ( ) NAMED_UNIT ( #41 ) );
#158 = STYLED_ITEM ( 'NONE', ( #250 ), #239 ) ;
#159 = ORIENTED_EDGE ( 'NONE', *, *, #20, .F. ) ;
#160 = VERTEX_POINT ( 'NONE', #169 ) ;
#161 = ADVANCED_FACE ( 'NONE', ( #31 ), #106, .T. ) ;
#162 = CARTESIAN_POINT ( 'NONE',  ( -0.1875000000000001943, 3.500000000000000000, 0.000000000000000000 ) ) ;
#163 = DIMENSIONAL_EXPONENTS ( 1.000000000000000000, 0.000000000000000000, 0.000000000000000000, 0.000000000000000000, 0.000000000000000000, 0.000000000000000000, 0.000000000000000000 ) ;
#164 = CARTESIAN_POINT ( 'NONE',  ( -0.1874999999999999722, 1.500000000000000222, 0.000000000000000000 ) ) ;
#165 = PLANE ( 'NONE',  #211 ) ;
#166 = AXIS2_PLACEMENT_3D ( 'NONE', #104, #113, #222 ) ;
#167 = PRESENTATION_STYLE_ASSIGNMENT (( #284 ) ) ;
#168 = STYLED_ITEM ( 'NONE', ( #33 ), #90 ) ;
#169 = CARTESIAN_POINT ( 'NONE',  ( 0.000000000000000000, 0.000000000000000000, -0.1875000000000000278 ) ) ;
#170 =( NAMED_UNIT ( * ) PLANE_ANGLE_UNIT ( ) SI_UNIT ( $, .RADIAN. ) );
#171 = CARTESIAN_POINT ( 'NONE',  ( 0.000000000000000000, 1.500000000000000222, 0.000000000000000000 ) ) ;
#172 = COLOUR_RGB ( '',1.000000000000000000, 0.000000000000000000, 0.000000000000000000 ) ;
#173 = FILL_AREA_STYLE_COLOUR ( '', #110 ) ;
#174 = COLOUR_RGB ( '',1.000000000000000000, 0.000000000000000000, 0.000000000000000000 ) ;
#175 =( NAMED_UNIT ( * ) SI_UNIT ( $, .STERADIAN. ) SOLID_ANGLE_UNIT ( ) );
#176 = DIRECTION ( 'NONE',  ( 6.123233995736767268E-17, -1.000000000000000000, 0.000000000000000000 ) ) ;
#177 = ORIENTED_EDGE ( 'NONE', *, *, #61, .F. ) ;
#178 = EDGE_CURVE ( 'NONE', #42, #280, #58, .T. ) ;
#179 = SURFACE_SIDE_STYLE ('',( #232 ) ) ;
#180 = ORIENTED_EDGE ( 'NONE', *, *, #9, .T. ) ;
#181 = AXIS2_PLACEMENT_3D ( 'NONE', #189, #263, #49 ) ;
#182 = DIRECTION ( 'NONE',  ( 0.000000000000000000, -0.000000000000000000, 1.000000000000000000 ) ) ;
#183 = ORIENTED_EDGE ( 'NONE', *, *, #9, .F. ) ;
#184 =( CONVERSION_BASED_UNIT ( 'INCH', #261 ) LENGTH_UNIT ( ) NAMED_UNIT ( #199 ) );
#185 = COLOUR_RGB ( '',1.000000000000000000, 0.000000000000000000, 0.000000000000000000 ) ;
#186 = MANIFOLD_SOLID_BREP ( 'Revolve - Tool Body (Straight Shanked)', #71 ) ;
#187 = AXIS2_PLACEMENT_3D ( 'NONE', #129, #269, #80 ) ;
#188 = DIRECTION ( 'NONE',  ( -0.000000000000000000, -1.000000000000000000, -0.000000000000000000 ) ) ;
#189 = CARTESIAN_POINT ( 'NONE',  ( 0.000000000000000000, 1.500000000000000222, 0.000000000000000000 ) ) ;
#190 = SURFACE_SIDE_STYLE ('',( #102 ) ) ;
#191 =( GEOMETRIC_REPRESENTATION_CONTEXT ( 3 ) GLOBAL_UNCERTAINTY_ASSIGNED_CONTEXT ( ( #226 ) ) GLOBAL_UNIT_ASSIGNED_CONTEXT ( ( #157, #170, #85 ) ) REPRESENTATION_CONTEXT ( 'NONE', 'WORKASPACE' ) );
#192 =( NAMED_UNIT ( * ) PLANE_ANGLE_UNIT ( ) SI_UNIT ( $, .RADIAN. ) );
#193 = UNCERTAINTY_MEASURE_WITH_UNIT (LENGTH_MEASURE( 1.000000000000000082E-05 ), #86, 'distance_accuracy_value', 'NONE');
#194 = DIRECTION ( 'NONE',  ( 0.000000000000000000, 0.000000000000000000, -1.000000000000000000 ) ) ;
#195 = DIMENSIONAL_EXPONENTS ( 1.000000000000000000, 0.000000000000000000, 0.000000000000000000, 0.000000000000000000, 0.000000000000000000, 0.000000000000000000, 0.000000000000000000 ) ;
#196 = FILL_AREA_STYLE_COLOUR ( '', #172 ) ;
#197 = LENGTH_MEASURE_WITH_UNIT ( LENGTH_MEASURE( 0.02539999999999999897 ), #62 );
#198 =( LENGTH_UNIT ( ) NAMED_UNIT ( * ) SI_UNIT ( $, .METRE. ) );
#199 = DIMENSIONAL_EXPONENTS ( 1.000000000000000000, 0.000000000000000000, 0.000000000000000000, 0.000000000000000000, 0.000000000000000000, 0.000000000000000000, 0.000000000000000000 ) ;
#200 = SURFACE_STYLE_FILL_AREA ( #8 ) ;
#201 = VECTOR ( 'NONE', #307, 39.37007874015748143 ) ;
#202 = FILL_AREA_STYLE ('',( #196 ) ) ;
#203 = PRESENTATION_LAYER_ASSIGNMENT (  '', '', ( #158 ) ) ;
#204 = FILL_AREA_STYLE_COLOUR ( '', #174 ) ;
#205 = PRESENTATION_STYLE_ASSIGNMENT (( #293 ) ) ;
#206 = SURFACE_STYLE_USAGE ( .BOTH. , #107 ) ;
#207 = ORIENTED_EDGE ( 'NONE', *, *, #103, .F. ) ;
#208 = DIRECTION ( 'NONE',  ( 0.000000000000000000, 0.000000000000000000, 1.000000000000000000 ) ) ;
#209 = UNCERTAINTY_MEASURE_WITH_UNIT (LENGTH_MEASURE( 1.000000000000000082E-05 ), #27, 'distance_accuracy_value', 'NONE');
#210 = MECHANICAL_DESIGN_GEOMETRIC_PRESENTATION_REPRESENTATION (  '', ( #168 ), #5 ) ;
#211 = AXIS2_PLACEMENT_3D ( 'NONE', #262, #176, #152 ) ;
#212 = ORIENTED_EDGE ( 'NONE', *, *, #178, .F. ) ;
#213 = ORIENTED_EDGE ( 'NONE', *, *, #21, .F. ) ;
#214 = DIRECTION ( 'NONE',  ( -1.000000000000000000, 0.000000000000000000, 0.000000000000000000 ) ) ;
#215 = AXIS2_PLACEMENT_3D ( 'NONE', #231, #11, #112 ) ;
#216 = LENGTH_MEASURE_WITH_UNIT ( LENGTH_MEASURE( 0.02539999999999999897 ), #218 );
#217 = AXIS2_PLACEMENT_3D ( 'NONE', #225, #83, #6 ) ;
#218 =( LENGTH_UNIT ( ) NAMED_UNIT ( * ) SI_UNIT ( $, .METRE. ) );
#219 = FILL_AREA_STYLE ('',( #126 ) ) ;
#220 = CARTESIAN_POINT ( 'NONE',  ( 0.000000000000000000, 0.000000000000000000, 0.000000000000000000 ) ) ;
#221 = ADVANCED_FACE ( 'NONE', ( #30 ), #287, .T. ) ;
#222 = DIRECTION ( 'NONE',  ( 0.000000000000000000, 0.000000000000000000, -1.000000000000000000 ) ) ;
#223 = DIMENSIONAL_EXPONENTS ( 1.000000000000000000, 0.000000000000000000, 0.000000000000000000, 0.000000000000000000, 0.000000000000000000, 0.000000000000000000, 0.000000000000000000 ) ;
#224 =( GEOMETRIC_REPRESENTATION_CONTEXT ( 3 ) GLOBAL_UNCERTAINTY_ASSIGNED_CONTEXT ( ( #92 ) ) GLOBAL_UNIT_ASSIGNED_CONTEXT ( ( #294, #292, #82 ) ) REPRESENTATION_CONTEXT ( 'NONE', 'WORKASPACE' ) );
#225 = CARTESIAN_POINT ( 'NONE',  ( -1.224646799147353207E-16, 3.500000000000000000, 0.000000000000000000 ) ) ;
#226 = UNCERTAINTY_MEASURE_WITH_UNIT (LENGTH_MEASURE( 1.000000000000000082E-05 ), #157, 'distance_accuracy_value', 'NONE');
#227 = DIRECTION ( 'NONE',  ( -1.000000000000000000, -6.123233995736767268E-17, 0.000000000000000000 ) ) ;
#228 = CARTESIAN_POINT ( 'NONE',  ( 0.000000000000000000, 1.500000000000000222, -0.1874999999999999722 ) ) ;
#229 =( LENGTH_UNIT ( ) NAMED_UNIT ( * ) SI_UNIT ( $, .METRE. ) );
#230 = LINE ( 'NONE', #111, #65 ) ;
#231 = CARTESIAN_POINT ( 'NONE',  ( 0.000000000000000000, 1.500000000000000222, 0.000000000000000000 ) ) ;
#232 = SURFACE_STYLE_FILL_AREA ( #202 ) ;
#233 = DIRECTION ( 'NONE',  ( -0.000000000000000000, -1.000000000000000000, -0.000000000000000000 ) ) ;
#234 = ORIENTED_EDGE ( 'NONE', *, *, #288, .F. ) ;
#235 = ORIENTED_EDGE ( 'NONE', *, *, #61, .T. ) ;
#236 =( NAMED_UNIT ( * ) PLANE_ANGLE_UNIT ( ) SI_UNIT ( $, .RADIAN. ) );
#237 = STYLED_ITEM ( 'NONE', ( #257 ), #186 ) ;
#238 = ADVANCED_FACE ( 'NONE', ( #70 ), #165, .F. ) ;
#239 = ADVANCED_FACE ( 'NONE', ( #276 ), #56, .T. ) ;
#240 = AXIS2_PLACEMENT_3D ( 'NONE', #171, #57, #150 ) ;
#241 = AXIS2_PLACEMENT_3D ( 'NONE', #246, #131, #227 ) ;
#242 = ADVANCED_BREP_SHAPE_REPRESENTATION ( '26247', ( #90, #186, #48 ), #135 ) ;
#243 = DIRECTION ( 'NONE',  ( -1.000000000000000000, 0.000000000000000000, 0.000000000000000000 ) ) ;
#244 = MECHANICAL_DESIGN_GEOMETRIC_PRESENTATION_REPRESENTATION (  '', ( #237 ), #10 ) ;
#245 = STYLED_ITEM ( 'NONE', ( #296 ), #286 ) ;
#246 = CARTESIAN_POINT ( 'NONE',  ( 3.515061990613730051E-34, 1.500000000000000222, 0.000000000000000000 ) ) ;
#247 = SURFACE_STYLE_USAGE ( .BOTH. , #75 ) ;
#248 = CIRCLE ( 'NONE', #279, 0.1875000000000001110 ) ;
#249 = SURFACE_SIDE_STYLE ('',( #154 ) ) ;
#250 = PRESENTATION_STYLE_ASSIGNMENT (( #32 ) ) ;
#251 = EDGE_LOOP ( 'NONE', ( #153, #299 ) ) ;
#252 = FILL_AREA_STYLE_COLOUR ( '', #68 ) ;
#253 = VERTEX_POINT ( 'NONE', #228 ) ;
#254 = STYLED_ITEM ( 'NONE', ( #167 ), #221 ) ;
#255 = FACE_OUTER_BOUND ( 'NONE', #139, .T. ) ;
#256 = ORIENTED_EDGE ( 'NONE', *, *, #148, .F. ) ;
#257 = PRESENTATION_STYLE_ASSIGNMENT (( #247 ) ) ;
#258 = VERTEX_POINT ( 'NONE', #270 ) ;
#259 =( NAMED_UNIT ( * ) SI_UNIT ( $, .STERADIAN. ) SOLID_ANGLE_UNIT ( ) );
#260 = APPLICATION_CONTEXT ( 'automotive_design' ) ;
#261 = LENGTH_MEASURE_WITH_UNIT ( LENGTH_MEASURE( 0.02539999999999999897 ), #281 );
#262 = CARTESIAN_POINT ( 'NONE',  ( 0.1874999999999999722, 3.500000000000000000, 0.000000000000000000 ) ) ;
#263 = DIRECTION ( 'NONE',  ( -0.000000000000000000, -1.000000000000000000, -0.000000000000000000 ) ) ;
#264 = SURFACE_STYLE_FILL_AREA ( #51 ) ;
#265 = EDGE_CURVE ( 'NONE', #280, #258, #230, .T. ) ;
#266 =( CONVERSION_BASED_UNIT ( 'INCH', #60 ) LENGTH_UNIT ( ) NAMED_UNIT ( #309 ) );
#267 = UNCERTAINTY_MEASURE_WITH_UNIT (LENGTH_MEASURE( 1.000000000000000082E-05 ), #266, 'distance_accuracy_value', 'NONE');
#268 = ADVANCED_FACE ( 'NONE', ( #255 ), #89, .F. ) ;
#269 = DIRECTION ( 'NONE',  ( -6.123233995736767268E-17, 1.000000000000000000, -0.000000000000000000 ) ) ;
#270 = CARTESIAN_POINT ( 'NONE',  ( 0.1874999999999999722, 3.500000000000000000, 2.296212748401288342E-17 ) ) ;
#271 =( NAMED_UNIT ( * ) SI_UNIT ( $, .STERADIAN. ) SOLID_ANGLE_UNIT ( ) );
#272 = CARTESIAN_POINT ( 'NONE',  ( 0.000000000000000000, 1.500000000000000222, 0.000000000000000000 ) ) ;
#273 = FILL_AREA_STYLE ('',( #252 ) ) ;
#274 = ORIENTED_EDGE ( 'NONE', *, *, #148, .T. ) ;
#275 = CARTESIAN_POINT ( 'NONE',  ( 0.000000000000000000, 0.000000000000000000, 0.000000000000000000 ) ) ;
#276 = FACE_OUTER_BOUND ( 'NONE', #116, .T. ) ;
#277 = VERTEX_POINT ( 'NONE', #108 ) ;
#278 = AXIS2_PLACEMENT_3D ( 'NONE', #272, #35, #132 ) ;
#279 = AXIS2_PLACEMENT_3D ( 'NONE', #301, #304, #214 ) ;
#280 = VERTEX_POINT ( 'NONE', #34 ) ;
#281 =( LENGTH_UNIT ( ) NAMED_UNIT ( * ) SI_UNIT ( $, .METRE. ) );
#282 = AXIS2_PLACEMENT_3D ( 'NONE', #145, #123, #243 ) ;
#283 = MECHANICAL_DESIGN_GEOMETRIC_PRESENTATION_REPRESENTATION (  '', ( #245 ), #224 ) ;
#284 = SURFACE_STYLE_USAGE ( .BOTH. , #73 ) ;
#285 = UNCERTAINTY_MEASURE_WITH_UNIT (LENGTH_MEASURE( 1.000000000000000082E-05 ), #78, 'distance_accuracy_value', 'NONE');
#286 = ADVANCED_FACE ( 'NONE', ( #114 ), #7, .T. ) ;
#287 = PLANE ( 'NONE',  #59 ) ;
#288 = EDGE_CURVE ( 'NONE', #16, #258, #248, .T. ) ;
#289 =( GEOMETRIC_REPRESENTATION_CONTEXT ( 3 ) GLOBAL_UNCERTAINTY_ASSIGNED_CONTEXT ( ( #267 ) ) GLOBAL_UNIT_ASSIGNED_CONTEXT ( ( #266, #149, #271 ) ) REPRESENTATION_CONTEXT ( 'NONE', 'WORKASPACE' ) );
#290 = DIRECTION ( 'NONE',  ( 0.000000000000000000, 0.000000000000000000, -1.000000000000000000 ) ) ;
#291 = DIRECTION ( 'NONE',  ( -6.123233995736767268E-17, 1.000000000000000000, -0.000000000000000000 ) ) ;
#292 =( NAMED_UNIT ( * ) PLANE_ANGLE_UNIT ( ) SI_UNIT ( $, .RADIAN. ) );
#293 = SURFACE_STYLE_USAGE ( .BOTH. , #179 ) ;
#294 =( CONVERSION_BASED_UNIT ( 'INCH', #197 ) LENGTH_UNIT ( ) NAMED_UNIT ( #223 ) );
#295 = CARTESIAN_POINT ( 'NONE',  ( -0.1875000000000002498, 3.500000000000000000, 0.000000000000000000 ) ) ;
#296 = PRESENTATION_STYLE_ASSIGNMENT (( #206 ) ) ;
#297 = ORIENTED_EDGE ( 'NONE', *, *, #103, .T. ) ;
#298 = DIRECTION ( 'NONE',  ( 1.000000000000000000, 0.000000000000000000, 0.000000000000000000 ) ) ;
#299 = ORIENTED_EDGE ( 'NONE', *, *, #14, .F. ) ;
#300 = MECHANICAL_DESIGN_GEOMETRIC_PRESENTATION_REPRESENTATION (  '', ( #254 ), #12 ) ;
#301 = CARTESIAN_POINT ( 'NONE',  ( -1.224646799147353207E-16, 3.500000000000000000, 0.000000000000000000 ) ) ;
#302 = PRODUCT_CONTEXT ( 'NONE', #260, 'mechanical' ) ;
#303 = EDGE_LOOP ( 'NONE', ( #93, #120, #234, #159 ) ) ;
#304 = DIRECTION ( 'NONE',  ( -6.123233995736767268E-17, 1.000000000000000000, -0.000000000000000000 ) ) ;
#305 = MECHANICAL_DESIGN_GEOMETRIC_PRESENTATION_REPRESENTATION (  '', ( #46 ), #289 ) ;
#306 = CARTESIAN_POINT ( 'NONE',  ( 0.000000000000000000, 1.500000000000000222, 0.000000000000000000 ) ) ;
#307 = DIRECTION ( 'NONE',  ( -0.000000000000000000, -1.000000000000000000, -0.000000000000000000 ) ) ;
#308 = DIRECTION ( 'NONE',  ( 0.000000000000000000, -1.000000000000000000, -0.000000000000000000 ) ) ;
#309 = DIMENSIONAL_EXPONENTS ( 1.000000000000000000, 0.000000000000000000, 0.000000000000000000, 0.000000000000000000, 0.000000000000000000, 0.000000000000000000, 0.000000000000000000 ) ;
ENDSEC;
END-ISO-10303-21;
