ISO-10303-21;
HEADER;
FILE_DESCRIPTION (( 'STEP AP214' ),
    '1' );
FILE_NAME ('59847W.STEP',
    '2023-06-22T23:26:31',
    ( '' ),
    ( '' ),
    'SwSTEP 2.0',
    'SolidWorks 2023',
    '' );
FILE_SCHEMA (( 'AUTOMOTIVE_DESIGN' ));
ENDSEC;

DATA;
#1 = AXIS2_PLACEMENT_3D ( 'NONE', #75, #243, #201 ) ;
#2 =( NAMED_UNIT ( * ) PLANE_ANGLE_UNIT ( ) SI_UNIT ( $, .RADIAN. ) );
#3 = DIMENSIONAL_EXPONENTS ( 1.000000000000000000, 0.000000000000000000, 0.000000000000000000, 0.000000000000000000, 0.000000000000000000, 0.000000000000000000, 0.000000000000000000 ) ;
#4 = EDGE_CURVE ( 'NONE', #91, #199, #306, .T. ) ;
#5 = FACE_OUTER_BOUND ( 'NONE', #244, .T. ) ;
#6 = ORIENTED_EDGE ( 'NONE', *, *, #193, .T. ) ;
#7 = VECTOR ( 'NONE', #196, 39.37007874015748143 ) ;
#8 = DIRECTION ( 'NONE',  ( -1.000000000000000000, 0.000000000000000000, 0.000000000000000000 ) ) ;
#9 = ORIENTED_EDGE ( 'NONE', *, *, #135, .T. ) ;
#10 = CARTESIAN_POINT ( 'NONE',  ( -6.123233995736772199E-17, 3.000000000000000444, 0.000000000000000000 ) ) ;
#11 = PLANE ( 'NONE',  #279 ) ;
#12 = ADVANCED_FACE ( 'NONE', ( #165 ), #95, .T. ) ;
#13 = CARTESIAN_POINT ( 'NONE',  ( 0.2499999999999999722, 3.000000000000000444, 3.061616997868383634E-17 ) ) ;
#14 = COLOUR_RGB ( '',1.000000000000000000, 0.000000000000000000, 0.000000000000000000 ) ;
#15 = FILL_AREA_STYLE_COLOUR ( '', #14 ) ;
#16 = COLOUR_RGB ( '',0.7921568627450980005, 0.8196078431372548767, 0.9333333333333333481 ) ;
#17 = AXIS2_PLACEMENT_3D ( 'NONE', #262, #83, #58 ) ;
#18 = DIRECTION ( 'NONE',  ( -0.000000000000000000, -1.000000000000000000, -0.000000000000000000 ) ) ;
#19 = CARTESIAN_POINT ( 'NONE',  ( 3.061616997868383018E-17, 1.250000000000000000, 0.2500000000000000000 ) ) ;
#20 = UNCERTAINTY_MEASURE_WITH_UNIT (LENGTH_MEASURE( 1.000000000000000082E-05 ), #151, 'distance_accuracy_value', 'NONE');
#21 =( LENGTH_UNIT ( ) NAMED_UNIT ( * ) SI_UNIT ( $, .METRE. ) );
#22 = PRESENTATION_LAYER_ASSIGNMENT (  '', '', ( #152 ) ) ;
#23 = ADVANCED_FACE ( 'NONE', ( #54 ), #143, .F. ) ;
#24 = EDGE_LOOP ( 'NONE', ( #131, #288 ) ) ;
#25 = COLOUR_RGB ( '',1.000000000000000000, 0.000000000000000000, 0.000000000000000000 ) ;
#26 = COLOUR_RGB ( '',1.000000000000000000, 0.000000000000000000, 0.000000000000000000 ) ;
#27 = SHAPE_DEFINITION_REPRESENTATION ( #265, #139 ) ;
#28 = CARTESIAN_POINT ( 'NONE',  ( 3.061616997868383018E-17, 0.000000000000000000, 0.2500000000000000000 ) ) ;
#29 = FILL_AREA_STYLE_COLOUR ( '', #276 ) ;
#30 = DIRECTION ( 'NONE',  ( -1.000000000000000000, 0.000000000000000000, 0.000000000000000000 ) ) ;
#31 = PRESENTATION_LAYER_ASSIGNMENT (  '', '', ( #168 ) ) ;
#32 = ORIENTED_EDGE ( 'NONE', *, *, #123, .F. ) ;
#33 = EDGE_CURVE ( 'NONE', #257, #178, #285, .T. ) ;
#34 = CARTESIAN_POINT ( 'NONE',  ( -0.2500000000000001110, 3.000000000000000444, 0.000000000000000000 ) ) ;
#35 =( CONVERSION_BASED_UNIT ( 'INCH', #242 ) LENGTH_UNIT ( ) NAMED_UNIT ( #121 ) );
#36 = UNCERTAINTY_MEASURE_WITH_UNIT (LENGTH_MEASURE( 1.000000000000000082E-05 ), #248, 'distance_accuracy_value', 'NONE');
#37 = VERTEX_POINT ( 'NONE', #34 ) ;
#38 = CARTESIAN_POINT ( 'NONE',  ( -0.2500000000000000000, 1.250000000000000000, 0.000000000000000000 ) ) ;
#39 = CIRCLE ( 'NONE', #166, 0.2500000000000000000 ) ;
#40 = MECHANICAL_DESIGN_GEOMETRIC_PRESENTATION_REPRESENTATION (  '', ( #168 ), #98 ) ;
#41 = FACE_OUTER_BOUND ( 'NONE', #289, .T. ) ;
#42 = DIRECTION ( 'NONE',  ( -0.000000000000000000, -1.000000000000000000, -0.000000000000000000 ) ) ;
#43 = SURFACE_STYLE_USAGE ( .BOTH. , #161 ) ;
#44 = DIRECTION ( 'NONE',  ( -1.000000000000000000, -3.498990854706726443E-17, 0.000000000000000000 ) ) ;
#45 = LINE ( 'NONE', #88, #133 ) ;
#46 = SURFACE_SIDE_STYLE ('',( #89 ) ) ;
#47 = CLOSED_SHELL ( 'NONE', ( #173, #234, #226, #218 ) ) ;
#48 = DIMENSIONAL_EXPONENTS ( 1.000000000000000000, 0.000000000000000000, 0.000000000000000000, 0.000000000000000000, 0.000000000000000000, 0.000000000000000000, 0.000000000000000000 ) ;
#49 = CARTESIAN_POINT ( 'NONE',  ( 0.000000000000000000, 0.000000000000000000, 0.000000000000000000 ) ) ;
#50 = AXIS2_PLACEMENT_3D ( 'NONE', #49, #162, #185 ) ;
#51 = AXIS2_PLACEMENT_3D ( 'NONE', #116, #114, #307 ) ;
#52 = DIRECTION ( 'NONE',  ( -3.498990854706726443E-17, 1.000000000000000000, -0.000000000000000000 ) ) ;
#53 = PRESENTATION_STYLE_ASSIGNMENT (( #43 ) ) ;
#54 = FACE_OUTER_BOUND ( 'NONE', #232, .T. ) ;
#55 = CIRCLE ( 'NONE', #66, 0.2500000000000000000 ) ;
#56 = AXIS2_PLACEMENT_3D ( 'NONE', #106, #204, #250 ) ;
#57 = ORIENTED_EDGE ( 'NONE', *, *, #33, .F. ) ;
#58 = DIRECTION ( 'NONE',  ( 0.000000000000000000, 0.000000000000000000, -1.000000000000000000 ) ) ;
#60 = ORIENTED_EDGE ( 'NONE', *, *, #167, .F. ) ;
#59 = COLOUR_RGB ( '',0.7921568627450980005, 0.8196078431372548767, 0.9333333333333333481 ) ;
#61 = SURFACE_STYLE_FILL_AREA ( #207 ) ;
#62 = PRESENTATION_LAYER_ASSIGNMENT (  '', '', ( #68 ) ) ;
#63 =( NAMED_UNIT ( * ) SI_UNIT ( $, .STERADIAN. ) SOLID_ANGLE_UNIT ( ) );
#64 = DIRECTION ( 'NONE',  ( 0.000000000000000000, 0.000000000000000000, -1.000000000000000000 ) ) ;
#65 =( CONVERSION_BASED_UNIT ( 'INCH', #271 ) LENGTH_UNIT ( ) NAMED_UNIT ( #48 ) );
#66 = AXIS2_PLACEMENT_3D ( 'NONE', #297, #113, #160 ) ;
#67 = PRESENTATION_STYLE_ASSIGNMENT (( #138 ) ) ;
#68 = STYLED_ITEM ( 'NONE', ( #76 ), #218 ) ;
#69 = MECHANICAL_DESIGN_GEOMETRIC_PRESENTATION_REPRESENTATION (  '', ( #249 ), #215 ) ;
#70 = CYLINDRICAL_SURFACE ( 'NONE', #1, 0.2500000000000000000 ) ;
#71 =( GEOMETRIC_REPRESENTATION_CONTEXT ( 3 ) GLOBAL_UNCERTAINTY_ASSIGNED_CONTEXT ( ( #101 ) ) GLOBAL_UNIT_ASSIGNED_CONTEXT ( ( #308, #2, #120 ) ) REPRESENTATION_CONTEXT ( 'NONE', 'WORKASPACE' ) );
#72 = SURFACE_STYLE_USAGE ( .BOTH. , #145 ) ;
#73 = CARTESIAN_POINT ( 'NONE',  ( -6.123233995736772199E-17, 3.000000000000000444, 0.000000000000000000 ) ) ;
#74 = ADVANCED_FACE ( 'NONE', ( #5 ), #198, .T. ) ;
#75 = CARTESIAN_POINT ( 'NONE',  ( 0.000000000000000000, 0.000000000000000000, 0.000000000000000000 ) ) ;
#76 = PRESENTATION_STYLE_ASSIGNMENT (( #154 ) ) ;
#77 = CARTESIAN_POINT ( 'NONE',  ( 0.000000000000000000, 1.250000000000000000, 0.000000000000000000 ) ) ;
#78 = ORIENTED_EDGE ( 'NONE', *, *, #33, .T. ) ;
#79 = UNCERTAINTY_MEASURE_WITH_UNIT (LENGTH_MEASURE( 1.000000000000000082E-05 ), #65, 'distance_accuracy_value', 'NONE');
#80 = ORIENTED_EDGE ( 'NONE', *, *, #4, .T. ) ;
#81 = CIRCLE ( 'NONE', #148, 0.2500000000000000555 ) ;
#82 = FILL_AREA_STYLE_COLOUR ( '', #25 ) ;
#83 = DIRECTION ( 'NONE',  ( 0.000000000000000000, -1.000000000000000000, -0.000000000000000000 ) ) ;
#84 = DIMENSIONAL_EXPONENTS ( 1.000000000000000000, 0.000000000000000000, 0.000000000000000000, 0.000000000000000000, 0.000000000000000000, 0.000000000000000000, 0.000000000000000000 ) ;
#85 = SURFACE_STYLE_FILL_AREA ( #266 ) ;
#86 = DIRECTION ( 'NONE',  ( 0.000000000000000000, -0.000000000000000000, 1.000000000000000000 ) ) ;
#87 = CARTESIAN_POINT ( 'NONE',  ( 0.000000000000000000, 0.000000000000000000, -0.2500000000000000000 ) ) ;
#88 = CARTESIAN_POINT ( 'NONE',  ( -0.2500000000000001110, 3.000000000000000444, 0.000000000000000000 ) ) ;
#89 = SURFACE_STYLE_FILL_AREA ( #272 ) ;
#90 =( LENGTH_UNIT ( ) NAMED_UNIT ( * ) SI_UNIT ( $, .METRE. ) );
#91 = VERTEX_POINT ( 'NONE', #128 ) ;
#92 = CARTESIAN_POINT ( 'NONE',  ( 3.061616997868383018E-17, 0.000000000000000000, 0.2500000000000000000 ) ) ;
#93 = ORIENTED_EDGE ( 'NONE', *, *, #231, .T. ) ;
#94 = CIRCLE ( 'NONE', #56, 0.2500000000000000000 ) ;
#95 = CYLINDRICAL_SURFACE ( 'NONE', #298, 0.2500000000000000555 ) ;
#96 = ORIENTED_EDGE ( 'NONE', *, *, #123, .T. ) ;
#97 = CARTESIAN_POINT ( 'NONE',  ( 0.000000000000000000, 1.250000000000000000, 0.000000000000000000 ) ) ;
#98 =( GEOMETRIC_REPRESENTATION_CONTEXT ( 3 ) GLOBAL_UNCERTAINTY_ASSIGNED_CONTEXT ( ( #20 ) ) GLOBAL_UNIT_ASSIGNED_CONTEXT ( ( #151, #150, #260 ) ) REPRESENTATION_CONTEXT ( 'NONE', 'WORKASPACE' ) );
#99 = DIRECTION ( 'NONE',  ( -1.000000000000000000, 0.000000000000000000, 0.000000000000000000 ) ) ;
#100 = APPLICATION_PROTOCOL_DEFINITION ( 'draft international standard', 'automotive_design', 1998, #191 ) ;
#101 = UNCERTAINTY_MEASURE_WITH_UNIT (LENGTH_MEASURE( 1.000000000000000082E-05 ), #308, 'distance_accuracy_value', 'NONE');
#102 = CYLINDRICAL_SURFACE ( 'NONE', #50, 0.2500000000000000000 ) ;
#103 = ORIENTED_EDGE ( 'NONE', *, *, #277, .F. ) ;
#104 = SURFACE_SIDE_STYLE ('',( #221 ) ) ;
#105 = DIRECTION ( 'NONE',  ( -1.000000000000000000, 0.000000000000000000, 0.000000000000000000 ) ) ;
#106 = CARTESIAN_POINT ( 'NONE',  ( 0.000000000000000000, 0.000000000000000000, 0.000000000000000000 ) ) ;
#107 = ORIENTED_EDGE ( 'NONE', *, *, #117, .T. ) ;
#108 = ORIENTED_EDGE ( 'NONE', *, *, #135, .F. ) ;
#109 = FILL_AREA_STYLE_COLOUR ( '', #16 ) ;
#110 = VECTOR ( 'NONE', #256, 39.37007874015748143 ) ;
#111 = FACE_OUTER_BOUND ( 'NONE', #220, .T. ) ;
#112 = DIRECTION ( 'NONE',  ( -1.000000000000000000, 0.000000000000000000, 0.000000000000000000 ) ) ;
#113 = DIRECTION ( 'NONE',  ( -3.498990854706726443E-17, 1.000000000000000000, -0.000000000000000000 ) ) ;
#114 = DIRECTION ( 'NONE',  ( 3.498990854706726443E-17, -1.000000000000000000, 0.000000000000000000 ) ) ;
#115 = PRODUCT_DEFINITION_CONTEXT ( 'detailed design', #191, 'design' ) ;
#116 = CARTESIAN_POINT ( 'NONE',  ( 0.2500000000000000000, 3.000000000000000444, 0.000000000000000000 ) ) ;
#117 = EDGE_CURVE ( 'NONE', #186, #37, #81, .T. ) ;
#118 = PRESENTATION_STYLE_ASSIGNMENT (( #72 ) ) ;
#119 = CIRCLE ( 'NONE', #237, 0.2500000000000000555 ) ;
#120 =( NAMED_UNIT ( * ) SI_UNIT ( $, .STERADIAN. ) SOLID_ANGLE_UNIT ( ) );
#121 = DIMENSIONAL_EXPONENTS ( 1.000000000000000000, 0.000000000000000000, 0.000000000000000000, 0.000000000000000000, 0.000000000000000000, 0.000000000000000000, 0.000000000000000000 ) ;
#122 = EDGE_LOOP ( 'NONE', ( #6, #309, #181, #254 ) ) ;
#123 = EDGE_CURVE ( 'NONE', #155, #199, #94, .T. ) ;
#124 = ORIENTED_EDGE ( 'NONE', *, *, #200, .T. ) ;
#125 = STYLED_ITEM ( 'NONE', ( #67 ), #233 ) ;
#126 = DIRECTION ( 'NONE',  ( -3.498990854706726443E-17, 1.000000000000000000, -0.000000000000000000 ) ) ;
#127 = ORIENTED_EDGE ( 'NONE', *, *, #117, .F. ) ;
#128 = CARTESIAN_POINT ( 'NONE',  ( 0.000000000000000000, 1.250000000000000000, -0.2500000000000000000 ) ) ;
#129 = DIMENSIONAL_EXPONENTS ( 1.000000000000000000, 0.000000000000000000, 0.000000000000000000, 0.000000000000000000, 0.000000000000000000, 0.000000000000000000, 0.000000000000000000 ) ;
#130 = DIRECTION ( 'NONE',  ( -3.498990854706726443E-17, 1.000000000000000000, -0.000000000000000000 ) ) ;
#131 = ORIENTED_EDGE ( 'NONE', *, *, #193, .F. ) ;
#132 = PRESENTATION_STYLE_ASSIGNMENT (( #177 ) ) ;
#133 = VECTOR ( 'NONE', #164, 39.37007874015748143 ) ;
#134 =( NAMED_UNIT ( * ) SI_UNIT ( $, .STERADIAN. ) SOLID_ANGLE_UNIT ( ) );
#135 = EDGE_CURVE ( 'NONE', #257, #186, #245, .T. ) ;
#136 =( NAMED_UNIT ( * ) PLANE_ANGLE_UNIT ( ) SI_UNIT ( $, .RADIAN. ) );
#137 = CARTESIAN_POINT ( 'NONE',  ( 0.000000000000000000, 0.000000000000000000, 0.000000000000000000 ) ) ;
#138 = SURFACE_STYLE_USAGE ( .BOTH. , #46 ) ;
#139 = ADVANCED_BREP_SHAPE_REPRESENTATION ( '59847W', ( #142, #233, #212 ), #305 ) ;
#140 = CARTESIAN_POINT ( 'NONE',  ( 1.530367125165163595E-34, 1.250000000000000000, 0.000000000000000000 ) ) ;
#141 = MECHANICAL_DESIGN_GEOMETRIC_PRESENTATION_REPRESENTATION (  '', ( #236 ), #275 ) ;
#142 = MANIFOLD_SOLID_BREP ( 'Revolve - Cutting Edge', #47 ) ;
#143 = PLANE ( 'NONE',  #51 ) ;
#144 = PRODUCT_DEFINITION ( 'UNKNOWN', '', #263, #115 ) ;
#145 = SURFACE_SIDE_STYLE ('',( #146 ) ) ;
#146 = SURFACE_STYLE_FILL_AREA ( #187 ) ;
#147 = PRODUCT ( '59847W', '59847W', '', ( #213 ) ) ;
#148 = AXIS2_PLACEMENT_3D ( 'NONE', #241, #130, #8 ) ;
#149 = DIMENSIONAL_EXPONENTS ( 1.000000000000000000, 0.000000000000000000, 0.000000000000000000, 0.000000000000000000, 0.000000000000000000, 0.000000000000000000, 0.000000000000000000 ) ;
#150 =( NAMED_UNIT ( * ) PLANE_ANGLE_UNIT ( ) SI_UNIT ( $, .RADIAN. ) );
#151 =( CONVERSION_BASED_UNIT ( 'INCH', #278 ) LENGTH_UNIT ( ) NAMED_UNIT ( #283 ) );
#152 = STYLED_ITEM ( 'NONE', ( #118 ), #173 ) ;
#153 = EDGE_CURVE ( 'NONE', #37, #186, #119, .T. ) ;
#154 = SURFACE_STYLE_USAGE ( .BOTH. , #287 ) ;
#155 = VERTEX_POINT ( 'NONE', #28 ) ;
#156 = ORIENTED_EDGE ( 'NONE', *, *, #153, .T. ) ;
#157 = VERTEX_POINT ( 'NONE', #19 ) ;
#158 = FACE_OUTER_BOUND ( 'NONE', #239, .T. ) ;
#159 = DIRECTION ( 'NONE',  ( 1.000000000000000000, 0.000000000000000000, 0.000000000000000000 ) ) ;
#160 = DIRECTION ( 'NONE',  ( -1.000000000000000000, 0.000000000000000000, 0.000000000000000000 ) ) ;
#161 = SURFACE_SIDE_STYLE ('',( #294 ) ) ;
#162 = DIRECTION ( 'NONE',  ( -0.000000000000000000, -1.000000000000000000, -0.000000000000000000 ) ) ;
#163 = MECHANICAL_DESIGN_GEOMETRIC_PRESENTATION_REPRESENTATION (  '', ( #125 ), #206 ) ;
#164 = DIRECTION ( 'NONE',  ( -3.498990854706726443E-17, 1.000000000000000000, -0.000000000000000000 ) ) ;
#165 = FACE_OUTER_BOUND ( 'NONE', #235, .T. ) ;
#166 = AXIS2_PLACEMENT_3D ( 'NONE', #252, #42, #247 ) ;
#167 = EDGE_CURVE ( 'NONE', #157, #155, #303, .T. ) ;
#168 = STYLED_ITEM ( 'NONE', ( #53 ), #142 ) ;
#169 = VECTOR ( 'NONE', #222, 39.37007874015748143 ) ;
#170 =( LENGTH_UNIT ( ) NAMED_UNIT ( * ) SI_UNIT ( $, .METRE. ) );
#171 = APPLICATION_CONTEXT ( 'automotive_design' ) ;
#172 = CLOSED_SHELL ( 'NONE', ( #74, #282, #12, #23 ) ) ;
#173 = ADVANCED_FACE ( 'NONE', ( #284 ), #70, .T. ) ;
#174 = PRODUCT_RELATED_PRODUCT_CATEGORY ( 'part', '', ( #147 ) ) ;
#175 = ORIENTED_EDGE ( 'NONE', *, *, #227, .T. ) ;
#176 = AXIS2_PLACEMENT_3D ( 'NONE', #77, #292, #300 ) ;
#177 = SURFACE_STYLE_USAGE ( .BOTH. , #104 ) ;
#178 = VERTEX_POINT ( 'NONE', #38 ) ;
#179 = FILL_AREA_STYLE_COLOUR ( '', #26 ) ;
#180 = DIRECTION ( 'NONE',  ( 0.000000000000000000, 0.000000000000000000, 1.000000000000000000 ) ) ;
#181 = ORIENTED_EDGE ( 'NONE', *, *, #200, .F. ) ;
#182 = LENGTH_MEASURE_WITH_UNIT ( LENGTH_MEASURE( 0.02539999999999999897 ), #21 );
#183 = CARTESIAN_POINT ( 'NONE',  ( 0.2500000000000000000, 1.250000000000000000, 3.061616997868383634E-17 ) ) ;
#184 =( LENGTH_UNIT ( ) NAMED_UNIT ( * ) SI_UNIT ( $, .METRE. ) );
#185 = DIRECTION ( 'NONE',  ( 0.000000000000000000, 0.000000000000000000, -1.000000000000000000 ) ) ;
#186 = VERTEX_POINT ( 'NONE', #203 ) ;
#187 = FILL_AREA_STYLE ('',( #29 ) ) ;
#188 = APPLICATION_PROTOCOL_DEFINITION ( 'draft international standard', 'automotive_design', 1998, #171 ) ;
#189 = AXIS2_PLACEMENT_3D ( 'NONE', #73, #126, #105 ) ;
#190 =( NAMED_UNIT ( * ) PLANE_ANGLE_UNIT ( ) SI_UNIT ( $, .RADIAN. ) );
#191 = APPLICATION_CONTEXT ( 'automotive_design' ) ;
#192 = DIRECTION ( 'NONE',  ( -3.498990854706726443E-17, 1.000000000000000000, -0.000000000000000000 ) ) ;
#193 = EDGE_CURVE ( 'NONE', #91, #157, #264, .T. ) ;
#194 = AXIS2_PLACEMENT_3D ( 'NONE', #97, #192, #30 ) ;
#195 =( LENGTH_UNIT ( ) NAMED_UNIT ( * ) SI_UNIT ( $, .METRE. ) );
#196 = DIRECTION ( 'NONE',  ( -0.000000000000000000, -1.000000000000000000, -0.000000000000000000 ) ) ;
#197 = CIRCLE ( 'NONE', #216, 0.2500000000000000000 ) ;
#198 = CYLINDRICAL_SURFACE ( 'NONE', #189, 0.2500000000000000555 ) ;
#199 = VERTEX_POINT ( 'NONE', #87 ) ;
#200 = EDGE_CURVE ( 'NONE', #199, #155, #197, .T. ) ;
#201 = DIRECTION ( 'NONE',  ( 0.000000000000000000, 0.000000000000000000, -1.000000000000000000 ) ) ;
#202 =( NAMED_UNIT ( * ) SI_UNIT ( $, .STERADIAN. ) SOLID_ANGLE_UNIT ( ) );
#203 = CARTESIAN_POINT ( 'NONE',  ( 0.2500000000000000000, 3.000000000000000444, 3.061616997868383634E-17 ) ) ;
#204 = DIRECTION ( 'NONE',  ( -0.000000000000000000, -1.000000000000000000, -0.000000000000000000 ) ) ;
#205 = FILL_AREA_STYLE ('',( #109 ) ) ;
#206 =( GEOMETRIC_REPRESENTATION_CONTEXT ( 3 ) GLOBAL_UNCERTAINTY_ASSIGNED_CONTEXT ( ( #258 ) ) GLOBAL_UNIT_ASSIGNED_CONTEXT ( ( #230, #240, #202 ) ) REPRESENTATION_CONTEXT ( 'NONE', 'WORKASPACE' ) );
#207 = FILL_AREA_STYLE ('',( #15 ) ) ;
#208 = ORIENTED_EDGE ( 'NONE', *, *, #153, .F. ) ;
#209 = FACE_OUTER_BOUND ( 'NONE', #24, .T. ) ;
#210 =( LENGTH_UNIT ( ) NAMED_UNIT ( * ) SI_UNIT ( $, .METRE. ) );
#211 = LENGTH_MEASURE_WITH_UNIT ( LENGTH_MEASURE( 0.02539999999999999897 ), #90 );
#212 = AXIS2_PLACEMENT_3D ( 'NONE', #267, #180, #159 ) ;
#213 = PRODUCT_CONTEXT ( 'NONE', #171, 'mechanical' ) ;
#214 = LENGTH_MEASURE_WITH_UNIT ( LENGTH_MEASURE( 0.02539999999999999897 ), #229 );
#215 =( GEOMETRIC_REPRESENTATION_CONTEXT ( 3 ) GLOBAL_UNCERTAINTY_ASSIGNED_CONTEXT ( ( #261 ) ) GLOBAL_UNIT_ASSIGNED_CONTEXT ( ( #225, #190, #253 ) ) REPRESENTATION_CONTEXT ( 'NONE', 'WORKASPACE' ) );
#216 = AXIS2_PLACEMENT_3D ( 'NONE', #137, #18, #64 ) ;
#217 = PRESENTATION_LAYER_ASSIGNMENT (  '', '', ( #236 ) ) ;
#218 = ADVANCED_FACE ( 'NONE', ( #158 ), #224, .T. ) ;
#219 = FILL_AREA_STYLE ('',( #82 ) ) ;
#220 = EDGE_LOOP ( 'NONE', ( #299, #57 ) ) ;
#221 = SURFACE_STYLE_FILL_AREA ( #219 ) ;
#222 = DIRECTION ( 'NONE',  ( -3.498990854706726443E-17, 1.000000000000000000, -0.000000000000000000 ) ) ;
#223 = SURFACE_SIDE_STYLE ('',( #61 ) ) ;
#224 = PLANE ( 'NONE',  #17 ) ;
#225 =( CONVERSION_BASED_UNIT ( 'INCH', #182 ) LENGTH_UNIT ( ) NAMED_UNIT ( #149 ) );
#226 = ADVANCED_FACE ( 'NONE', ( #41 ), #102, .T. ) ;
#227 = EDGE_CURVE ( 'NONE', #178, #257, #55, .T. ) ;
#228 = MECHANICAL_DESIGN_GEOMETRIC_PRESENTATION_REPRESENTATION (  '', ( #68 ), #268 ) ;
#229 =( LENGTH_UNIT ( ) NAMED_UNIT ( * ) SI_UNIT ( $, .METRE. ) );
#230 =( CONVERSION_BASED_UNIT ( 'INCH', #304 ) LENGTH_UNIT ( ) NAMED_UNIT ( #3 ) );
#231 = EDGE_CURVE ( 'NONE', #157, #91, #39, .T. ) ;
#232 = EDGE_LOOP ( 'NONE', ( #156, #107 ) ) ;
#233 = MANIFOLD_SOLID_BREP ( 'Revolve - Tool Body (Straight Shanked)', #172 ) ;
#234 = ADVANCED_FACE ( 'NONE', ( #209 ), #246, .T. ) ;
#235 = EDGE_LOOP ( 'NONE', ( #108, #78, #281, #127 ) ) ;
#236 = STYLED_ITEM ( 'NONE', ( #295 ), #234 ) ;
#237 = AXIS2_PLACEMENT_3D ( 'NONE', #10, #280, #112 ) ;
#238 =( NAMED_UNIT ( * ) PLANE_ANGLE_UNIT ( ) SI_UNIT ( $, .RADIAN. ) );
#239 = EDGE_LOOP ( 'NONE', ( #124, #96 ) ) ;
#240 =( NAMED_UNIT ( * ) PLANE_ANGLE_UNIT ( ) SI_UNIT ( $, .RADIAN. ) );
#241 = CARTESIAN_POINT ( 'NONE',  ( -6.123233995736772199E-17, 3.000000000000000444, 0.000000000000000000 ) ) ;
#242 = LENGTH_MEASURE_WITH_UNIT ( LENGTH_MEASURE( 0.02539999999999999897 ), #195 );
#243 = DIRECTION ( 'NONE',  ( -0.000000000000000000, -1.000000000000000000, -0.000000000000000000 ) ) ;
#244 = EDGE_LOOP ( 'NONE', ( #175, #9, #208, #103 ) ) ;
#245 = LINE ( 'NONE', #13, #169 ) ;
#246 = PLANE ( 'NONE',  #259 ) ;
#247 = DIRECTION ( 'NONE',  ( 0.000000000000000000, 0.000000000000000000, -1.000000000000000000 ) ) ;
#248 =( CONVERSION_BASED_UNIT ( 'INCH', #211 ) LENGTH_UNIT ( ) NAMED_UNIT ( #84 ) );
#249 = STYLED_ITEM ( 'NONE', ( #132 ), #226 ) ;
#250 = DIRECTION ( 'NONE',  ( 0.000000000000000000, 0.000000000000000000, -1.000000000000000000 ) ) ;
#251 =( NAMED_UNIT ( * ) PLANE_ANGLE_UNIT ( ) SI_UNIT ( $, .RADIAN. ) );
#252 = CARTESIAN_POINT ( 'NONE',  ( 0.000000000000000000, 1.250000000000000000, 0.000000000000000000 ) ) ;
#253 =( NAMED_UNIT ( * ) SI_UNIT ( $, .STERADIAN. ) SOLID_ANGLE_UNIT ( ) );
#254 = ORIENTED_EDGE ( 'NONE', *, *, #4, .F. ) ;
#255 = CARTESIAN_POINT ( 'NONE',  ( -6.123233995736772199E-17, 3.000000000000000444, 0.000000000000000000 ) ) ;
#256 = DIRECTION ( 'NONE',  ( -0.000000000000000000, -1.000000000000000000, -0.000000000000000000 ) ) ;
#257 = VERTEX_POINT ( 'NONE', #183 ) ;
#258 = UNCERTAINTY_MEASURE_WITH_UNIT (LENGTH_MEASURE( 1.000000000000000082E-05 ), #230, 'distance_accuracy_value', 'NONE');
#259 = AXIS2_PLACEMENT_3D ( 'NONE', #270, #301, #86 ) ;
#260 =( NAMED_UNIT ( * ) SI_UNIT ( $, .STERADIAN. ) SOLID_ANGLE_UNIT ( ) );
#261 = UNCERTAINTY_MEASURE_WITH_UNIT (LENGTH_MEASURE( 1.000000000000000082E-05 ), #225, 'distance_accuracy_value', 'NONE');
#262 = CARTESIAN_POINT ( 'NONE',  ( 0.000000000000000000, 0.000000000000000000, 0.000000000000000000 ) ) ;
#263 = PRODUCT_DEFINITION_FORMATION_WITH_SPECIFIED_SOURCE ( 'ANY', '', #147, .NOT_KNOWN. ) ;
#264 = CIRCLE ( 'NONE', #176, 0.2500000000000000000 ) ;
#265 = PRODUCT_DEFINITION_SHAPE ( 'NONE', 'NONE',  #144 ) ;
#266 = FILL_AREA_STYLE ('',( #179 ) ) ;
#267 = CARTESIAN_POINT ( 'NONE',  ( 0.000000000000000000, 0.000000000000000000, 0.000000000000000000 ) ) ;
#268 =( GEOMETRIC_REPRESENTATION_CONTEXT ( 3 ) GLOBAL_UNCERTAINTY_ASSIGNED_CONTEXT ( ( #273 ) ) GLOBAL_UNIT_ASSIGNED_CONTEXT ( ( #35, #238, #286 ) ) REPRESENTATION_CONTEXT ( 'NONE', 'WORKASPACE' ) );
#269 = DIRECTION ( 'NONE',  ( -3.498990854706726443E-17, 1.000000000000000000, 0.000000000000000000 ) ) ;
#270 = CARTESIAN_POINT ( 'NONE',  ( 0.000000000000000000, 1.250000000000000000, 0.000000000000000000 ) ) ;
#271 = LENGTH_MEASURE_WITH_UNIT ( LENGTH_MEASURE( 0.02539999999999999897 ), #184 );
#272 = FILL_AREA_STYLE ('',( #302 ) ) ;
#273 = UNCERTAINTY_MEASURE_WITH_UNIT (LENGTH_MEASURE( 1.000000000000000082E-05 ), #35, 'distance_accuracy_value', 'NONE');
#274 = CARTESIAN_POINT ( 'NONE',  ( 0.000000000000000000, 0.000000000000000000, -0.2500000000000000000 ) ) ;
#275 =( GEOMETRIC_REPRESENTATION_CONTEXT ( 3 ) GLOBAL_UNCERTAINTY_ASSIGNED_CONTEXT ( ( #36 ) ) GLOBAL_UNIT_ASSIGNED_CONTEXT ( ( #248, #136, #134 ) ) REPRESENTATION_CONTEXT ( 'NONE', 'WORKASPACE' ) );
#276 = COLOUR_RGB ( '',1.000000000000000000, 0.000000000000000000, 0.000000000000000000 ) ;
#277 = EDGE_CURVE ( 'NONE', #178, #37, #45, .T. ) ;
#278 = LENGTH_MEASURE_WITH_UNIT ( LENGTH_MEASURE( 0.02539999999999999897 ), #170 );
#279 = AXIS2_PLACEMENT_3D ( 'NONE', #140, #269, #44 ) ;
#280 = DIRECTION ( 'NONE',  ( -3.498990854706726443E-17, 1.000000000000000000, -0.000000000000000000 ) ) ;
#281 = ORIENTED_EDGE ( 'NONE', *, *, #277, .T. ) ;
#282 = ADVANCED_FACE ( 'NONE', ( #111 ), #11, .F. ) ;
#283 = DIMENSIONAL_EXPONENTS ( 1.000000000000000000, 0.000000000000000000, 0.000000000000000000, 0.000000000000000000, 0.000000000000000000, 0.000000000000000000, 0.000000000000000000 ) ;
#284 = FACE_OUTER_BOUND ( 'NONE', #122, .T. ) ;
#285 = CIRCLE ( 'NONE', #194, 0.2500000000000000000 ) ;
#286 =( NAMED_UNIT ( * ) SI_UNIT ( $, .STERADIAN. ) SOLID_ANGLE_UNIT ( ) );
#287 = SURFACE_SIDE_STYLE ('',( #85 ) ) ;
#288 = ORIENTED_EDGE ( 'NONE', *, *, #231, .F. ) ;
#289 = EDGE_LOOP ( 'NONE', ( #60, #93, #80, #32 ) ) ;
#290 = PRESENTATION_LAYER_ASSIGNMENT (  '', '', ( #125 ) ) ;
#291 = MECHANICAL_DESIGN_GEOMETRIC_PRESENTATION_REPRESENTATION (  '', ( #152 ), #71 ) ;
#292 = DIRECTION ( 'NONE',  ( -0.000000000000000000, -1.000000000000000000, -0.000000000000000000 ) ) ;
#293 = SURFACE_STYLE_USAGE ( .BOTH. , #223 ) ;
#294 = SURFACE_STYLE_FILL_AREA ( #205 ) ;
#295 = PRESENTATION_STYLE_ASSIGNMENT (( #293 ) ) ;
#296 = PRESENTATION_LAYER_ASSIGNMENT (  '', '', ( #249 ) ) ;
#297 = CARTESIAN_POINT ( 'NONE',  ( 0.000000000000000000, 1.250000000000000000, 0.000000000000000000 ) ) ;
#298 = AXIS2_PLACEMENT_3D ( 'NONE', #255, #52, #99 ) ;
#299 = ORIENTED_EDGE ( 'NONE', *, *, #227, .F. ) ;
#300 = DIRECTION ( 'NONE',  ( 0.000000000000000000, 0.000000000000000000, -1.000000000000000000 ) ) ;
#301 = DIRECTION ( 'NONE',  ( 0.000000000000000000, 1.000000000000000000, 0.000000000000000000 ) ) ;
#302 = FILL_AREA_STYLE_COLOUR ( '', #59 ) ;
#303 = LINE ( 'NONE', #92, #110 ) ;
#304 = LENGTH_MEASURE_WITH_UNIT ( LENGTH_MEASURE( 0.02539999999999999897 ), #210 );
#305 =( GEOMETRIC_REPRESENTATION_CONTEXT ( 3 ) GLOBAL_UNCERTAINTY_ASSIGNED_CONTEXT ( ( #79 ) ) GLOBAL_UNIT_ASSIGNED_CONTEXT ( ( #65, #251, #63 ) ) REPRESENTATION_CONTEXT ( 'NONE', 'WORKASPACE' ) );
#306 = LINE ( 'NONE', #274, #7 ) ;
#307 = DIRECTION ( 'NONE',  ( 1.000000000000000000, 3.498990854706726443E-17, 0.000000000000000000 ) ) ;
#308 =( CONVERSION_BASED_UNIT ( 'INCH', #214 ) LENGTH_UNIT ( ) NAMED_UNIT ( #129 ) );
#309 = ORIENTED_EDGE ( 'NONE', *, *, #167, .T. ) ;
ENDSEC;
END-ISO-10303-21;
