ISO-10303-21;
HEADER;
FILE_DESCRIPTION (( 'STEP AP214' ),
    '1' );
FILE_NAME ('Micro_AEMM-080-2.STEP',
    '2022-03-15T14:28:43',
    ( '' ),
    ( '' ),
    'SwSTEP 2.0',
    'SolidWorks 2022',
    '' );
FILE_SCHEMA (( 'AUTOMOTIVE_DESIGN' ));
ENDSEC;

DATA;
#1 = DIRECTION ( 'NONE',  ( -1.224646799147353207E-16, -0.000000000000000000, -1.000000000000000000 ) ) ;
#2 =( GEOMETRIC_REPRESENTATION_CONTEXT ( 3 ) GLOBAL_UNCERTAINTY_ASSIGNED_CONTEXT ( ( #66 ) ) GLOBAL_UNIT_ASSIGNED_CONTEXT ( ( #60, #141, #160 ) ) REPRESENTATION_CONTEXT ( 'NONE', 'WORKASPACE' ) );
#3 = EDGE_LOOP ( 'NONE', ( #136, #129, #187, #258 ) ) ;
#4 = EDGE_LOOP ( 'NONE', ( #61, #248, #76, #112 ) ) ;
#5 = PRESENTATION_LAYER_ASSIGNMENT (  '', '', ( #41 ) ) ;
#6 = SURFACE_STYLE_FILL_AREA ( #199 ) ;
#7 = ORIENTED_EDGE ( 'NONE', *, *, #25, .F. ) ;
#8 = ADVANCED_FACE ( 'NONE', ( #220 ), #204, .T. ) ;
#9 = LINE ( 'NONE', #99, #77 ) ;
#10 =( LENGTH_UNIT ( ) NAMED_UNIT ( * ) SI_UNIT ( $, .METRE. ) );
#11 = SURFACE_STYLE_USAGE ( .BOTH. , #231 ) ;
#12 = CYLINDRICAL_SURFACE ( 'NONE', #253, 0.1574804999999999955 ) ;
#13 = AXIS2_PLACEMENT_3D ( 'NONE', #124, #222, #68 ) ;
#14 = CARTESIAN_POINT ( 'NONE',  ( 0.000000000000000000, 0.000000000000000000, 0.000000000000000000 ) ) ;
#15 = PRODUCT_DEFINITION ( 'UNKNOWN', '', #114, #213 ) ;
#16 = AXIS2_PLACEMENT_3D ( 'NONE', #131, #70, #30 ) ;
#17 = DIRECTION ( 'NONE',  ( 1.000000000000000000, 0.000000000000000000, -0.000000000000000000 ) ) ;
#18 = EDGE_CURVE ( 'NONE', #155, #228, #175, .T. ) ;
#19 = CARTESIAN_POINT ( 'NONE',  ( 0.000000000000000000, 0.000000000000000000, 2.480315000000000047 ) ) ;
#20 = DIMENSIONAL_EXPONENTS ( 1.000000000000000000, 0.000000000000000000, 0.000000000000000000, 0.000000000000000000, 0.000000000000000000, 0.000000000000000000, 0.000000000000000000 ) ;
#21 = CARTESIAN_POINT ( 'NONE',  ( -0.1573230194999999387, 1.927615612579982019E-17, 0.8661419999999999675 ) ) ;
#22 = ORIENTED_EDGE ( 'NONE', *, *, #256, .F. ) ;
#23 = CONICAL_SURFACE ( 'NONE', #250, 0.1424804999999990940, 0.7853981633974699283 ) ;
#24 = FACE_OUTER_BOUND ( 'NONE', #221, .T. ) ;
#25 = EDGE_CURVE ( 'NONE', #33, #181, #180, .T. ) ;
#26 = CARTESIAN_POINT ( 'NONE',  ( 1.061811779920977108E-16, 0.000000000000000000, 0.8670351162965940217 ) ) ;
#27 = ORIENTED_EDGE ( 'NONE', *, *, #142, .T. ) ;
#28 = ORIENTED_EDGE ( 'NONE', *, *, #256, .T. ) ;
#29 = MECHANICAL_DESIGN_GEOMETRIC_PRESENTATION_REPRESENTATION (  '', ( #161 ), #2 ) ;
#30 = DIRECTION ( 'NONE',  ( -1.000000000000000000, 0.000000000000000000, 0.000000000000000000 ) ) ;
#31 =( NAMED_UNIT ( * ) SI_UNIT ( $, .STERADIAN. ) SOLID_ANGLE_UNIT ( ) );
#32 = FILL_AREA_STYLE_COLOUR ( '', #200 ) ;
#33 = VERTEX_POINT ( 'NONE', #156 ) ;
#34 = ORIENTED_EDGE ( 'NONE', *, *, #189, .F. ) ;
#35 = CARTESIAN_POINT ( 'NONE',  ( 0.000000000000000000, 0.000000000000000000, 0.000000000000000000 ) ) ;
#36 = LENGTH_MEASURE_WITH_UNIT ( LENGTH_MEASURE( 0.02539999999999999897 ), #39 );
#37 = VECTOR ( 'NONE', #267, 39.37007874015747433 ) ;
#38 = EDGE_CURVE ( 'NONE', #228, #55, #123, .T. ) ;
#39 =( LENGTH_UNIT ( ) NAMED_UNIT ( * ) SI_UNIT ( $, .METRE. ) );
#40 = EDGE_CURVE ( 'NONE', #246, #55, #125, .T. ) ;
#41 = STYLED_ITEM ( 'NONE', ( #157 ), #101 ) ;
#42 = PRESENTATION_LAYER_ASSIGNMENT (  '', '', ( #161 ) ) ;
#43 = DIRECTION ( 'NONE',  ( 0.000000000000000000, 0.000000000000000000, 1.000000000000000000 ) ) ;
#44 =( GEOMETRIC_REPRESENTATION_CONTEXT ( 3 ) GLOBAL_UNCERTAINTY_ASSIGNED_CONTEXT ( ( #164 ) ) GLOBAL_UNIT_ASSIGNED_CONTEXT ( ( #95, #273, #31 ) ) REPRESENTATION_CONTEXT ( 'NONE', 'WORKASPACE' ) );
#45 = EDGE_CURVE ( 'NONE', #246, #245, #9, .T. ) ;
#46 = DIRECTION ( 'NONE',  ( -1.224646799147353207E-16, -0.000000000000000000, -1.000000000000000000 ) ) ;
#47 = PLANE ( 'NONE',  #294 ) ;
#48 = ORIENTED_EDGE ( 'NONE', *, *, #25, .T. ) ;
#49 = CARTESIAN_POINT ( 'NONE',  ( 1.060718027907086782E-16, 0.000000000000000000, 0.8661419999999999675 ) ) ;
#50 = FACE_OUTER_BOUND ( 'NONE', #133, .T. ) ;
#51 = DIRECTION ( 'NONE',  ( 1.224646799147353207E-16, 0.000000000000000000, 1.000000000000000000 ) ) ;
#52 = DIRECTION ( 'NONE',  ( 0.000000000000000000, 0.000000000000000000, -1.000000000000000000 ) ) ;
#53 = SURFACE_STYLE_FILL_AREA ( #162 ) ;
#54 = CARTESIAN_POINT ( 'NONE',  ( 0.000000000000000000, 0.000000000000000000, 2.480315000000000047 ) ) ;
#55 = VERTEX_POINT ( 'NONE', #281 ) ;
#56 = LENGTH_MEASURE_WITH_UNIT ( LENGTH_MEASURE( 0.02539999999999999897 ), #10 );
#57 = CARTESIAN_POINT ( 'NONE',  ( -0.1574804999999999955, 0.000000000000000000, 2.465314999999999923 ) ) ;
#58 = AXIS2_PLACEMENT_3D ( 'NONE', #236, #282, #292 ) ;
#59 = ORIENTED_EDGE ( 'NONE', *, *, #287, .T. ) ;
#60 =( CONVERSION_BASED_UNIT ( 'INCH', #110 ) LENGTH_UNIT ( ) NAMED_UNIT ( #191 ) );
#61 = ORIENTED_EDGE ( 'NONE', *, *, #188, .F. ) ;
#62 = CONICAL_SURFACE ( 'NONE', #135, 0.1424804999999990940, 0.7853981633974699283 ) ;
#63 = ADVANCED_FACE ( 'NONE', ( #179 ), #62, .T. ) ;
#64 = CIRCLE ( 'NONE', #58, 0.1574804999999999955 ) ;
#65 = AXIS2_PLACEMENT_3D ( 'NONE', #49, #98, #241 ) ;
#66 = UNCERTAINTY_MEASURE_WITH_UNIT (LENGTH_MEASURE( 1.000000000000000082E-05 ), #60, 'distance_accuracy_value', 'NONE');
#67 = DIRECTION ( 'NONE',  ( 1.000000000000000000, 0.000000000000000000, 0.000000000000000000 ) ) ;
#68 = DIRECTION ( 'NONE',  ( -1.000000000000000000, 0.000000000000000000, 1.224646799147353454E-16 ) ) ;
#69 = LINE ( 'NONE', #105, #274 ) ;
#70 = DIRECTION ( 'NONE',  ( -0.000000000000000000, -0.000000000000000000, -1.000000000000000000 ) ) ;
#71 = ADVANCED_FACE ( 'NONE', ( #50 ), #23, .T. ) ;
#72 = CARTESIAN_POINT ( 'NONE',  ( 1.060718027907086782E-16, 0.000000000000000000, 0.8661419999999999675 ) ) ;
#73 = DIRECTION ( 'NONE',  ( 0.7071067811865627828, 8.659560562355118980E-17, -0.7071067811865321406 ) ) ;
#74 = APPLICATION_CONTEXT ( 'automotive_design' ) ;
#75 = CARTESIAN_POINT ( 'NONE',  ( -0.1424804999999990940, 0.000000000000000000, 2.480315000000000047 ) ) ;
#76 = ORIENTED_EDGE ( 'NONE', *, *, #270, .T. ) ;
#77 = VECTOR ( 'NONE', #196, 39.37007874015748143 ) ;
#78 = ORIENTED_EDGE ( 'NONE', *, *, #287, .F. ) ;
#79 = PRODUCT_CONTEXT ( 'NONE', #74, 'mechanical' ) ;
#80 = ORIENTED_EDGE ( 'NONE', *, *, #139, .F. ) ;
#81 = VERTEX_POINT ( 'NONE', #57 ) ;
#82 = APPLICATION_PROTOCOL_DEFINITION ( 'draft international standard', 'automotive_design', 1998, #94 ) ;
#83 = EDGE_CURVE ( 'NONE', #33, #249, #202, .T. ) ;
#84 = DIRECTION ( 'NONE',  ( -1.224646799147353207E-16, -0.000000000000000000, -1.000000000000000000 ) ) ;
#85 = ORIENTED_EDGE ( 'NONE', *, *, #45, .F. ) ;
#86 = PRESENTATION_STYLE_ASSIGNMENT (( #11 ) ) ;
#87 = FACE_OUTER_BOUND ( 'NONE', #4, .T. ) ;
#88 =( LENGTH_UNIT ( ) NAMED_UNIT ( * ) SI_UNIT ( $, .METRE. ) );
#89 = ORIENTED_EDGE ( 'NONE', *, *, #40, .F. ) ;
#90 = APPLICATION_PROTOCOL_DEFINITION ( 'draft international standard', 'automotive_design', 1998, #74 ) ;
#91 = DIRECTION ( 'NONE',  ( -0.000000000000000000, -0.000000000000000000, -1.000000000000000000 ) ) ;
#92 = FACE_OUTER_BOUND ( 'NONE', #177, .T. ) ;
#93 = CLOSED_SHELL ( 'NONE', ( #197, #109, #63, #8, #120, #264, #71, #167, #132, #184 ) ) ;
#94 = APPLICATION_CONTEXT ( 'automotive_design' ) ;
#95 =( CONVERSION_BASED_UNIT ( 'INCH', #36 ) LENGTH_UNIT ( ) NAMED_UNIT ( #255 ) );
#96 = FACE_OUTER_BOUND ( 'NONE', #226, .T. ) ;
#97 = LINE ( 'NONE', #278, #186 ) ;
#98 = DIRECTION ( 'NONE',  ( -1.224646799147353207E-16, -0.000000000000000000, -1.000000000000000000 ) ) ;
#99 = CARTESIAN_POINT ( 'NONE',  ( -0.1573230195000000220, 0.000000000000000000, 1.926651322628716935E-17 ) ) ;
#100 = DIRECTION ( 'NONE',  ( 1.000000000000000000, 0.000000000000000000, 0.000000000000000000 ) ) ;
#101 = MANIFOLD_SOLID_BREP ( 'Cut-Revolve1', #93 ) ;
#102 = FILL_AREA_STYLE_COLOUR ( '', #247 ) ;
#103 = ORIENTED_EDGE ( 'NONE', *, *, #38, .F. ) ;
#104 = AXIS2_PLACEMENT_3D ( 'NONE', #35, #113, #230 ) ;
#105 = CARTESIAN_POINT ( 'NONE',  ( 0.1573230195000000220, 1.926651322628716935E-17, -1.926651322628716935E-17 ) ) ;
#106 = DIRECTION ( 'NONE',  ( -1.000000000000000000, 0.000000000000000000, 0.000000000000000000 ) ) ;
#107 = CIRCLE ( 'NONE', #272, 0.1574804999999999955 ) ;
#108 = ORIENTED_EDGE ( 'NONE', *, *, #237, .F. ) ;
#109 = ADVANCED_FACE ( 'NONE', ( #87 ), #143, .T. ) ;
#110 = LENGTH_MEASURE_WITH_UNIT ( LENGTH_MEASURE( 0.02539999999999999897 ), #88 );
#111 = CIRCLE ( 'NONE', #144, 0.1573230195000000220 ) ;
#112 = ORIENTED_EDGE ( 'NONE', *, *, #18, .F. ) ;
#113 = DIRECTION ( 'NONE',  ( 0.000000000000000000, 0.000000000000000000, 1.000000000000000000 ) ) ;
#114 = PRODUCT_DEFINITION_FORMATION_WITH_SPECIFIED_SOURCE ( 'ANY', '', #138, .NOT_KNOWN. ) ;
#115 = PRODUCT_RELATED_PRODUCT_CATEGORY ( 'part', '', ( #138 ) ) ;
#116 = CARTESIAN_POINT ( 'NONE',  ( 1.060718027907086782E-16, 0.000000000000000000, 0.8661419999999999675 ) ) ;
#117 = SHAPE_DEFINITION_REPRESENTATION ( #235, #240 ) ;
#118 = AXIS2_PLACEMENT_3D ( 'NONE', #14, #165, #276 ) ;
#119 = DIRECTION ( 'NONE',  ( 0.000000000000000000, 0.000000000000000000, -1.000000000000000000 ) ) ;
#120 = ADVANCED_FACE ( 'NONE', ( #92 ), #12, .T. ) ;
#121 = CARTESIAN_POINT ( 'NONE',  ( 0.000000000000000000, 0.000000000000000000, 0.000000000000000000 ) ) ;
#122 = AXIS2_PLACEMENT_3D ( 'NONE', #254, #257, #193 ) ;
#123 = CIRCLE ( 'NONE', #212, 0.1574804999999999955 ) ;
#124 = CARTESIAN_POINT ( 'NONE',  ( 2.359467375330272285E-33, 0.000000000000000000, 1.926651322628716627E-17 ) ) ;
#125 = LINE ( 'NONE', #265, #37 ) ;
#126 = CARTESIAN_POINT ( 'NONE',  ( 0.1574804999999999955, 1.928579902531247412E-17, 2.465314999999999923 ) ) ;
#127 = AXIS2_PLACEMENT_3D ( 'NONE', #176, #150, #100 ) ;
#128 = DIRECTION ( 'NONE',  ( 1.000000000000000000, 0.000000000000000000, 0.000000000000000000 ) ) ;
#129 = ORIENTED_EDGE ( 'NONE', *, *, #139, .T. ) ;
#130 = DIRECTION ( 'NONE',  ( -1.224646799147353207E-16, -0.000000000000000000, -1.000000000000000000 ) ) ;
#131 = CARTESIAN_POINT ( 'NONE',  ( 0.000000000000000000, 0.000000000000000000, 2.480315000000000047 ) ) ;
#132 = ADVANCED_FACE ( 'NONE', ( #145 ), #190, .T. ) ;
#133 = EDGE_LOOP ( 'NONE', ( #7, #34, #205, #22 ) ) ;
#134 = DIRECTION ( 'NONE',  ( 1.000000000000000000, 0.000000000000000000, 0.000000000000000000 ) ) ;
#135 = AXIS2_PLACEMENT_3D ( 'NONE', #260, #52, #106 ) ;
#136 = ORIENTED_EDGE ( 'NONE', *, *, #227, .F. ) ;
#137 = EDGE_LOOP ( 'NONE', ( #207, #243, #108, #85 ) ) ;
#138 = PRODUCT ( 'Micro_AEMM-080-2', 'Micro_AEMM-080-2', '', ( #79 ) ) ;
#139 = EDGE_CURVE ( 'NONE', #155, #246, #277, .T. ) ;
#140 = VECTOR ( 'NONE', #284, 39.37007874015748143 ) ;
#141 =( NAMED_UNIT ( * ) PLANE_ANGLE_UNIT ( ) SI_UNIT ( $, .RADIAN. ) );
#142 = EDGE_CURVE ( 'NONE', #81, #181, #107, .T. ) ;
#143 = CONICAL_SURFACE ( 'NONE', #224, 0.1573230195000000220, 0.1745329251994338360 ) ;
#144 = AXIS2_PLACEMENT_3D ( 'NONE', #72, #46, #298 ) ;
#145 = FACE_OUTER_BOUND ( 'NONE', #3, .T. ) ;
#146 = CARTESIAN_POINT ( 'NONE',  ( 0.1573230195000001330, 0.000000000000000000, 0.8661419999999999675 ) ) ;
#147 = CARTESIAN_POINT ( 'NONE',  ( -0.1573230194999999942, 0.000000000000000000, 3.853302645257433254E-17 ) ) ;
#148 = DIRECTION ( 'NONE',  ( -0.000000000000000000, -0.000000000000000000, -1.000000000000000000 ) ) ;
#149 = CARTESIAN_POINT ( 'NONE',  ( 0.1573230195000001330, 0.000000000000000000, 0.8661419999999999675 ) ) ;
#150 = DIRECTION ( 'NONE',  ( 0.000000000000000000, 0.000000000000000000, 1.000000000000000000 ) ) ;
#151 = DIRECTION ( 'NONE',  ( -1.000000000000000000, 0.000000000000000000, 0.000000000000000000 ) ) ;
#152 = CIRCLE ( 'NONE', #127, 0.1424804999999990940 ) ;
#153 = DIRECTION ( 'NONE',  ( 1.000000000000000000, 0.000000000000000000, -0.000000000000000000 ) ) ;
#154 = DIRECTION ( 'NONE',  ( 0.000000000000000000, 0.000000000000000000, 1.000000000000000000 ) ) ;
#155 = VERTEX_POINT ( 'NONE', #146 ) ;
#156 = CARTESIAN_POINT ( 'NONE',  ( 0.1424804999999990940, 1.836731392595189962E-17, 2.480315000000000047 ) ) ;
#157 = PRESENTATION_STYLE_ASSIGNMENT (( #183 ) ) ;
#158 = VECTOR ( 'NONE', #251, 39.37007874015748143 ) ;
#159 = ORIENTED_EDGE ( 'NONE', *, *, #83, .T. ) ;
#160 =( NAMED_UNIT ( * ) SI_UNIT ( $, .STERADIAN. ) SOLID_ANGLE_UNIT ( ) );
#161 = STYLED_ITEM ( 'NONE', ( #86 ), #240 ) ;
#162 = FILL_AREA_STYLE ('',( #32 ) ) ;
#163 = EDGE_CURVE ( 'NONE', #181, #228, #178, .T. ) ;
#164 = UNCERTAINTY_MEASURE_WITH_UNIT (LENGTH_MEASURE( 1.000000000000000082E-05 ), #95, 'distance_accuracy_value', 'NONE');
#165 = DIRECTION ( 'NONE',  ( -1.224646799147353207E-16, -0.000000000000000000, -1.000000000000000000 ) ) ;
#166 =( GEOMETRIC_REPRESENTATION_CONTEXT ( 3 ) GLOBAL_UNCERTAINTY_ASSIGNED_CONTEXT ( ( #170 ) ) GLOBAL_UNIT_ASSIGNED_CONTEXT ( ( #210, #182, #225 ) ) REPRESENTATION_CONTEXT ( 'NONE', 'WORKASPACE' ) );
#167 = ADVANCED_FACE ( 'NONE', ( #24 ), #269, .T. ) ;
#168 = CARTESIAN_POINT ( 'NONE',  ( 0.000000000000000000, 0.000000000000000000, 2.480315000000000047 ) ) ;
#169 = CARTESIAN_POINT ( 'NONE',  ( 0.1574804999999999955, 1.928579902531247412E-17, 2.480315000000000047 ) ) ;
#170 = UNCERTAINTY_MEASURE_WITH_UNIT (LENGTH_MEASURE( 1.000000000000000082E-05 ), #210, 'distance_accuracy_value', 'NONE');
#171 = DIRECTION ( 'NONE',  ( -0.7071067811865627828, 0.000000000000000000, -0.7071067811865321406 ) ) ;
#172 = EDGE_CURVE ( 'NONE', #263, #245, #239, .T. ) ;
#173 = CIRCLE ( 'NONE', #122, 0.1573230194999999942 ) ;
#174 = CARTESIAN_POINT ( 'NONE',  ( 0.000000000000000000, 0.000000000000000000, 2.465314999999999923 ) ) ;
#175 = LINE ( 'NONE', #149, #140 ) ;
#176 = CARTESIAN_POINT ( 'NONE',  ( 0.000000000000000000, 0.000000000000000000, 2.480315000000000047 ) ) ;
#177 = EDGE_LOOP ( 'NONE', ( #283, #28, #59, #103 ) ) ;
#178 = LINE ( 'NONE', #169, #158 ) ;
#179 = FACE_OUTER_BOUND ( 'NONE', #288, .T. ) ;
#180 = LINE ( 'NONE', #206, #291 ) ;
#181 = VERTEX_POINT ( 'NONE', #126 ) ;
#182 =( NAMED_UNIT ( * ) PLANE_ANGLE_UNIT ( ) SI_UNIT ( $, .RADIAN. ) );
#183 = SURFACE_STYLE_USAGE ( .BOTH. , #285 ) ;
#184 = ADVANCED_FACE ( 'NONE', ( #296 ), #261, .F. ) ;
#185 = ORIENTED_EDGE ( 'NONE', *, *, #83, .F. ) ;
#186 = VECTOR ( 'NONE', #148, 39.37007874015748143 ) ;
#187 = ORIENTED_EDGE ( 'NONE', *, *, #45, .T. ) ;
#188 = EDGE_CURVE ( 'NONE', #246, #155, #111, .T. ) ;
#189 = EDGE_CURVE ( 'NONE', #249, #33, #152, .T. ) ;
#190 = CYLINDRICAL_SURFACE ( 'NONE', #118, 0.1573230195000000220 ) ;
#191 = DIMENSIONAL_EXPONENTS ( 1.000000000000000000, 0.000000000000000000, 0.000000000000000000, 0.000000000000000000, 0.000000000000000000, 0.000000000000000000, 0.000000000000000000 ) ;
#192 = DIRECTION ( 'NONE',  ( 1.000000000000000000, 0.000000000000000000, 0.000000000000000000 ) ) ;
#193 = DIRECTION ( 'NONE',  ( -1.000000000000000000, 0.000000000000000000, 1.224646799147353454E-16 ) ) ;
#194 = ORIENTED_EDGE ( 'NONE', *, *, #189, .T. ) ;
#195 = FACE_OUTER_BOUND ( 'NONE', #137, .T. ) ;
#196 = DIRECTION ( 'NONE',  ( -1.224646799147353207E-16, -0.000000000000000000, -1.000000000000000000 ) ) ;
#197 = ADVANCED_FACE ( 'NONE', ( #195 ), #280, .T. ) ;
#198 = LINE ( 'NONE', #234, #290 ) ;
#199 = FILL_AREA_STYLE ('',( #102 ) ) ;
#200 = COLOUR_RGB ( '',0.7921568627450980005, 0.8196078431372548767, 0.9333333333333333481 ) ;
#201 = AXIS2_PLACEMENT_3D ( 'NONE', #26, #1, #293 ) ;
#202 = CIRCLE ( 'NONE', #289, 0.1424804999999990940 ) ;
#203 = CARTESIAN_POINT ( 'NONE',  ( 0.1574805000000000788, 1.928579902531248645E-17, 0.8670351162965940217 ) ) ;
#204 = CYLINDRICAL_SURFACE ( 'NONE', #16, 0.1574804999999999955 ) ;
#205 = ORIENTED_EDGE ( 'NONE', *, *, #232, .T. ) ;
#206 = CARTESIAN_POINT ( 'NONE',  ( 0.1424804999999990940, 1.744882882659133128E-17, 2.480315000000000047 ) ) ;
#207 = ORIENTED_EDGE ( 'NONE', *, *, #188, .T. ) ;
#208 = MECHANICAL_DESIGN_GEOMETRIC_PRESENTATION_REPRESENTATION (  '', ( #41 ), #44 ) ;
#209 = ORIENTED_EDGE ( 'NONE', *, *, #172, .T. ) ;
#210 =( CONVERSION_BASED_UNIT ( 'INCH', #56 ) LENGTH_UNIT ( ) NAMED_UNIT ( #20 ) );
#211 = DIRECTION ( 'NONE',  ( -1.000000000000000000, 0.000000000000000000, 0.000000000000000000 ) ) ;
#212 = AXIS2_PLACEMENT_3D ( 'NONE', #223, #84, #128 ) ;
#213 = PRODUCT_DEFINITION_CONTEXT ( 'detailed design', #94, 'design' ) ;
#214 = DIRECTION ( 'NONE',  ( -1.000000000000000000, 0.000000000000000000, 1.224646799147353454E-16 ) ) ;
#215 = DIRECTION ( 'NONE',  ( 0.000000000000000000, 0.000000000000000000, 1.000000000000000000 ) ) ;
#216 = AXIS2_PLACEMENT_3D ( 'NONE', #219, #43, #17 ) ;
#217 = CARTESIAN_POINT ( 'NONE',  ( 0.1573230194999999942, 1.926651322628716627E-17, 3.791200677927629740E-33 ) ) ;
#218 = ORIENTED_EDGE ( 'NONE', *, *, #163, .T. ) ;
#219 = CARTESIAN_POINT ( 'NONE',  ( 0.000000000000000000, 0.000000000000000000, 0.000000000000000000 ) ) ;
#220 = FACE_OUTER_BOUND ( 'NONE', #268, .T. ) ;
#221 = EDGE_LOOP ( 'NONE', ( #89, #80, #279, #238 ) ) ;
#222 = DIRECTION ( 'NONE',  ( -1.224646799147353207E-16, -0.000000000000000000, -1.000000000000000000 ) ) ;
#223 = CARTESIAN_POINT ( 'NONE',  ( 1.061811779920977108E-16, 0.000000000000000000, 0.8670351162965940217 ) ) ;
#224 = AXIS2_PLACEMENT_3D ( 'NONE', #116, #229, #233 ) ;
#225 =( NAMED_UNIT ( * ) SI_UNIT ( $, .STERADIAN. ) SOLID_ANGLE_UNIT ( ) );
#226 = EDGE_LOOP ( 'NONE', ( #194, #159 ) ) ;
#227 = EDGE_CURVE ( 'NONE', #155, #263, #69, .T. ) ;
#228 = VERTEX_POINT ( 'NONE', #203 ) ;
#229 = DIRECTION ( 'NONE',  ( 1.224646799147353207E-16, 0.000000000000000000, 1.000000000000000000 ) ) ;
#230 = DIRECTION ( 'NONE',  ( 1.000000000000000000, 0.000000000000000000, 0.000000000000000000 ) ) ;
#231 = SURFACE_SIDE_STYLE ('',( #53 ) ) ;
#232 = EDGE_CURVE ( 'NONE', #249, #81, #198, .T. ) ;
#233 = DIRECTION ( 'NONE',  ( 1.000000000000000000, 0.000000000000000000, 0.000000000000000000 ) ) ;
#234 = CARTESIAN_POINT ( 'NONE',  ( -0.1424804999999990940, 0.000000000000000000, 2.480315000000000047 ) ) ;
#235 = PRODUCT_DEFINITION_SHAPE ( 'NONE', 'NONE',  #15 ) ;
#236 = CARTESIAN_POINT ( 'NONE',  ( 0.000000000000000000, 0.000000000000000000, 2.465314999999999923 ) ) ;
#237 = EDGE_CURVE ( 'NONE', #245, #263, #173, .T. ) ;
#238 = ORIENTED_EDGE ( 'NONE', *, *, #38, .T. ) ;
#239 = CIRCLE ( 'NONE', #13, 0.1573230194999999942 ) ;
#240 = ADVANCED_BREP_SHAPE_REPRESENTATION ( 'Micro_AEMM-080-2', ( #101, #104 ), #166 ) ;
#241 = DIRECTION ( 'NONE',  ( -1.000000000000000000, 0.000000000000000000, 0.000000000000000000 ) ) ;
#242 = CARTESIAN_POINT ( 'NONE',  ( 0.000000000000000000, 0.000000000000000000, 2.480315000000000047 ) ) ;
#243 = ORIENTED_EDGE ( 'NONE', *, *, #227, .T. ) ;
#244 = CARTESIAN_POINT ( 'NONE',  ( 1.060718027907086782E-16, 0.000000000000000000, 0.8661419999999999675 ) ) ;
#245 = VERTEX_POINT ( 'NONE', #147 ) ;
#246 = VERTEX_POINT ( 'NONE', #21 ) ;
#247 = COLOUR_RGB ( '',0.7921568627450980005, 0.8196078431372548767, 0.9333333333333333481 ) ;
#248 = ORIENTED_EDGE ( 'NONE', *, *, #40, .T. ) ;
#249 = VERTEX_POINT ( 'NONE', #75 ) ;
#250 = AXIS2_PLACEMENT_3D ( 'NONE', #54, #262, #151 ) ;
#251 = DIRECTION ( 'NONE',  ( -0.000000000000000000, -0.000000000000000000, -1.000000000000000000 ) ) ;
#252 = CIRCLE ( 'NONE', #201, 0.1574804999999999955 ) ;
#253 = AXIS2_PLACEMENT_3D ( 'NONE', #168, #91, #211 ) ;
#254 = CARTESIAN_POINT ( 'NONE',  ( 2.359467375330272285E-33, 0.000000000000000000, 1.926651322628716627E-17 ) ) ;
#255 = DIMENSIONAL_EXPONENTS ( 1.000000000000000000, 0.000000000000000000, 0.000000000000000000, 0.000000000000000000, 0.000000000000000000, 0.000000000000000000, 0.000000000000000000 ) ;
#256 = EDGE_CURVE ( 'NONE', #181, #81, #64, .T. ) ;
#257 = DIRECTION ( 'NONE',  ( -1.224646799147353207E-16, -0.000000000000000000, -1.000000000000000000 ) ) ;
#258 = ORIENTED_EDGE ( 'NONE', *, *, #172, .F. ) ;
#259 = DIRECTION ( 'NONE',  ( -1.224646799147353207E-16, -0.000000000000000000, -1.000000000000000000 ) ) ;
#260 = CARTESIAN_POINT ( 'NONE',  ( 0.000000000000000000, 0.000000000000000000, 2.480315000000000047 ) ) ;
#261 = PLANE ( 'NONE',  #216 ) ;
#262 = DIRECTION ( 'NONE',  ( 0.000000000000000000, 0.000000000000000000, -1.000000000000000000 ) ) ;
#263 = VERTEX_POINT ( 'NONE', #217 ) ;
#264 = ADVANCED_FACE ( 'NONE', ( #96 ), #47, .T. ) ;
#265 = CARTESIAN_POINT ( 'NONE',  ( -0.1573230194999999387, 1.926651322628716935E-17, 0.8661419999999999675 ) ) ;
#266 = EDGE_LOOP ( 'NONE', ( #299, #209 ) ) ;
#267 = DIRECTION ( 'NONE',  ( -0.1736481776669311639, 2.126576849575782392E-17, 0.9848077530122080203 ) ) ;
#268 = EDGE_LOOP ( 'NONE', ( #27, #218, #271, #78 ) ) ;
#269 = CONICAL_SURFACE ( 'NONE', #295, 0.1573230195000000220, 0.1745329251994338360 ) ;
#270 = EDGE_CURVE ( 'NONE', #55, #228, #252, .T. ) ;
#271 = ORIENTED_EDGE ( 'NONE', *, *, #270, .F. ) ;
#272 = AXIS2_PLACEMENT_3D ( 'NONE', #174, #119, #67 ) ;
#273 =( NAMED_UNIT ( * ) PLANE_ANGLE_UNIT ( ) SI_UNIT ( $, .RADIAN. ) );
#274 = VECTOR ( 'NONE', #259, 39.37007874015748143 ) ;
#275 = AXIS2_PLACEMENT_3D ( 'NONE', #121, #130, #214 ) ;
#276 = DIRECTION ( 'NONE',  ( -1.000000000000000000, 0.000000000000000000, 1.224646799147353454E-16 ) ) ;
#277 = CIRCLE ( 'NONE', #65, 0.1573230195000000220 ) ;
#278 = CARTESIAN_POINT ( 'NONE',  ( -0.1574804999999999955, 0.000000000000000000, 2.480315000000000047 ) ) ;
#279 = ORIENTED_EDGE ( 'NONE', *, *, #18, .T. ) ;
#280 = CYLINDRICAL_SURFACE ( 'NONE', #275, 0.1573230195000000220 ) ;
#281 = CARTESIAN_POINT ( 'NONE',  ( -0.1574804999999998845, 0.000000000000000000, 0.8670351162965940217 ) ) ;
#282 = DIRECTION ( 'NONE',  ( 0.000000000000000000, 0.000000000000000000, -1.000000000000000000 ) ) ;
#283 = ORIENTED_EDGE ( 'NONE', *, *, #163, .F. ) ;
#284 = DIRECTION ( 'NONE',  ( 0.1736481776669313304, 0.000000000000000000, 0.9848077530122077983 ) ) ;
#285 = SURFACE_SIDE_STYLE ('',( #6 ) ) ;
#286 = ORIENTED_EDGE ( 'NONE', *, *, #232, .F. ) ;
#287 = EDGE_CURVE ( 'NONE', #81, #55, #97, .T. ) ;
#288 = EDGE_LOOP ( 'NONE', ( #185, #48, #297, #286 ) ) ;
#289 = AXIS2_PLACEMENT_3D ( 'NONE', #242, #154, #134 ) ;
#290 = VECTOR ( 'NONE', #171, 39.37007874015748854 ) ;
#291 = VECTOR ( 'NONE', #73, 39.37007874015748854 ) ;
#292 = DIRECTION ( 'NONE',  ( 1.000000000000000000, 0.000000000000000000, 0.000000000000000000 ) ) ;
#293 = DIRECTION ( 'NONE',  ( 1.000000000000000000, 0.000000000000000000, 0.000000000000000000 ) ) ;
#294 = AXIS2_PLACEMENT_3D ( 'NONE', #19, #215, #153 ) ;
#295 = AXIS2_PLACEMENT_3D ( 'NONE', #244, #51, #192 ) ;
#296 = FACE_OUTER_BOUND ( 'NONE', #266, .T. ) ;
#297 = ORIENTED_EDGE ( 'NONE', *, *, #142, .F. ) ;
#298 = DIRECTION ( 'NONE',  ( -1.000000000000000000, 0.000000000000000000, 0.000000000000000000 ) ) ;
#299 = ORIENTED_EDGE ( 'NONE', *, *, #237, .T. ) ;
ENDSEC;
END-ISO-10303-21;
