ISO-10303-21;
HEADER;
FILE_DESCRIPTION (( 'STEP AP214' ),
    '1' );
FILE_NAME ('49300.STEP',
    '2023-06-30T22:00:13',
    ( '' ),
    ( '' ),
    'SwSTEP 2.0',
    'SolidWorks 2023',
    '' );
FILE_SCHEMA (( 'AUTOMOTIVE_DESIGN' ));
ENDSEC;

DATA;
#1 = SURFACE_STYLE_USAGE ( .BOTH. , #87 ) ;
#2 = DIRECTION ( 'NONE',  ( -1.224646799147353207E-16, 1.000000000000000000, -0.000000000000000000 ) ) ;
#3 = EDGE_CURVE ( 'NONE', #30, #163, #63, .T. ) ;
#4 =( NAMED_UNIT ( * ) SI_UNIT ( $, .STERADIAN. ) SOLID_ANGLE_UNIT ( ) );
#5 = DIRECTION ( 'NONE',  ( 0.000000000000000000, 0.000000000000000000, -1.000000000000000000 ) ) ;
#6 = AXIS2_PLACEMENT_3D ( 'NONE', #73, #215, #42 ) ;
#7 = CYLINDRICAL_SURFACE ( 'NONE', #6, 0.2499999999999998057 ) ;
#8 =( LENGTH_UNIT ( ) NAMED_UNIT ( * ) SI_UNIT ( $, .METRE. ) );
#9 = CARTESIAN_POINT ( 'NONE',  ( 3.061616997868383018E-17, 0.2500000000000000555, 0.2500000000000000000 ) ) ;
#10 = SURFACE_SIDE_STYLE ('',( #341 ) ) ;
#11 = MECHANICAL_DESIGN_GEOMETRIC_PRESENTATION_REPRESENTATION (  '', ( #198 ), #189 ) ;
#12 = SURFACE_SIDE_STYLE ('',( #302 ) ) ;
#13 = DIRECTION ( 'NONE',  ( 0.000000000000000000, 0.000000000000000000, -1.000000000000000000 ) ) ;
#14 = PRESENTATION_STYLE_ASSIGNMENT (( #275 ) ) ;
#15 = ADVANCED_FACE ( 'NONE', ( #204 ), #29, .T. ) ;
#16 = DIRECTION ( 'NONE',  ( -1.000000000000000000, 0.000000000000000000, 0.000000000000000000 ) ) ;
#17 =( GEOMETRIC_REPRESENTATION_CONTEXT ( 3 ) GLOBAL_UNCERTAINTY_ASSIGNED_CONTEXT ( ( #88 ) ) GLOBAL_UNIT_ASSIGNED_CONTEXT ( ( #126, #262, #4 ) ) REPRESENTATION_CONTEXT ( 'NONE', 'WORKASPACE' ) );
#18 = ORIENTED_EDGE ( 'NONE', *, *, #157, .T. ) ;
#19 = FACE_OUTER_BOUND ( 'NONE', #92, .T. ) ;
#20 = ORIENTED_EDGE ( 'NONE', *, *, #190, .T. ) ;
#21 = FACE_OUTER_BOUND ( 'NONE', #52, .T. ) ;
#22 = UNCERTAINTY_MEASURE_WITH_UNIT (LENGTH_MEASURE( 1.000000000000000082E-05 ), #25, 'distance_accuracy_value', 'NONE');
#23 = AXIS2_PLACEMENT_3D ( 'NONE', #373, #188, #175 ) ;
#24 = CARTESIAN_POINT ( 'NONE',  ( 0.000000000000000000, 0.2500000000000000555, 0.000000000000000000 ) ) ;
#25 =( CONVERSION_BASED_UNIT ( 'INCH', #57 ) LENGTH_UNIT ( ) NAMED_UNIT ( #329 ) );
#26 = DIRECTION ( 'NONE',  ( 0.000000000000000000, 0.000000000000000000, -1.000000000000000000 ) ) ;
#27 = STYLED_ITEM ( 'NONE', ( #200 ), #165 ) ;
#28 = PRODUCT_DEFINITION_FORMATION_WITH_SPECIFIED_SOURCE ( 'ANY', '', #66, .NOT_KNOWN. ) ;
#29 = PLANE ( 'NONE',  #58 ) ;
#30 = VERTEX_POINT ( 'NONE', #41 ) ;
#31 = ORIENTED_EDGE ( 'NONE', *, *, #300, .T. ) ;
#32 = CARTESIAN_POINT ( 'NONE',  ( 3.061616997868382402E-17, 0.000000000000000000, 0.2499999999999999167 ) ) ;
#33 =( GEOMETRIC_REPRESENTATION_CONTEXT ( 3 ) GLOBAL_UNCERTAINTY_ASSIGNED_CONTEXT ( ( #296 ) ) GLOBAL_UNIT_ASSIGNED_CONTEXT ( ( #235, #358, #60 ) ) REPRESENTATION_CONTEXT ( 'NONE', 'WORKASPACE' ) );
#34 = ORIENTED_EDGE ( 'NONE', *, *, #39, .F. ) ;
#35 = PRESENTATION_LAYER_ASSIGNMENT (  '', '', ( #119 ) ) ;
#36 = DIMENSIONAL_EXPONENTS ( 1.000000000000000000, 0.000000000000000000, 0.000000000000000000, 0.000000000000000000, 0.000000000000000000, 0.000000000000000000, 0.000000000000000000 ) ;
#37 = AXIS2_PLACEMENT_3D ( 'NONE', #255, #350, #91 ) ;
#38 = PRESENTATION_STYLE_ASSIGNMENT (( #68 ) ) ;
#39 = EDGE_CURVE ( 'NONE', #226, #166, #142, .T. ) ;
#40 = DIRECTION ( 'NONE',  ( -1.224646799147353207E-16, 1.000000000000000000, -0.000000000000000000 ) ) ;
#41 = CARTESIAN_POINT ( 'NONE',  ( 3.061616997868381785E-17, 1.625000000000000000, 0.2499999999999998335 ) ) ;
#42 = DIRECTION ( 'NONE',  ( -1.000000000000000000, 0.000000000000000000, 0.000000000000000000 ) ) ;
#43 = VERTEX_POINT ( 'NONE', #270 ) ;
#44 = MECHANICAL_DESIGN_GEOMETRIC_PRESENTATION_REPRESENTATION (  '', ( #119 ), #178 ) ;
#45 = DIRECTION ( 'NONE',  ( 1.000000000000000000, 1.224646799147353207E-16, 0.000000000000000000 ) ) ;
#46 = SURFACE_STYLE_USAGE ( .BOTH. , #307 ) ;
#47 = EDGE_LOOP ( 'NONE', ( #286, #261 ) ) ;
#48 = FILL_AREA_STYLE ('',( #110 ) ) ;
#49 =( NAMED_UNIT ( * ) SI_UNIT ( $, .STERADIAN. ) SOLID_ANGLE_UNIT ( ) );
#50 = ORIENTED_EDGE ( 'NONE', *, *, #233, .F. ) ;
#51 = UNCERTAINTY_MEASURE_WITH_UNIT (LENGTH_MEASURE( 1.000000000000000082E-05 ), #331, 'distance_accuracy_value', 'NONE');
#52 = EDGE_LOOP ( 'NONE', ( #31, #20, #324, #346 ) ) ;
#53 = AXIS2_PLACEMENT_3D ( 'NONE', #216, #186, #13 ) ;
#54 = AXIS2_PLACEMENT_3D ( 'NONE', #272, #220, #248 ) ;
#55 = UNCERTAINTY_MEASURE_WITH_UNIT (LENGTH_MEASURE( 1.000000000000000082E-05 ), #258, 'distance_accuracy_value', 'NONE');
#56 = EDGE_CURVE ( 'NONE', #163, #30, #241, .T. ) ;
#57 = LENGTH_MEASURE_WITH_UNIT ( LENGTH_MEASURE( 0.02539999999999999897 ), #116 );
#58 = AXIS2_PLACEMENT_3D ( 'NONE', #228, #105, #218 ) ;
#59 = EDGE_CURVE ( 'NONE', #321, #219, #269, .T. ) ;
#60 =( NAMED_UNIT ( * ) SI_UNIT ( $, .STERADIAN. ) SOLID_ANGLE_UNIT ( ) );
#61 = APPLICATION_PROTOCOL_DEFINITION ( 'draft international standard', 'automotive_design', 1998, #114 ) ;
#62 = VECTOR ( 'NONE', #231, 39.37007874015748143 ) ;
#63 = CIRCLE ( 'NONE', #246, 0.2499999999999998335 ) ;
#64 = FACE_OUTER_BOUND ( 'NONE', #288, .T. ) ;
#65 = APPLICATION_CONTEXT ( 'automotive_design' ) ;
#66 = PRODUCT ( '49300', '49300', '', ( #146 ) ) ;
#67 = FILL_AREA_STYLE ('',( #326 ) ) ;
#68 = SURFACE_STYLE_USAGE ( .BOTH. , #12 ) ;
#69 = PRODUCT_DEFINITION_CONTEXT ( 'detailed design', #114, 'design' ) ;
#70 = VECTOR ( 'NONE', #240, 39.37007874015748143 ) ;
#71 = CARTESIAN_POINT ( 'NONE',  ( -0.2500000000000000000, 0.2500000000000000555, 3.061616997868382402E-17 ) ) ;
#72 = DIMENSIONAL_EXPONENTS ( 1.000000000000000000, 0.000000000000000000, 0.000000000000000000, 0.000000000000000000, 0.000000000000000000, 0.000000000000000000, 0.000000000000000000 ) ;
#73 = CARTESIAN_POINT ( 'NONE',  ( -1.224646799147352714E-16, 4.000000000000000000, 0.000000000000000000 ) ) ;
#74 = PRODUCT_DEFINITION_SHAPE ( 'NONE', 'NONE',  #349 ) ;
#75 = FACE_OUTER_BOUND ( 'NONE', #136, .T. ) ;
#76 =( NAMED_UNIT ( * ) PLANE_ANGLE_UNIT ( ) SI_UNIT ( $, .RADIAN. ) );
#77 = CARTESIAN_POINT ( 'NONE',  ( -0.2499999999999994726, 1.625000000000000000, 0.000000000000000000 ) ) ;
#78 = AXIS2_PLACEMENT_3D ( 'NONE', #224, #254, #345 ) ;
#79 = DIMENSIONAL_EXPONENTS ( 1.000000000000000000, 0.000000000000000000, 0.000000000000000000, 0.000000000000000000, 0.000000000000000000, 0.000000000000000000, 0.000000000000000000 ) ;
#80 = LENGTH_MEASURE_WITH_UNIT ( LENGTH_MEASURE( 0.02539999999999999897 ), #132 );
#81 = DIRECTION ( 'NONE',  ( -1.000000000000000000, 0.000000000000000000, 0.000000000000000000 ) ) ;
#82 = PRESENTATION_STYLE_ASSIGNMENT (( #127 ) ) ;
#83 =( LENGTH_UNIT ( ) NAMED_UNIT ( * ) SI_UNIT ( $, .METRE. ) );
#84 = ORIENTED_EDGE ( 'NONE', *, *, #292, .T. ) ;
#85 = CARTESIAN_POINT ( 'NONE',  ( 0.2500000000000000000, 0.2500000000000000555, 0.000000000000000000 ) ) ;
#86 = COLOUR_RGB ( '',0.7921568627450980005, 0.8196078431372548767, 0.9333333333333333481 ) ;
#87 = SURFACE_SIDE_STYLE ('',( #169 ) ) ;
#88 = UNCERTAINTY_MEASURE_WITH_UNIT (LENGTH_MEASURE( 1.000000000000000082E-05 ), #126, 'distance_accuracy_value', 'NONE');
#89 = AXIS2_PLACEMENT_3D ( 'NONE', #184, #160, #301 ) ;
#90 = AXIS2_PLACEMENT_3D ( 'NONE', #94, #208, #234 ) ;
#91 = DIRECTION ( 'NONE',  ( 1.000000000000000000, 0.000000000000000000, 0.000000000000000000 ) ) ;
#92 = EDGE_LOOP ( 'NONE', ( #372, #143, #135, #291 ) ) ;
#93 = CIRCLE ( 'NONE', #263, 0.2500000000000000000 ) ;
#94 = CARTESIAN_POINT ( 'NONE',  ( -1.224646799147352714E-16, 4.000000000000000000, 0.000000000000000000 ) ) ;
#95 = EDGE_CURVE ( 'NONE', #43, #195, #293, .T. ) ;
#96 = LINE ( 'NONE', #129, #62 ) ;
#97 = DIRECTION ( 'NONE',  ( 1.000000000000000000, 0.000000000000000000, 0.000000000000000000 ) ) ;
#98 = DIRECTION ( 'NONE',  ( -1.000000000000000000, -1.224646799147353207E-16, 0.000000000000000000 ) ) ;
#99 = MECHANICAL_DESIGN_GEOMETRIC_PRESENTATION_REPRESENTATION (  '', ( #306 ), #227 ) ;
#100 = DIRECTION ( 'NONE',  ( -1.000000000000000000, 0.000000000000000000, 0.000000000000000000 ) ) ;
#101 = ADVANCED_FACE ( 'NONE', ( #303 ), #167, .T. ) ;
#102 = DIRECTION ( 'NONE',  ( -0.000000000000000000, -1.000000000000000000, -0.000000000000000000 ) ) ;
#103 = DIRECTION ( 'NONE',  ( 0.000000000000000000, 0.000000000000000000, -1.000000000000000000 ) ) ;
#104 = ORIENTED_EDGE ( 'NONE', *, *, #318, .T. ) ;
#105 = DIRECTION ( 'NONE',  ( 0.000000000000000000, 1.000000000000000000, 0.000000000000000000 ) ) ;
#106 = VERTEX_POINT ( 'NONE', #77 ) ;
#107 = AXIS2_PLACEMENT_3D ( 'NONE', #333, #267, #187 ) ;
#108 = CARTESIAN_POINT ( 'NONE',  ( 1.683889348827610999E-16, 1.625000000000000000, 0.000000000000000000 ) ) ;
#109 = DIMENSIONAL_EXPONENTS ( 1.000000000000000000, 0.000000000000000000, 0.000000000000000000, 0.000000000000000000, 0.000000000000000000, 0.000000000000000000, 0.000000000000000000 ) ;
#110 = FILL_AREA_STYLE_COLOUR ( '', #256 ) ;
#111 =( CONVERSION_BASED_UNIT ( 'INCH', #281 ) LENGTH_UNIT ( ) NAMED_UNIT ( #133 ) );
#112 = AXIS2_PLACEMENT_3D ( 'NONE', #108, #279, #81 ) ;
#113 = COLOUR_RGB ( '',1.000000000000000000, 0.000000000000000000, 0.000000000000000000 ) ;
#114 = APPLICATION_CONTEXT ( 'automotive_design' ) ;
#115 =( NAMED_UNIT ( * ) SI_UNIT ( $, .STERADIAN. ) SOLID_ANGLE_UNIT ( ) );
#116 =( LENGTH_UNIT ( ) NAMED_UNIT ( * ) SI_UNIT ( $, .METRE. ) );
#117 = ORIENTED_EDGE ( 'NONE', *, *, #3, .F. ) ;
#118 = ADVANCED_FACE ( 'NONE', ( #75 ), #351, .T. ) ;
#119 = STYLED_ITEM ( 'NONE', ( #134 ), #118 ) ;
#120 = AXIS2_PLACEMENT_3D ( 'NONE', #24, #317, #26 ) ;
#121 = STYLED_ITEM ( 'NONE', ( #82 ), #101 ) ;
#122 = LINE ( 'NONE', #294, #70 ) ;
#123 = PRESENTATION_STYLE_ASSIGNMENT (( #125 ) ) ;
#124 = FILL_AREA_STYLE ('',( #156 ) ) ;
#125 = SURFACE_STYLE_USAGE ( .BOTH. , #259 ) ;
#126 =( CONVERSION_BASED_UNIT ( 'INCH', #179 ) LENGTH_UNIT ( ) NAMED_UNIT ( #213 ) );
#127 = SURFACE_STYLE_USAGE ( .BOTH. , #10 ) ;
#128 = AXIS2_PLACEMENT_3D ( 'NONE', #257, #2, #144 ) ;
#129 = CARTESIAN_POINT ( 'NONE',  ( 0.2499999999999996669, 4.000000000000000000, 3.061616997868380553E-17 ) ) ;
#130 = LENGTH_MEASURE_WITH_UNIT ( LENGTH_MEASURE( 0.02539999999999999897 ), #312 );
#131 =( CONVERSION_BASED_UNIT ( 'INCH', #171 ) LENGTH_UNIT ( ) NAMED_UNIT ( #79 ) );
#132 =( LENGTH_UNIT ( ) NAMED_UNIT ( * ) SI_UNIT ( $, .METRE. ) );
#133 = DIMENSIONAL_EXPONENTS ( 1.000000000000000000, 0.000000000000000000, 0.000000000000000000, 0.000000000000000000, 0.000000000000000000, 0.000000000000000000, 0.000000000000000000 ) ;
#134 = PRESENTATION_STYLE_ASSIGNMENT (( #46 ) ) ;
#135 = ORIENTED_EDGE ( 'NONE', *, *, #285, .F. ) ;
#136 = EDGE_LOOP ( 'NONE', ( #34, #18, #352, #140 ) ) ;
#137 = FACE_OUTER_BOUND ( 'NONE', #47, .T. ) ;
#138 = ORIENTED_EDGE ( 'NONE', *, *, #190, .F. ) ;
#139 = PRODUCT_RELATED_PRODUCT_CATEGORY ( 'part', '', ( #66 ) ) ;
#140 = ORIENTED_EDGE ( 'NONE', *, *, #285, .T. ) ;
#141 =( NAMED_UNIT ( * ) PLANE_ANGLE_UNIT ( ) SI_UNIT ( $, .RADIAN. ) );
#142 = CIRCLE ( 'NONE', #54, 0.2500000000000000000 ) ;
#143 = ORIENTED_EDGE ( 'NONE', *, *, #39, .T. ) ;
#144 = DIRECTION ( 'NONE',  ( -1.000000000000000000, 0.000000000000000000, 0.000000000000000000 ) ) ;
#145 = CARTESIAN_POINT ( 'NONE',  ( -1.530808498934191509E-17, 0.000000000000000000, 0.000000000000000000 ) ) ;
#146 = PRODUCT_CONTEXT ( 'NONE', #65, 'mechanical' ) ;
#147 = PRESENTATION_LAYER_ASSIGNMENT (  '', '', ( #295 ) ) ;
#148 = SHAPE_DEFINITION_REPRESENTATION ( #74, #230 ) ;
#149 = EDGE_LOOP ( 'NONE', ( #170, #280, #273, #342, #182 ) ) ;
#150 = LENGTH_MEASURE_WITH_UNIT ( LENGTH_MEASURE( 0.02539999999999999897 ), #177 );
#151 = DIRECTION ( 'NONE',  ( -1.224646799147353207E-16, 1.000000000000000000, 0.000000000000000000 ) ) ;
#152 = STYLED_ITEM ( 'NONE', ( #123 ), #15 ) ;
#153 = PRESENTATION_LAYER_ASSIGNMENT (  '', '', ( #27 ) ) ;
#154 = AXIS2_PLACEMENT_3D ( 'NONE', #370, #361, #103 ) ;
#155 = CARTESIAN_POINT ( 'NONE',  ( 0.000000000000000000, 1.625000000000000000, 0.000000000000000000 ) ) ;
#156 = FILL_AREA_STYLE_COLOUR ( '', #86 ) ;
#157 = EDGE_CURVE ( 'NONE', #226, #278, #242, .T. ) ;
#158 = DIRECTION ( 'NONE',  ( 0.000000000000000000, 0.000000000000000000, -1.000000000000000000 ) ) ;
#159 = CARTESIAN_POINT ( 'NONE',  ( -1.224646799147352714E-16, 4.000000000000000000, 0.000000000000000000 ) ) ;
#160 = DIRECTION ( 'NONE',  ( -0.000000000000000000, -1.000000000000000000, -0.000000000000000000 ) ) ;
#161 = MECHANICAL_DESIGN_GEOMETRIC_PRESENTATION_REPRESENTATION (  '', ( #121 ), #354 ) ;
#162 = CARTESIAN_POINT ( 'NONE',  ( -0.2499999999999999167, 4.000000000000000000, 0.000000000000000000 ) ) ;
#163 = VERTEX_POINT ( 'NONE', #363 ) ;
#164 = SURFACE_SIDE_STYLE ('',( #308 ) ) ;
#165 = ADVANCED_FACE ( 'NONE', ( #206 ), #305, .T. ) ;
#166 = VERTEX_POINT ( 'NONE', #145 ) ;
#167 = CYLINDRICAL_SURFACE ( 'NONE', #107, 0.2499999999999999167 ) ;
#168 = EDGE_LOOP ( 'NONE', ( #50, #344, #84, #274, #245 ) ) ;
#169 = SURFACE_STYLE_FILL_AREA ( #48 ) ;
#170 = ORIENTED_EDGE ( 'NONE', *, *, #56, .T. ) ;
#171 = LENGTH_MEASURE_WITH_UNIT ( LENGTH_MEASURE( 0.02539999999999999897 ), #249 );
#172 = UNCERTAINTY_MEASURE_WITH_UNIT (LENGTH_MEASURE( 1.000000000000000082E-05 ), #131, 'distance_accuracy_value', 'NONE');
#173 =( NAMED_UNIT ( * ) PLANE_ANGLE_UNIT ( ) SI_UNIT ( $, .RADIAN. ) );
#174 = AXIS2_PLACEMENT_3D ( 'NONE', #260, #151, #98 ) ;
#175 = DIRECTION ( 'NONE',  ( 1.000000000000000000, 0.000000000000000000, 0.000000000000000000 ) ) ;
#176 = EDGE_CURVE ( 'NONE', #195, #43, #252, .T. ) ;
#177 =( LENGTH_UNIT ( ) NAMED_UNIT ( * ) SI_UNIT ( $, .METRE. ) );
#178 =( GEOMETRIC_REPRESENTATION_CONTEXT ( 3 ) GLOBAL_UNCERTAINTY_ASSIGNED_CONTEXT ( ( #334 ) ) GLOBAL_UNIT_ASSIGNED_CONTEXT ( ( #194, #243, #282 ) ) REPRESENTATION_CONTEXT ( 'NONE', 'WORKASPACE' ) );
#179 = LENGTH_MEASURE_WITH_UNIT ( LENGTH_MEASURE( 0.02539999999999999897 ), #8 );
#180 = CARTESIAN_POINT ( 'NONE',  ( -3.061616997868383018E-17, 0.2500000000000000000, 0.000000000000000000 ) ) ;
#181 = SURFACE_STYLE_FILL_AREA ( #67 ) ;
#182 = ORIENTED_EDGE ( 'NONE', *, *, #292, .F. ) ;
#183 = CARTESIAN_POINT ( 'NONE',  ( 0.000000000000000000, 0.2500000000000000555, -0.2500000000000000000 ) ) ;
#184 = CARTESIAN_POINT ( 'NONE',  ( 0.000000000000000000, 1.625000000000000000, 0.000000000000000000 ) ) ;
#185 = LINE ( 'NONE', #32, #237 ) ;
#186 = DIRECTION ( 'NONE',  ( -0.000000000000000000, -1.000000000000000000, -0.000000000000000000 ) ) ;
#187 = DIRECTION ( 'NONE',  ( 0.000000000000000000, 0.000000000000000000, -1.000000000000000000 ) ) ;
#188 = DIRECTION ( 'NONE',  ( 0.000000000000000000, 0.000000000000000000, 1.000000000000000000 ) ) ;
#189 =( GEOMETRIC_REPRESENTATION_CONTEXT ( 3 ) GLOBAL_UNCERTAINTY_ASSIGNED_CONTEXT ( ( #172 ) ) GLOBAL_UNIT_ASSIGNED_CONTEXT ( ( #131, #76, #271 ) ) REPRESENTATION_CONTEXT ( 'NONE', 'WORKASPACE' ) );
#190 = EDGE_CURVE ( 'NONE', #197, #195, #96, .T. ) ;
#191 = SURFACE_STYLE_FILL_AREA ( #335 ) ;
#192 = CLOSED_SHELL ( 'NONE', ( #365, #221, #239, #311 ) ) ;
#193 =( NAMED_UNIT ( * ) SI_UNIT ( $, .STERADIAN. ) SOLID_ANGLE_UNIT ( ) );
#194 =( CONVERSION_BASED_UNIT ( 'INCH', #80 ) LENGTH_UNIT ( ) NAMED_UNIT ( #109 ) );
#195 = VERTEX_POINT ( 'NONE', #205 ) ;
#196 = FILL_AREA_STYLE_COLOUR ( '', #322 ) ;
#197 = VERTEX_POINT ( 'NONE', #325 ) ;
#198 = STYLED_ITEM ( 'NONE', ( #14 ), #356 ) ;
#199 = EDGE_LOOP ( 'NONE', ( #339, #217 ) ) ;
#200 = PRESENTATION_STYLE_ASSIGNMENT (( #1 ) ) ;
#201 = AXIS2_PLACEMENT_3D ( 'NONE', #299, #238, #100 ) ;
#202 = EDGE_CURVE ( 'NONE', #197, #106, #229, .T. ) ;
#203 = AXIS2_PLACEMENT_3D ( 'NONE', #159, #214, #16 ) ;
#204 = FACE_OUTER_BOUND ( 'NONE', #355, .T. ) ;
#205 = CARTESIAN_POINT ( 'NONE',  ( 0.2499999999999998335, 4.000000000000000000, 3.061616997868381785E-17 ) ) ;
#206 = FACE_OUTER_BOUND ( 'NONE', #168, .T. ) ;
#207 = DIMENSIONAL_EXPONENTS ( 1.000000000000000000, 0.000000000000000000, 0.000000000000000000, 0.000000000000000000, 0.000000000000000000, 0.000000000000000000, 0.000000000000000000 ) ;
#208 = DIRECTION ( 'NONE',  ( -1.224646799147353207E-16, 1.000000000000000000, -0.000000000000000000 ) ) ;
#209 = PRESENTATION_LAYER_ASSIGNMENT (  '', '', ( #306 ) ) ;
#210 = CLOSED_SHELL ( 'NONE', ( #356, #101, #15, #165, #118 ) ) ;
#211 =( NAMED_UNIT ( * ) PLANE_ANGLE_UNIT ( ) SI_UNIT ( $, .RADIAN. ) );
#212 = CARTESIAN_POINT ( 'NONE',  ( 0.000000000000000000, 0.2500000000000000555, 0.000000000000000000 ) ) ;
#213 = DIMENSIONAL_EXPONENTS ( 1.000000000000000000, 0.000000000000000000, 0.000000000000000000, 0.000000000000000000, 0.000000000000000000, 0.000000000000000000, 0.000000000000000000 ) ;
#214 = DIRECTION ( 'NONE',  ( -1.224646799147353207E-16, 1.000000000000000000, -0.000000000000000000 ) ) ;
#215 = DIRECTION ( 'NONE',  ( -1.224646799147353207E-16, 1.000000000000000000, -0.000000000000000000 ) ) ;
#216 = CARTESIAN_POINT ( 'NONE',  ( 0.000000000000000000, 0.2500000000000000555, 0.000000000000000000 ) ) ;
#217 = ORIENTED_EDGE ( 'NONE', *, *, #202, .F. ) ;
#218 = DIRECTION ( 'NONE',  ( 0.000000000000000000, -0.000000000000000000, 1.000000000000000000 ) ) ;
#219 = VERTEX_POINT ( 'NONE', #9 ) ;
#220 = DIRECTION ( 'NONE',  ( 1.224646799147353207E-16, -0.000000000000000000, 1.000000000000000000 ) ) ;
#221 = ADVANCED_FACE ( 'NONE', ( #332 ), #266, .F. ) ;
#222 = PLANE ( 'NONE',  #314 ) ;
#223 =( GEOMETRIC_REPRESENTATION_CONTEXT ( 3 ) GLOBAL_UNCERTAINTY_ASSIGNED_CONTEXT ( ( #55 ) ) GLOBAL_UNIT_ASSIGNED_CONTEXT ( ( #258, #173, #115 ) ) REPRESENTATION_CONTEXT ( 'NONE', 'WORKASPACE' ) );
#224 = CARTESIAN_POINT ( 'NONE',  ( 0.000000000000000000, 0.000000000000000000, 0.000000000000000000 ) ) ;
#225 = EDGE_CURVE ( 'NONE', #278, #321, #93, .T. ) ;
#226 = VERTEX_POINT ( 'NONE', #71 ) ;
#227 =( GEOMETRIC_REPRESENTATION_CONTEXT ( 3 ) GLOBAL_UNCERTAINTY_ASSIGNED_CONTEXT ( ( #316 ) ) GLOBAL_UNIT_ASSIGNED_CONTEXT ( ( #111, #369, #193 ) ) REPRESENTATION_CONTEXT ( 'NONE', 'WORKASPACE' ) );
#228 = CARTESIAN_POINT ( 'NONE',  ( 0.000000000000000000, 1.625000000000000000, 0.000000000000000000 ) ) ;
#229 = CIRCLE ( 'NONE', #338, 0.2499999999999996669 ) ;
#230 = ADVANCED_BREP_SHAPE_REPRESENTATION ( '49300', ( #290, #287, #37 ), #330 ) ;
#231 = DIRECTION ( 'NONE',  ( -1.224646799147353207E-16, 1.000000000000000000, -0.000000000000000000 ) ) ;
#232 = DIRECTION ( 'NONE',  ( 0.000000000000000000, 0.000000000000000000, 1.000000000000000000 ) ) ;
#233 = EDGE_CURVE ( 'NONE', #30, #219, #185, .T. ) ;
#234 = DIRECTION ( 'NONE',  ( -1.000000000000000000, 0.000000000000000000, 0.000000000000000000 ) ) ;
#235 =( CONVERSION_BASED_UNIT ( 'INCH', #298 ) LENGTH_UNIT ( ) NAMED_UNIT ( #72 ) );
#236 = DIRECTION ( 'NONE',  ( -1.000000000000000000, 0.000000000000000000, 0.000000000000000000 ) ) ;
#237 = VECTOR ( 'NONE', #360, 39.37007874015748143 ) ;
#238 = DIRECTION ( 'NONE',  ( 0.000000000000000000, 0.000000000000000000, -1.000000000000000000 ) ) ;
#239 = ADVANCED_FACE ( 'NONE', ( #64 ), #7, .T. ) ;
#240 = DIRECTION ( 'NONE',  ( -0.000000000000000000, -1.000000000000000000, -0.000000000000000000 ) ) ;
#241 = CIRCLE ( 'NONE', #89, 0.2499999999999998335 ) ;
#242 = CIRCLE ( 'NONE', #53, 0.2500000000000000000 ) ;
#243 =( NAMED_UNIT ( * ) PLANE_ANGLE_UNIT ( ) SI_UNIT ( $, .RADIAN. ) );
#244 = CIRCLE ( 'NONE', #120, 0.2500000000000000000 ) ;
#245 = ORIENTED_EDGE ( 'NONE', *, *, #371, .F. ) ;
#246 = AXIS2_PLACEMENT_3D ( 'NONE', #155, #265, #5 ) ;
#247 = SURFACE_STYLE_USAGE ( .BOTH. , #164 ) ;
#248 = DIRECTION ( 'NONE',  ( 1.000000000000000000, 0.000000000000000000, -1.224646799147353207E-16 ) ) ;
#249 =( LENGTH_UNIT ( ) NAMED_UNIT ( * ) SI_UNIT ( $, .METRE. ) );
#250 = ORIENTED_EDGE ( 'NONE', *, *, #202, .T. ) ;
#251 = SPHERICAL_SURFACE ( 'NONE', #23, 0.2500000000000000000 ) ;
#252 = CIRCLE ( 'NONE', #90, 0.2499999999999999722 ) ;
#253 =( NAMED_UNIT ( * ) SI_UNIT ( $, .STERADIAN. ) SOLID_ANGLE_UNIT ( ) );
#254 = DIRECTION ( 'NONE',  ( -0.000000000000000000, -1.000000000000000000, -0.000000000000000000 ) ) ;
#255 = CARTESIAN_POINT ( 'NONE',  ( 0.000000000000000000, 0.000000000000000000, 0.000000000000000000 ) ) ;
#256 = COLOUR_RGB ( '',1.000000000000000000, 0.000000000000000000, 0.000000000000000000 ) ;
#257 = CARTESIAN_POINT ( 'NONE',  ( -1.224646799147352714E-16, 4.000000000000000000, 0.000000000000000000 ) ) ;
#258 =( CONVERSION_BASED_UNIT ( 'INCH', #150 ) LENGTH_UNIT ( ) NAMED_UNIT ( #36 ) );
#259 = SURFACE_SIDE_STYLE ('',( #181 ) ) ;
#260 = CARTESIAN_POINT ( 'NONE',  ( 1.683889348827610752E-16, 1.625000000000000000, 0.000000000000000000 ) ) ;
#261 = ORIENTED_EDGE ( 'NONE', *, *, #176, .T. ) ;
#262 =( NAMED_UNIT ( * ) PLANE_ANGLE_UNIT ( ) SI_UNIT ( $, .RADIAN. ) );
#263 = AXIS2_PLACEMENT_3D ( 'NONE', #212, #102, #158 ) ;
#264 = COLOUR_RGB ( '',1.000000000000000000, 0.000000000000000000, 0.000000000000000000 ) ;
#265 = DIRECTION ( 'NONE',  ( -0.000000000000000000, -1.000000000000000000, -0.000000000000000000 ) ) ;
#266 = PLANE ( 'NONE',  #174 ) ;
#267 = DIRECTION ( 'NONE',  ( -0.000000000000000000, -1.000000000000000000, -0.000000000000000000 ) ) ;
#268 = CIRCLE ( 'NONE', #112, 0.2499999999999996669 ) ;
#269 = CIRCLE ( 'NONE', #154, 0.2500000000000000000 ) ;
#270 = CARTESIAN_POINT ( 'NONE',  ( -0.2500000000000001110, 4.000000000000000000, 0.000000000000000000 ) ) ;
#271 =( NAMED_UNIT ( * ) SI_UNIT ( $, .STERADIAN. ) SOLID_ANGLE_UNIT ( ) );
#272 = CARTESIAN_POINT ( 'NONE',  ( -3.061616997868383018E-17, 0.2500000000000000000, 0.000000000000000000 ) ) ;
#273 = ORIENTED_EDGE ( 'NONE', *, *, #59, .F. ) ;
#274 = ORIENTED_EDGE ( 'NONE', *, *, #157, .F. ) ;
#275 = SURFACE_STYLE_USAGE ( .BOTH. , #337 ) ;
#276 = CIRCLE ( 'NONE', #201, 0.2500000000000000000 ) ;
#277 = AXIS2_PLACEMENT_3D ( 'NONE', #180, #232, #97 ) ;
#278 = VERTEX_POINT ( 'NONE', #183 ) ;
#279 = DIRECTION ( 'NONE',  ( -1.224646799147353207E-16, 1.000000000000000000, -0.000000000000000000 ) ) ;
#280 = ORIENTED_EDGE ( 'NONE', *, *, #233, .T. ) ;
#281 = LENGTH_MEASURE_WITH_UNIT ( LENGTH_MEASURE( 0.02539999999999999897 ), #83 );
#282 =( NAMED_UNIT ( * ) SI_UNIT ( $, .STERADIAN. ) SOLID_ANGLE_UNIT ( ) );
#283 = MECHANICAL_DESIGN_GEOMETRIC_PRESENTATION_REPRESENTATION (  '', ( #27 ), #223 ) ;
#284 = COLOUR_RGB ( '',1.000000000000000000, 0.000000000000000000, 0.000000000000000000 ) ;
#285 = EDGE_CURVE ( 'NONE', #321, #166, #276, .T. ) ;
#286 = ORIENTED_EDGE ( 'NONE', *, *, #95, .T. ) ;
#287 = MANIFOLD_SOLID_BREP ( 'Revolve - Tool Body (Straight Shanked)', #192 ) ;
#288 = EDGE_LOOP ( 'NONE', ( #138, #250, #104, #336 ) ) ;
#289 = PRESENTATION_LAYER_ASSIGNMENT (  '', '', ( #198 ) ) ;
#290 = MANIFOLD_SOLID_BREP ( 'Revolve - Cutting Edge', #210 ) ;
#291 = ORIENTED_EDGE ( 'NONE', *, *, #59, .T. ) ;
#292 = EDGE_CURVE ( 'NONE', #163, #278, #122, .T. ) ;
#293 = CIRCLE ( 'NONE', #203, 0.2499999999999999722 ) ;
#294 = CARTESIAN_POINT ( 'NONE',  ( 0.000000000000000000, 0.000000000000000000, -0.2499999999999999167 ) ) ;
#295 = STYLED_ITEM ( 'NONE', ( #38 ), #287 ) ;
#296 = UNCERTAINTY_MEASURE_WITH_UNIT (LENGTH_MEASURE( 1.000000000000000082E-05 ), #235, 'distance_accuracy_value', 'NONE');
#297 = MECHANICAL_DESIGN_GEOMETRIC_PRESENTATION_REPRESENTATION (  '', ( #152 ), #33 ) ;
#298 = LENGTH_MEASURE_WITH_UNIT ( LENGTH_MEASURE( 0.02539999999999999897 ), #328 );
#299 = CARTESIAN_POINT ( 'NONE',  ( -3.061616997868383018E-17, 0.2500000000000000000, 0.000000000000000000 ) ) ;
#300 = EDGE_CURVE ( 'NONE', #106, #197, #268, .T. ) ;
#301 = DIRECTION ( 'NONE',  ( 0.000000000000000000, 0.000000000000000000, -1.000000000000000000 ) ) ;
#302 = SURFACE_STYLE_FILL_AREA ( #327 ) ;
#303 = FACE_OUTER_BOUND ( 'NONE', #149, .T. ) ;
#304 = CARTESIAN_POINT ( 'NONE',  ( 0.2499999999999998335, 4.000000000000000000, 0.000000000000000000 ) ) ;
#305 = CYLINDRICAL_SURFACE ( 'NONE', #78, 0.2499999999999999167 ) ;
#306 = STYLED_ITEM ( 'NONE', ( #367 ), #290 ) ;
#307 = SURFACE_SIDE_STYLE ('',( #191 ) ) ;
#308 = SURFACE_STYLE_FILL_AREA ( #124 ) ;
#309 = FILL_AREA_STYLE_COLOUR ( '', #113 ) ;
#310 = FILL_AREA_STYLE ('',( #196 ) ) ;
#311 = ADVANCED_FACE ( 'NONE', ( #137 ), #222, .F. ) ;
#312 =( LENGTH_UNIT ( ) NAMED_UNIT ( * ) SI_UNIT ( $, .METRE. ) );
#313 = SURFACE_STYLE_FILL_AREA ( #310 ) ;
#314 = AXIS2_PLACEMENT_3D ( 'NONE', #304, #340, #45 ) ;
#315 = LINE ( 'NONE', #162, #359 ) ;
#316 = UNCERTAINTY_MEASURE_WITH_UNIT (LENGTH_MEASURE( 1.000000000000000082E-05 ), #111, 'distance_accuracy_value', 'NONE');
#317 = DIRECTION ( 'NONE',  ( -0.000000000000000000, -1.000000000000000000, -0.000000000000000000 ) ) ;
#318 = EDGE_CURVE ( 'NONE', #106, #43, #315, .T. ) ;
#319 = PRESENTATION_LAYER_ASSIGNMENT (  '', '', ( #152 ) ) ;
#320 = CYLINDRICAL_SURFACE ( 'NONE', #128, 0.2499999999999998057 ) ;
#321 = VERTEX_POINT ( 'NONE', #85 ) ;
#322 = COLOUR_RGB ( '',1.000000000000000000, 0.000000000000000000, 0.000000000000000000 ) ;
#323 = PRESENTATION_LAYER_ASSIGNMENT (  '', '', ( #121 ) ) ;
#324 = ORIENTED_EDGE ( 'NONE', *, *, #95, .F. ) ;
#325 = CARTESIAN_POINT ( 'NONE',  ( 0.2499999999999998335, 1.625000000000000000, 3.061616997868381785E-17 ) ) ;
#326 = FILL_AREA_STYLE_COLOUR ( '', #264 ) ;
#327 = FILL_AREA_STYLE ('',( #362 ) ) ;
#328 =( LENGTH_UNIT ( ) NAMED_UNIT ( * ) SI_UNIT ( $, .METRE. ) );
#329 = DIMENSIONAL_EXPONENTS ( 1.000000000000000000, 0.000000000000000000, 0.000000000000000000, 0.000000000000000000, 0.000000000000000000, 0.000000000000000000, 0.000000000000000000 ) ;
#330 =( GEOMETRIC_REPRESENTATION_CONTEXT ( 3 ) GLOBAL_UNCERTAINTY_ASSIGNED_CONTEXT ( ( #22 ) ) GLOBAL_UNIT_ASSIGNED_CONTEXT ( ( #25, #141, #253 ) ) REPRESENTATION_CONTEXT ( 'NONE', 'WORKASPACE' ) );
#331 =( CONVERSION_BASED_UNIT ( 'INCH', #130 ) LENGTH_UNIT ( ) NAMED_UNIT ( #207 ) );
#332 = FACE_OUTER_BOUND ( 'NONE', #199, .T. ) ;
#333 = CARTESIAN_POINT ( 'NONE',  ( 0.000000000000000000, 0.000000000000000000, 0.000000000000000000 ) ) ;
#334 = UNCERTAINTY_MEASURE_WITH_UNIT (LENGTH_MEASURE( 1.000000000000000082E-05 ), #194, 'distance_accuracy_value', 'NONE');
#335 = FILL_AREA_STYLE ('',( #366 ) ) ;
#336 = ORIENTED_EDGE ( 'NONE', *, *, #176, .F. ) ;
#337 = SURFACE_SIDE_STYLE ('',( #313 ) ) ;
#338 = AXIS2_PLACEMENT_3D ( 'NONE', #357, #40, #236 ) ;
#339 = ORIENTED_EDGE ( 'NONE', *, *, #300, .F. ) ;
#340 = DIRECTION ( 'NONE',  ( 1.224646799147353207E-16, -1.000000000000000000, 0.000000000000000000 ) ) ;
#341 = SURFACE_STYLE_FILL_AREA ( #364 ) ;
#342 = ORIENTED_EDGE ( 'NONE', *, *, #225, .F. ) ;
#343 = DIRECTION ( 'NONE',  ( -1.224646799147353207E-16, 1.000000000000000000, -0.000000000000000000 ) ) ;
#344 = ORIENTED_EDGE ( 'NONE', *, *, #3, .T. ) ;
#345 = DIRECTION ( 'NONE',  ( 0.000000000000000000, 0.000000000000000000, -1.000000000000000000 ) ) ;
#346 = ORIENTED_EDGE ( 'NONE', *, *, #318, .F. ) ;
#347 = APPLICATION_PROTOCOL_DEFINITION ( 'draft international standard', 'automotive_design', 1998, #65 ) ;
#348 = COLOUR_RGB ( '',0.7921568627450980005, 0.8196078431372548767, 0.9333333333333333481 ) ;
#349 = PRODUCT_DEFINITION ( 'UNKNOWN', '', #28, #69 ) ;
#350 = DIRECTION ( 'NONE',  ( 0.000000000000000000, 0.000000000000000000, 1.000000000000000000 ) ) ;
#351 = SPHERICAL_SURFACE ( 'NONE', #277, 0.2500000000000000000 ) ;
#352 = ORIENTED_EDGE ( 'NONE', *, *, #225, .T. ) ;
#353 = MECHANICAL_DESIGN_GEOMETRIC_PRESENTATION_REPRESENTATION (  '', ( #295 ), #17 ) ;
#354 =( GEOMETRIC_REPRESENTATION_CONTEXT ( 3 ) GLOBAL_UNCERTAINTY_ASSIGNED_CONTEXT ( ( #51 ) ) GLOBAL_UNIT_ASSIGNED_CONTEXT ( ( #331, #211, #49 ) ) REPRESENTATION_CONTEXT ( 'NONE', 'WORKASPACE' ) );
#355 = EDGE_LOOP ( 'NONE', ( #368, #117 ) ) ;
#356 = ADVANCED_FACE ( 'NONE', ( #19 ), #251, .T. ) ;
#357 = CARTESIAN_POINT ( 'NONE',  ( 1.683889348827610999E-16, 1.625000000000000000, 0.000000000000000000 ) ) ;
#358 =( NAMED_UNIT ( * ) PLANE_ANGLE_UNIT ( ) SI_UNIT ( $, .RADIAN. ) );
#359 = VECTOR ( 'NONE', #343, 39.37007874015748143 ) ;
#360 = DIRECTION ( 'NONE',  ( -0.000000000000000000, -1.000000000000000000, -0.000000000000000000 ) ) ;
#361 = DIRECTION ( 'NONE',  ( -0.000000000000000000, -1.000000000000000000, -0.000000000000000000 ) ) ;
#362 = FILL_AREA_STYLE_COLOUR ( '', #348 ) ;
#363 = CARTESIAN_POINT ( 'NONE',  ( 0.000000000000000000, 1.625000000000000000, -0.2499999999999998335 ) ) ;
#364 = FILL_AREA_STYLE ('',( #309 ) ) ;
#365 = ADVANCED_FACE ( 'NONE', ( #21 ), #320, .T. ) ;
#366 = FILL_AREA_STYLE_COLOUR ( '', #284 ) ;
#367 = PRESENTATION_STYLE_ASSIGNMENT (( #247 ) ) ;
#368 = ORIENTED_EDGE ( 'NONE', *, *, #56, .F. ) ;
#369 =( NAMED_UNIT ( * ) PLANE_ANGLE_UNIT ( ) SI_UNIT ( $, .RADIAN. ) );
#370 = CARTESIAN_POINT ( 'NONE',  ( 0.000000000000000000, 0.2500000000000000555, 0.000000000000000000 ) ) ;
#371 = EDGE_CURVE ( 'NONE', #219, #226, #244, .T. ) ;
#372 = ORIENTED_EDGE ( 'NONE', *, *, #371, .T. ) ;
#373 = CARTESIAN_POINT ( 'NONE',  ( -3.061616997868383018E-17, 0.2500000000000000000, 0.000000000000000000 ) ) ;
ENDSEC;
END-ISO-10303-21;
