ISO-10303-21;
HEADER;
FILE_DESCRIPTION (( 'STEP AP214' ),
    '1' );
FILE_NAME ('01480.STEP',
    '2023-06-22T14:33:16',
    ( '' ),
    ( '' ),
    'SwSTEP 2.0',
    'SolidWorks 2023',
    '' );
FILE_SCHEMA (( 'AUTOMOTIVE_DESIGN' ));
ENDSEC;

DATA;
#1 = CIRCLE ( 'NONE', #182, 0.2500000000000001110 ) ;
#2 = ORIENTED_EDGE ( 'NONE', *, *, #209, .F. ) ;
#3 = PRESENTATION_STYLE_ASSIGNMENT (( #269 ) ) ;
#4 = CARTESIAN_POINT ( 'NONE',  ( 0.000000000000000000, 0.000000000000000000, 0.000000000000000000 ) ) ;
#5 = DIRECTION ( 'NONE',  ( 0.000000000000000000, 0.000000000000000000, -1.000000000000000000 ) ) ;
#6 = SURFACE_SIDE_STYLE ('',( #128 ) ) ;
#7 = DIRECTION ( 'NONE',  ( -5.156407575357275299E-17, 1.000000000000000000, -0.000000000000000000 ) ) ;
#8 = SURFACE_SIDE_STYLE ('',( #173 ) ) ;
#9 = EDGE_CURVE ( 'NONE', #97, #141, #144, .T. ) ;
#10 = ORIENTED_EDGE ( 'NONE', *, *, #76, .F. ) ;
#11 = MECHANICAL_DESIGN_GEOMETRIC_PRESENTATION_REPRESENTATION (  '', ( #50 ), #306 ) ;
#12 = VECTOR ( 'NONE', #17, 39.37007874015748143 ) ;
#13 = APPLICATION_CONTEXT ( 'automotive_design' ) ;
#14 = DIMENSIONAL_EXPONENTS ( 1.000000000000000000, 0.000000000000000000, 0.000000000000000000, 0.000000000000000000, 0.000000000000000000, 0.000000000000000000, 0.000000000000000000 ) ;
#15 = AXIS2_PLACEMENT_3D ( 'NONE', #236, #207, #137 ) ;
#16 = PRESENTATION_STYLE_ASSIGNMENT (( #261 ) ) ;
#17 = DIRECTION ( 'NONE',  ( -0.000000000000000000, -1.000000000000000000, -0.000000000000000000 ) ) ;
#18 = CARTESIAN_POINT ( 'NONE',  ( 0.000000000000000000, 0.000000000000000000, 0.000000000000000000 ) ) ;
#19 = CARTESIAN_POINT ( 'NONE',  ( 0.000000000000000000, 1.625000000000000000, 0.000000000000000000 ) ) ;
#20 = VERTEX_POINT ( 'NONE', #102 ) ;
#21 = CARTESIAN_POINT ( 'NONE',  ( -0.2500000000000002776, 4.000000000000000000, 0.000000000000000000 ) ) ;
#22 = ORIENTED_EDGE ( 'NONE', *, *, #161, .T. ) ;
#23 =( GEOMETRIC_REPRESENTATION_CONTEXT ( 3 ) GLOBAL_UNCERTAINTY_ASSIGNED_CONTEXT ( ( #41 ) ) GLOBAL_UNIT_ASSIGNED_CONTEXT ( ( #43, #46, #292 ) ) REPRESENTATION_CONTEXT ( 'NONE', 'WORKASPACE' ) );
#24 = FILL_AREA_STYLE_COLOUR ( '', #127 ) ;
#25 = VECTOR ( 'NONE', #150, 39.37007874015748143 ) ;
#26 = APPLICATION_PROTOCOL_DEFINITION ( 'draft international standard', 'automotive_design', 1998, #13 ) ;
#27 = ORIENTED_EDGE ( 'NONE', *, *, #300, .F. ) ;
#28 = CARTESIAN_POINT ( 'NONE',  ( -1.224646799147352714E-16, 4.000000000000000000, 0.000000000000000000 ) ) ;
#29 = CYLINDRICAL_SURFACE ( 'NONE', #233, 0.2500000000000000555 ) ;
#30 = CARTESIAN_POINT ( 'NONE',  ( 0.2499999999999999167, 4.000000000000000000, 3.061616997868383634E-17 ) ) ;
#31 = PRESENTATION_STYLE_ASSIGNMENT (( #246 ) ) ;
#32 = PRESENTATION_LAYER_ASSIGNMENT (  '', '', ( #101 ) ) ;
#33 = FILL_AREA_STYLE ('',( #148 ) ) ;
#34 = AXIS2_PLACEMENT_3D ( 'NONE', #156, #254, #39 ) ;
#35 = PRODUCT_CONTEXT ( 'NONE', #13, 'mechanical' ) ;
#36 = ORIENTED_EDGE ( 'NONE', *, *, #9, .T. ) ;
#37 = FILL_AREA_STYLE_COLOUR ( '', #159 ) ;
#38 = DIRECTION ( 'NONE',  ( 1.000000000000000000, 5.156407575357275916E-17, 0.000000000000000000 ) ) ;
#39 = DIRECTION ( 'NONE',  ( 0.000000000000000000, 0.000000000000000000, -1.000000000000000000 ) ) ;
#40 = AXIS2_PLACEMENT_3D ( 'NONE', #90, #260, #309 ) ;
#41 = UNCERTAINTY_MEASURE_WITH_UNIT (LENGTH_MEASURE( 1.000000000000000082E-05 ), #43, 'distance_accuracy_value', 'NONE');
#42 = PRODUCT_DEFINITION ( 'UNKNOWN', '', #65, #110 ) ;
#43 =( CONVERSION_BASED_UNIT ( 'INCH', #62 ) LENGTH_UNIT ( ) NAMED_UNIT ( #61 ) );
#44 = ORIENTED_EDGE ( 'NONE', *, *, #76, .T. ) ;
#45 = CYLINDRICAL_SURFACE ( 'NONE', #122, 0.2500000000000000000 ) ;
#46 =( NAMED_UNIT ( * ) PLANE_ANGLE_UNIT ( ) SI_UNIT ( $, .RADIAN. ) );
#47 = VERTEX_POINT ( 'NONE', #179 ) ;
#48 =( CONVERSION_BASED_UNIT ( 'INCH', #136 ) LENGTH_UNIT ( ) NAMED_UNIT ( #229 ) );
#49 = CYLINDRICAL_SURFACE ( 'NONE', #230, 0.2500000000000000000 ) ;
#50 = STYLED_ITEM ( 'NONE', ( #67 ), #163 ) ;
#51 =( CONVERSION_BASED_UNIT ( 'INCH', #270 ) LENGTH_UNIT ( ) NAMED_UNIT ( #221 ) );
#52 = DIRECTION ( 'NONE',  ( -0.000000000000000000, -1.000000000000000000, -0.000000000000000000 ) ) ;
#53 = DIRECTION ( 'NONE',  ( -0.000000000000000000, -1.000000000000000000, -0.000000000000000000 ) ) ;
#54 = APPLICATION_CONTEXT ( 'automotive_design' ) ;
#55 = LINE ( 'NONE', #168, #12 ) ;
#56 = CIRCLE ( 'NONE', #103, 0.2500000000000000000 ) ;
#57 = CIRCLE ( 'NONE', #15, 0.2500000000000000000 ) ;
#58 = SURFACE_STYLE_FILL_AREA ( #272 ) ;
#59 = DIMENSIONAL_EXPONENTS ( 1.000000000000000000, 0.000000000000000000, 0.000000000000000000, 0.000000000000000000, 0.000000000000000000, 0.000000000000000000, 0.000000000000000000 ) ;
#60 = DIRECTION ( 'NONE',  ( -0.000000000000000000, -1.000000000000000000, -0.000000000000000000 ) ) ;
#61 = DIMENSIONAL_EXPONENTS ( 1.000000000000000000, 0.000000000000000000, 0.000000000000000000, 0.000000000000000000, 0.000000000000000000, 0.000000000000000000, 0.000000000000000000 ) ;
#62 = LENGTH_MEASURE_WITH_UNIT ( LENGTH_MEASURE( 0.02539999999999999897 ), #258 );
#63 = ADVANCED_FACE ( 'NONE', ( #302 ), #49, .T. ) ;
#64 = STYLED_ITEM ( 'NONE', ( #31 ), #95 ) ;
#65 = PRODUCT_DEFINITION_FORMATION_WITH_SPECIFIED_SOURCE ( 'ANY', '', #160, .NOT_KNOWN. ) ;
#66 = EDGE_LOOP ( 'NONE', ( #223, #2 ) ) ;
#67 = PRESENTATION_STYLE_ASSIGNMENT (( #116 ) ) ;
#68 = ORIENTED_EDGE ( 'NONE', *, *, #283, .T. ) ;
#69 = SURFACE_SIDE_STYLE ('',( #166 ) ) ;
#70 = SURFACE_STYLE_FILL_AREA ( #232 ) ;
#71 = PRESENTATION_LAYER_ASSIGNMENT (  '', '', ( #133 ) ) ;
#72 = VERTEX_POINT ( 'NONE', #249 ) ;
#73 =( NAMED_UNIT ( * ) PLANE_ANGLE_UNIT ( ) SI_UNIT ( $, .RADIAN. ) );
#74 = UNCERTAINTY_MEASURE_WITH_UNIT (LENGTH_MEASURE( 1.000000000000000082E-05 ), #294, 'distance_accuracy_value', 'NONE');
#75 = FILL_AREA_STYLE_COLOUR ( '', #194 ) ;
#76 = EDGE_CURVE ( 'NONE', #20, #210, #56, .T. ) ;
#77 = PRESENTATION_LAYER_ASSIGNMENT (  '', '', ( #187 ) ) ;
#78 =( NAMED_UNIT ( * ) SI_UNIT ( $, .STERADIAN. ) SOLID_ANGLE_UNIT ( ) );
#79 = PLANE ( 'NONE',  #34 ) ;
#80 = CARTESIAN_POINT ( 'NONE',  ( 0.000000000000000000, 1.625000000000000000, -0.2500000000000000000 ) ) ;
#81 = EDGE_LOOP ( 'NONE', ( #189, #93, #208, #27 ) ) ;
#82 = CARTESIAN_POINT ( 'NONE',  ( 0.000000000000000000, 1.625000000000000000, 0.000000000000000000 ) ) ;
#83 = DIRECTION ( 'NONE',  ( -1.000000000000000000, 0.000000000000000000, 0.000000000000000000 ) ) ;
#84 =( LENGTH_UNIT ( ) NAMED_UNIT ( * ) SI_UNIT ( $, .METRE. ) );
#85 = FACE_OUTER_BOUND ( 'NONE', #259, .T. ) ;
#86 = COLOUR_RGB ( '',1.000000000000000000, 0.000000000000000000, 0.000000000000000000 ) ;
#87 = AXIS2_PLACEMENT_3D ( 'NONE', #252, #199, #218 ) ;
#88 = MECHANICAL_DESIGN_GEOMETRIC_PRESENTATION_REPRESENTATION (  '', ( #133 ), #220 ) ;
#89 = ORIENTED_EDGE ( 'NONE', *, *, #114, .F. ) ;
#90 = CARTESIAN_POINT ( 'NONE',  ( 0.000000000000000000, 0.000000000000000000, 0.000000000000000000 ) ) ;
#91 = EDGE_LOOP ( 'NONE', ( #169, #36, #307, #212 ) ) ;
#92 = MECHANICAL_DESIGN_GEOMETRIC_PRESENTATION_REPRESENTATION (  '', ( #305 ), #23 ) ;
#93 = ORIENTED_EDGE ( 'NONE', *, *, #240, .T. ) ;
#94 =( NAMED_UNIT ( * ) SI_UNIT ( $, .STERADIAN. ) SOLID_ANGLE_UNIT ( ) );
#95 = ADVANCED_FACE ( 'NONE', ( #108 ), #79, .T. ) ;
#96 = APPLICATION_PROTOCOL_DEFINITION ( 'draft international standard', 'automotive_design', 1998, #54 ) ;
#97 = VERTEX_POINT ( 'NONE', #140 ) ;
#98 = SURFACE_STYLE_USAGE ( .BOTH. , #8 ) ;
#99 = FILL_AREA_STYLE ('',( #75 ) ) ;
#100 =( NAMED_UNIT ( * ) PLANE_ANGLE_UNIT ( ) SI_UNIT ( $, .RADIAN. ) );
#101 = STYLED_ITEM ( 'NONE', ( #3 ), #63 ) ;
#102 = CARTESIAN_POINT ( 'NONE',  ( -0.2500000000000000000, 1.625000000000000000, 0.000000000000000000 ) ) ;
#103 = AXIS2_PLACEMENT_3D ( 'NONE', #195, #7, #129 ) ;
#104 = DIRECTION ( 'NONE',  ( -5.156407575357275916E-17, 1.000000000000000000, 0.000000000000000000 ) ) ;
#105 = SHAPE_DEFINITION_REPRESENTATION ( #115, #285 ) ;
#106 =( LENGTH_UNIT ( ) NAMED_UNIT ( * ) SI_UNIT ( $, .METRE. ) );
#107 = SURFACE_STYLE_USAGE ( .BOTH. , #6 ) ;
#108 = FACE_OUTER_BOUND ( 'NONE', #123, .T. ) ;
#109 = CYLINDRICAL_SURFACE ( 'NONE', #174, 0.2500000000000000555 ) ;
#110 = PRODUCT_DEFINITION_CONTEXT ( 'detailed design', #54, 'design' ) ;
#111 =( NAMED_UNIT ( * ) SI_UNIT ( $, .STERADIAN. ) SOLID_ANGLE_UNIT ( ) );
#112 = PRESENTATION_LAYER_ASSIGNMENT (  '', '', ( #64 ) ) ;
#113 = COLOUR_RGB ( '',0.7921568627450980005, 0.8196078431372548767, 0.9333333333333333481 ) ;
#114 = EDGE_CURVE ( 'NONE', #141, #72, #57, .T. ) ;
#115 = PRODUCT_DEFINITION_SHAPE ( 'NONE', 'NONE',  #42 ) ;
#116 = SURFACE_STYLE_USAGE ( .BOTH. , #142 ) ;
#117 = AXIS2_PLACEMENT_3D ( 'NONE', #276, #211, #268 ) ;
#118 = VERTEX_POINT ( 'NONE', #21 ) ;
#119 = DIRECTION ( 'NONE',  ( -0.000000000000000000, -1.000000000000000000, -0.000000000000000000 ) ) ;
#120 = ORIENTED_EDGE ( 'NONE', *, *, #228, .F. ) ;
#121 = DIRECTION ( 'NONE',  ( -0.000000000000000000, -1.000000000000000000, -0.000000000000000000 ) ) ;
#122 = AXIS2_PLACEMENT_3D ( 'NONE', #18, #121, #238 ) ;
#123 = EDGE_LOOP ( 'NONE', ( #293, #181 ) ) ;
#124 = DIRECTION ( 'NONE',  ( -1.000000000000000000, 0.000000000000000000, 0.000000000000000000 ) ) ;
#125 = DIRECTION ( 'NONE',  ( -5.156407575357275299E-17, 1.000000000000000000, -0.000000000000000000 ) ) ;
#126 = SURFACE_SIDE_STYLE ('',( #172 ) ) ;
#127 = COLOUR_RGB ( '',0.7921568627450980005, 0.8196078431372548767, 0.9333333333333333481 ) ;
#128 = SURFACE_STYLE_FILL_AREA ( #33 ) ;
#129 = DIRECTION ( 'NONE',  ( -1.000000000000000000, 0.000000000000000000, 0.000000000000000000 ) ) ;
#130 = CARTESIAN_POINT ( 'NONE',  ( -0.2500000000000002220, 4.000000000000000000, 0.000000000000000000 ) ) ;
#131 = LENGTH_MEASURE_WITH_UNIT ( LENGTH_MEASURE( 0.02539999999999999897 ), #106 );
#132 = DIRECTION ( 'NONE',  ( -5.156407575357275299E-17, 1.000000000000000000, -0.000000000000000000 ) ) ;
#133 = STYLED_ITEM ( 'NONE', ( #192 ), #255 ) ;
#134 = EDGE_CURVE ( 'NONE', #304, #97, #284, .T. ) ;
#135 = AXIS2_PLACEMENT_3D ( 'NONE', #152, #180, #38 ) ;
#136 = LENGTH_MEASURE_WITH_UNIT ( LENGTH_MEASURE( 0.02539999999999999897 ), #291 );
#137 = DIRECTION ( 'NONE',  ( 0.000000000000000000, 0.000000000000000000, -1.000000000000000000 ) ) ;
#138 = AXIS2_PLACEMENT_3D ( 'NONE', #82, #60, #5 ) ;
#139 = ORIENTED_EDGE ( 'NONE', *, *, #209, .T. ) ;
#140 = CARTESIAN_POINT ( 'NONE',  ( 3.061616997868383018E-17, 1.625000000000000000, 0.2500000000000000000 ) ) ;
#141 = VERTEX_POINT ( 'NONE', #289 ) ;
#142 = SURFACE_SIDE_STYLE ('',( #70 ) ) ;
#143 = AXIS2_PLACEMENT_3D ( 'NONE', #286, #237, #164 ) ;
#144 = LINE ( 'NONE', #244, #263 ) ;
#145 = DIRECTION ( 'NONE',  ( -1.000000000000000000, -5.156407575357275916E-17, 0.000000000000000000 ) ) ;
#146 = PLANE ( 'NONE',  #87 ) ;
#147 =( CONVERSION_BASED_UNIT ( 'INCH', #153 ) LENGTH_UNIT ( ) NAMED_UNIT ( #14 ) );
#148 = FILL_AREA_STYLE_COLOUR ( '', #113 ) ;
#149 =( GEOMETRIC_REPRESENTATION_CONTEXT ( 3 ) GLOBAL_UNCERTAINTY_ASSIGNED_CONTEXT ( ( #243 ) ) GLOBAL_UNIT_ASSIGNED_CONTEXT ( ( #147, #225, #111 ) ) REPRESENTATION_CONTEXT ( 'NONE', 'WORKASPACE' ) );
#150 = DIRECTION ( 'NONE',  ( -5.156407575357275916E-17, 1.000000000000000000, -0.000000000000000000 ) ) ;
#151 = AXIS2_PLACEMENT_3D ( 'NONE', #273, #132, #177 ) ;
#152 = CARTESIAN_POINT ( 'NONE',  ( 0.2500000000000000000, 4.000000000000000000, 0.000000000000000000 ) ) ;
#153 = LENGTH_MEASURE_WITH_UNIT ( LENGTH_MEASURE( 0.02539999999999999897 ), #84 );
#154 = DIRECTION ( 'NONE',  ( -5.156407575357275916E-17, 1.000000000000000000, -0.000000000000000000 ) ) ;
#155 = EDGE_CURVE ( 'NONE', #72, #141, #231, .T. ) ;
#156 = CARTESIAN_POINT ( 'NONE',  ( 0.000000000000000000, 0.000000000000000000, 0.000000000000000000 ) ) ;
#157 = AXIS2_PLACEMENT_3D ( 'NONE', #242, #104, #145 ) ;
#158 = PRESENTATION_LAYER_ASSIGNMENT (  '', '', ( #50 ) ) ;
#159 = COLOUR_RGB ( '',1.000000000000000000, 0.000000000000000000, 0.000000000000000000 ) ;
#160 = PRODUCT ( '01480', '01480', '', ( #35 ) ) ;
#161 = EDGE_CURVE ( 'NONE', #118, #47, #206, .T. ) ;
#162 = FILL_AREA_STYLE ('',( #170 ) ) ;
#163 = MANIFOLD_SOLID_BREP ( 'Revolve - Tool Body (Straight Shanked)', #219 ) ;
#164 = DIRECTION ( 'NONE',  ( -1.000000000000000000, 0.000000000000000000, 0.000000000000000000 ) ) ;
#165 = AXIS2_PLACEMENT_3D ( 'NONE', #19, #119, #308 ) ;
#166 = SURFACE_STYLE_FILL_AREA ( #162 ) ;
#167 = ADVANCED_FACE ( 'NONE', ( #190 ), #45, .T. ) ;
#168 = CARTESIAN_POINT ( 'NONE',  ( 0.000000000000000000, 0.000000000000000000, -0.2500000000000000000 ) ) ;
#169 = ORIENTED_EDGE ( 'NONE', *, *, #134, .T. ) ;
#170 = FILL_AREA_STYLE_COLOUR ( '', #297 ) ;
#171 = LINE ( 'NONE', #30, #25 ) ;
#172 = SURFACE_STYLE_FILL_AREA ( #99 ) ;
#173 = SURFACE_STYLE_FILL_AREA ( #226 ) ;
#174 = AXIS2_PLACEMENT_3D ( 'NONE', #296, #278, #224 ) ;
#175 = ADVANCED_FACE ( 'NONE', ( #85 ), #245, .F. ) ;
#176 = FILL_AREA_STYLE_COLOUR ( '', #86 ) ;
#177 = DIRECTION ( 'NONE',  ( -1.000000000000000000, 0.000000000000000000, 0.000000000000000000 ) ) ;
#178 =( LENGTH_UNIT ( ) NAMED_UNIT ( * ) SI_UNIT ( $, .METRE. ) );
#179 = CARTESIAN_POINT ( 'NONE',  ( 0.2500000000000000555, 4.000000000000000000, 3.061616997868384251E-17 ) ) ;
#180 = DIRECTION ( 'NONE',  ( 5.156407575357275916E-17, -1.000000000000000000, 0.000000000000000000 ) ) ;
#181 = ORIENTED_EDGE ( 'NONE', *, *, #114, .T. ) ;
#182 = AXIS2_PLACEMENT_3D ( 'NONE', #197, #125, #83 ) ;
#183 = FACE_OUTER_BOUND ( 'NONE', #217, .T. ) ;
#184 = MECHANICAL_DESIGN_GEOMETRIC_PRESENTATION_REPRESENTATION (  '', ( #64 ), #239 ) ;
#185 =( GEOMETRIC_REPRESENTATION_CONTEXT ( 3 ) GLOBAL_UNCERTAINTY_ASSIGNED_CONTEXT ( ( #202 ) ) GLOBAL_UNIT_ASSIGNED_CONTEXT ( ( #216, #193, #298 ) ) REPRESENTATION_CONTEXT ( 'NONE', 'WORKASPACE' ) );
#186 = ADVANCED_FACE ( 'NONE', ( #250 ), #109, .T. ) ;
#187 = STYLED_ITEM ( 'NONE', ( #16 ), #167 ) ;
#188 =( CONVERSION_BASED_UNIT ( 'INCH', #213 ) LENGTH_UNIT ( ) NAMED_UNIT ( #257 ) );
#189 = ORIENTED_EDGE ( 'NONE', *, *, #283, .F. ) ;
#190 = FACE_OUTER_BOUND ( 'NONE', #91, .T. ) ;
#191 = ORIENTED_EDGE ( 'NONE', *, *, #300, .T. ) ;
#192 = PRESENTATION_STYLE_ASSIGNMENT (( #98 ) ) ;
#193 =( NAMED_UNIT ( * ) PLANE_ANGLE_UNIT ( ) SI_UNIT ( $, .RADIAN. ) );
#194 = COLOUR_RGB ( '',1.000000000000000000, 0.000000000000000000, 0.000000000000000000 ) ;
#195 = CARTESIAN_POINT ( 'NONE',  ( 3.032960542342103792E-32, 1.625000000000000000, 0.000000000000000000 ) ) ;
#196 = DIRECTION ( 'NONE',  ( -5.156407575357275299E-17, 1.000000000000000000, -0.000000000000000000 ) ) ;
#197 = CARTESIAN_POINT ( 'NONE',  ( -1.224646799147352714E-16, 4.000000000000000000, 0.000000000000000000 ) ) ;
#198 = ORIENTED_EDGE ( 'NONE', *, *, #280, .T. ) ;
#199 = DIRECTION ( 'NONE',  ( 0.000000000000000000, 1.000000000000000000, 0.000000000000000000 ) ) ;
#200 = PLANE ( 'NONE',  #135 ) ;
#201 =( NAMED_UNIT ( * ) PLANE_ANGLE_UNIT ( ) SI_UNIT ( $, .RADIAN. ) );
#202 = UNCERTAINTY_MEASURE_WITH_UNIT (LENGTH_MEASURE( 1.000000000000000082E-05 ), #216, 'distance_accuracy_value', 'NONE');
#203 = MECHANICAL_DESIGN_GEOMETRIC_PRESENTATION_REPRESENTATION (  '', ( #101 ), #149 ) ;
#204 = CIRCLE ( 'NONE', #138, 0.2500000000000000000 ) ;
#205 = ADVANCED_FACE ( 'NONE', ( #222 ), #29, .T. ) ;
#206 = CIRCLE ( 'NONE', #143, 0.2500000000000001110 ) ;
#207 = DIRECTION ( 'NONE',  ( -0.000000000000000000, -1.000000000000000000, -0.000000000000000000 ) ) ;
#208 = ORIENTED_EDGE ( 'NONE', *, *, #228, .T. ) ;
#209 = EDGE_CURVE ( 'NONE', #97, #304, #204, .T. ) ;
#210 = VERTEX_POINT ( 'NONE', #299 ) ;
#211 = DIRECTION ( 'NONE',  ( 0.000000000000000000, 0.000000000000000000, 1.000000000000000000 ) ) ;
#212 = ORIENTED_EDGE ( 'NONE', *, *, #280, .F. ) ;
#213 = LENGTH_MEASURE_WITH_UNIT ( LENGTH_MEASURE( 0.02539999999999999897 ), #265 );
#214 = ADVANCED_FACE ( 'NONE', ( #183 ), #200, .F. ) ;
#215 = DIRECTION ( 'NONE',  ( 0.000000000000000000, 0.000000000000000000, -1.000000000000000000 ) ) ;
#216 =( CONVERSION_BASED_UNIT ( 'INCH', #274 ) LENGTH_UNIT ( ) NAMED_UNIT ( #253 ) );
#217 = EDGE_LOOP ( 'NONE', ( #22, #191 ) ) ;
#218 = DIRECTION ( 'NONE',  ( 0.000000000000000000, -0.000000000000000000, 1.000000000000000000 ) ) ;
#219 = CLOSED_SHELL ( 'NONE', ( #186, #175, #205, #214 ) ) ;
#220 =( GEOMETRIC_REPRESENTATION_CONTEXT ( 3 ) GLOBAL_UNCERTAINTY_ASSIGNED_CONTEXT ( ( #281 ) ) GLOBAL_UNIT_ASSIGNED_CONTEXT ( ( #51, #100, #78 ) ) REPRESENTATION_CONTEXT ( 'NONE', 'WORKASPACE' ) );
#221 = DIMENSIONAL_EXPONENTS ( 1.000000000000000000, 0.000000000000000000, 0.000000000000000000, 0.000000000000000000, 0.000000000000000000, 0.000000000000000000, 0.000000000000000000 ) ;
#222 = FACE_OUTER_BOUND ( 'NONE', #81, .T. ) ;
#223 = ORIENTED_EDGE ( 'NONE', *, *, #134, .F. ) ;
#224 = DIRECTION ( 'NONE',  ( -1.000000000000000000, 0.000000000000000000, 0.000000000000000000 ) ) ;
#225 =( NAMED_UNIT ( * ) PLANE_ANGLE_UNIT ( ) SI_UNIT ( $, .RADIAN. ) );
#226 = FILL_AREA_STYLE ('',( #37 ) ) ;
#227 = VECTOR ( 'NONE', #154, 39.37007874015748143 ) ;
#228 = EDGE_CURVE ( 'NONE', #20, #118, #275, .T. ) ;
#229 = DIMENSIONAL_EXPONENTS ( 1.000000000000000000, 0.000000000000000000, 0.000000000000000000, 0.000000000000000000, 0.000000000000000000, 0.000000000000000000, 0.000000000000000000 ) ;
#230 = AXIS2_PLACEMENT_3D ( 'NONE', #4, #52, #215 ) ;
#231 = CIRCLE ( 'NONE', #40, 0.2500000000000000000 ) ;
#232 = FILL_AREA_STYLE ('',( #24 ) ) ;
#233 = AXIS2_PLACEMENT_3D ( 'NONE', #28, #196, #124 ) ;
#234 =( NAMED_UNIT ( * ) SI_UNIT ( $, .STERADIAN. ) SOLID_ANGLE_UNIT ( ) );
#235 = PRODUCT_RELATED_PRODUCT_CATEGORY ( 'part', '', ( #160 ) ) ;
#236 = CARTESIAN_POINT ( 'NONE',  ( 0.000000000000000000, 0.000000000000000000, 0.000000000000000000 ) ) ;
#237 = DIRECTION ( 'NONE',  ( -5.156407575357275299E-17, 1.000000000000000000, -0.000000000000000000 ) ) ;
#238 = DIRECTION ( 'NONE',  ( 0.000000000000000000, 0.000000000000000000, -1.000000000000000000 ) ) ;
#239 =( GEOMETRIC_REPRESENTATION_CONTEXT ( 3 ) GLOBAL_UNCERTAINTY_ASSIGNED_CONTEXT ( ( #74 ) ) GLOBAL_UNIT_ASSIGNED_CONTEXT ( ( #294, #201, #279 ) ) REPRESENTATION_CONTEXT ( 'NONE', 'WORKASPACE' ) );
#240 = EDGE_CURVE ( 'NONE', #210, #20, #282, .T. ) ;
#241 = EDGE_LOOP ( 'NONE', ( #287, #139, #198, #89 ) ) ;
#242 = CARTESIAN_POINT ( 'NONE',  ( 3.323567385400236968E-34, 1.625000000000000000, 0.000000000000000000 ) ) ;
#243 = UNCERTAINTY_MEASURE_WITH_UNIT (LENGTH_MEASURE( 1.000000000000000082E-05 ), #147, 'distance_accuracy_value', 'NONE');
#244 = CARTESIAN_POINT ( 'NONE',  ( 3.061616997868383018E-17, 0.000000000000000000, 0.2500000000000000000 ) ) ;
#245 = PLANE ( 'NONE',  #157 ) ;
#246 = SURFACE_STYLE_USAGE ( .BOTH. , #251 ) ;
#247 = FACE_OUTER_BOUND ( 'NONE', #66, .T. ) ;
#248 =( GEOMETRIC_REPRESENTATION_CONTEXT ( 3 ) GLOBAL_UNCERTAINTY_ASSIGNED_CONTEXT ( ( #267 ) ) GLOBAL_UNIT_ASSIGNED_CONTEXT ( ( #188, #266, #234 ) ) REPRESENTATION_CONTEXT ( 'NONE', 'WORKASPACE' ) );
#249 = CARTESIAN_POINT ( 'NONE',  ( 0.000000000000000000, 0.000000000000000000, -0.2500000000000000000 ) ) ;
#250 = FACE_OUTER_BOUND ( 'NONE', #262, .T. ) ;
#251 = SURFACE_SIDE_STYLE ('',( #58 ) ) ;
#252 = CARTESIAN_POINT ( 'NONE',  ( 0.000000000000000000, 1.625000000000000000, 0.000000000000000000 ) ) ;
#253 = DIMENSIONAL_EXPONENTS ( 1.000000000000000000, 0.000000000000000000, 0.000000000000000000, 0.000000000000000000, 0.000000000000000000, 0.000000000000000000, 0.000000000000000000 ) ;
#254 = DIRECTION ( 'NONE',  ( 0.000000000000000000, -1.000000000000000000, -0.000000000000000000 ) ) ;
#255 = ADVANCED_FACE ( 'NONE', ( #247 ), #146, .T. ) ;
#256 = CLOSED_SHELL ( 'NONE', ( #167, #255, #63, #95 ) ) ;
#257 = DIMENSIONAL_EXPONENTS ( 1.000000000000000000, 0.000000000000000000, 0.000000000000000000, 0.000000000000000000, 0.000000000000000000, 0.000000000000000000, 0.000000000000000000 ) ;
#258 =( LENGTH_UNIT ( ) NAMED_UNIT ( * ) SI_UNIT ( $, .METRE. ) );
#259 = EDGE_LOOP ( 'NONE', ( #10, #288 ) ) ;
#260 = DIRECTION ( 'NONE',  ( -0.000000000000000000, -1.000000000000000000, -0.000000000000000000 ) ) ;
#261 = SURFACE_STYLE_USAGE ( .BOTH. , #69 ) ;
#262 = EDGE_LOOP ( 'NONE', ( #44, #68, #277, #120 ) ) ;
#263 = VECTOR ( 'NONE', #53, 39.37007874015748143 ) ;
#264 = MECHANICAL_DESIGN_GEOMETRIC_PRESENTATION_REPRESENTATION (  '', ( #187 ), #248 ) ;
#265 =( LENGTH_UNIT ( ) NAMED_UNIT ( * ) SI_UNIT ( $, .METRE. ) );
#266 =( NAMED_UNIT ( * ) PLANE_ANGLE_UNIT ( ) SI_UNIT ( $, .RADIAN. ) );
#267 = UNCERTAINTY_MEASURE_WITH_UNIT (LENGTH_MEASURE( 1.000000000000000082E-05 ), #188, 'distance_accuracy_value', 'NONE');
#268 = DIRECTION ( 'NONE',  ( 1.000000000000000000, 0.000000000000000000, 0.000000000000000000 ) ) ;
#269 = SURFACE_STYLE_USAGE ( .BOTH. , #126 ) ;
#270 = LENGTH_MEASURE_WITH_UNIT ( LENGTH_MEASURE( 0.02539999999999999897 ), #295 );
#271 = MANIFOLD_SOLID_BREP ( 'Revolve - Cutting Edge', #256 ) ;
#272 = FILL_AREA_STYLE ('',( #176 ) ) ;
#273 = CARTESIAN_POINT ( 'NONE',  ( 3.032960542342103792E-32, 1.625000000000000000, 0.000000000000000000 ) ) ;
#274 = LENGTH_MEASURE_WITH_UNIT ( LENGTH_MEASURE( 0.02539999999999999897 ), #178 );
#275 = LINE ( 'NONE', #130, #227 ) ;
#276 = CARTESIAN_POINT ( 'NONE',  ( 0.000000000000000000, 0.000000000000000000, 0.000000000000000000 ) ) ;
#277 = ORIENTED_EDGE ( 'NONE', *, *, #161, .F. ) ;
#278 = DIRECTION ( 'NONE',  ( -5.156407575357275299E-17, 1.000000000000000000, -0.000000000000000000 ) ) ;
#279 =( NAMED_UNIT ( * ) SI_UNIT ( $, .STERADIAN. ) SOLID_ANGLE_UNIT ( ) );
#280 = EDGE_CURVE ( 'NONE', #304, #72, #55, .T. ) ;
#281 = UNCERTAINTY_MEASURE_WITH_UNIT (LENGTH_MEASURE( 1.000000000000000082E-05 ), #51, 'distance_accuracy_value', 'NONE');
#282 = CIRCLE ( 'NONE', #151, 0.2500000000000000000 ) ;
#283 = EDGE_CURVE ( 'NONE', #210, #47, #171, .T. ) ;
#284 = CIRCLE ( 'NONE', #165, 0.2500000000000000000 ) ;
#285 = ADVANCED_BREP_SHAPE_REPRESENTATION ( '01480', ( #271, #163, #117 ), #185 ) ;
#286 = CARTESIAN_POINT ( 'NONE',  ( -1.224646799147352714E-16, 4.000000000000000000, 0.000000000000000000 ) ) ;
#287 = ORIENTED_EDGE ( 'NONE', *, *, #9, .F. ) ;
#288 = ORIENTED_EDGE ( 'NONE', *, *, #240, .F. ) ;
#289 = CARTESIAN_POINT ( 'NONE',  ( 3.061616997868383018E-17, 0.000000000000000000, 0.2500000000000000000 ) ) ;
#290 = PRESENTATION_LAYER_ASSIGNMENT (  '', '', ( #305 ) ) ;
#291 =( LENGTH_UNIT ( ) NAMED_UNIT ( * ) SI_UNIT ( $, .METRE. ) );
#292 =( NAMED_UNIT ( * ) SI_UNIT ( $, .STERADIAN. ) SOLID_ANGLE_UNIT ( ) );
#293 = ORIENTED_EDGE ( 'NONE', *, *, #155, .T. ) ;
#294 =( CONVERSION_BASED_UNIT ( 'INCH', #131 ) LENGTH_UNIT ( ) NAMED_UNIT ( #59 ) );
#295 =( LENGTH_UNIT ( ) NAMED_UNIT ( * ) SI_UNIT ( $, .METRE. ) );
#296 = CARTESIAN_POINT ( 'NONE',  ( -1.224646799147352714E-16, 4.000000000000000000, 0.000000000000000000 ) ) ;
#297 = COLOUR_RGB ( '',1.000000000000000000, 0.000000000000000000, 0.000000000000000000 ) ;
#298 =( NAMED_UNIT ( * ) SI_UNIT ( $, .STERADIAN. ) SOLID_ANGLE_UNIT ( ) );
#299 = CARTESIAN_POINT ( 'NONE',  ( 0.2500000000000000555, 1.625000000000000000, 3.061616997868384251E-17 ) ) ;
#300 = EDGE_CURVE ( 'NONE', #47, #118, #1, .T. ) ;
#301 = UNCERTAINTY_MEASURE_WITH_UNIT (LENGTH_MEASURE( 1.000000000000000082E-05 ), #48, 'distance_accuracy_value', 'NONE');
#302 = FACE_OUTER_BOUND ( 'NONE', #241, .T. ) ;
#303 = PRESENTATION_STYLE_ASSIGNMENT (( #107 ) ) ;
#304 = VERTEX_POINT ( 'NONE', #80 ) ;
#305 = STYLED_ITEM ( 'NONE', ( #303 ), #271 ) ;
#306 =( GEOMETRIC_REPRESENTATION_CONTEXT ( 3 ) GLOBAL_UNCERTAINTY_ASSIGNED_CONTEXT ( ( #301 ) ) GLOBAL_UNIT_ASSIGNED_CONTEXT ( ( #48, #73, #94 ) ) REPRESENTATION_CONTEXT ( 'NONE', 'WORKASPACE' ) );
#307 = ORIENTED_EDGE ( 'NONE', *, *, #155, .F. ) ;
#308 = DIRECTION ( 'NONE',  ( 0.000000000000000000, 0.000000000000000000, -1.000000000000000000 ) ) ;
#309 = DIRECTION ( 'NONE',  ( 0.000000000000000000, 0.000000000000000000, -1.000000000000000000 ) ) ;
ENDSEC;
END-ISO-10303-21;
