ISO-10303-21;
HEADER;
FILE_DESCRIPTION (( 'STEP AP214' ),
    '1' );
FILE_NAME ('Micro_BMR-011-2X.STEP',
    '2021-09-03T13:40:50',
    ( '' ),
    ( '' ),
    'SwSTEP 2.0',
    'SolidWorks 2020',
    '' );
FILE_SCHEMA (( 'AUTOMOTIVE_DESIGN' ));
ENDSEC;

DATA;
#1 = EDGE_LOOP ( 'NONE', ( #119, #97, #274, #174 ) ) ;
#2 =( NAMED_UNIT ( * ) SI_UNIT ( $, .STERADIAN. ) SOLID_ANGLE_UNIT ( ) );
#3 = EDGE_CURVE ( 'NONE', #144, #298, #121, .T. ) ;
#4 = CARTESIAN_POINT ( 'NONE',  ( -0.005494500000000001119, 0.0000000000000000000, 0.005494500000000001119 ) ) ;
#5 =( NAMED_UNIT ( * ) SI_UNIT ( $, .STERADIAN. ) SOLID_ANGLE_UNIT ( ) );
#6 = EDGE_CURVE ( 'NONE', #233, #323, #229, .T. ) ;
#7 = DIRECTION ( 'NONE',  ( -1.000000000000000000, 0.0000000000000000000, 0.0000000000000000000 ) ) ;
#8 = DIRECTION ( 'NONE',  ( -1.000000000000000000, 0.0000000000000000000, 1.224646799147353454E-16 ) ) ;
#9 = DIRECTION ( 'NONE',  ( -1.000000000000000000, 0.0000000000000000000, 0.0000000000000000000 ) ) ;
#10 = ADVANCED_FACE ( 'NONE', ( #231 ), #157, .T. ) ;
#11 = EDGE_CURVE ( 'NONE', #21, #233, #168, .T. ) ;
#12 = DIRECTION ( 'NONE',  ( -0.1736481776669311639, 2.126576849575783008E-17, 0.9848077530122080203 ) ) ;
#13 = VERTEX_POINT ( 'NONE', #68 ) ;
#14 = SURFACE_SIDE_STYLE ('',( #160 ) ) ;
#15 = LINE ( 'NONE', #245, #213 ) ;
#16 = PRODUCT_DEFINITION ( 'UNKNOWN', '', #60, #197 ) ;
#17 = CARTESIAN_POINT ( 'NONE',  ( 6.728821837915133930E-19, 0.0000000000000000000, 0.005494500000000000252 ) ) ;
#18 = ORIENTED_EDGE ( 'NONE', *, *, #109, .F. ) ;
#19 = ORIENTED_EDGE ( 'NONE', *, *, #292, .F. ) ;
#20 = ORIENTED_EDGE ( 'NONE', *, *, #218, .F. ) ;
#21 = VERTEX_POINT ( 'NONE', #256 ) ;
#22 = DIMENSIONAL_EXPONENTS ( 1.000000000000000000, 0.0000000000000000000, 0.0000000000000000000, 0.0000000000000000000, 0.0000000000000000000, 0.0000000000000000000, 0.0000000000000000000 ) ;
#23 = CARTESIAN_POINT ( 'NONE',  ( 0.0000000000000000000, 0.0000000000000000000, 1.500000000000000222 ) ) ;
#24 = EDGE_CURVE ( 'NONE', #45, #323, #79, .T. ) ;
#25 = APPLICATION_PROTOCOL_DEFINITION ( 'draft international standard', 'automotive_design', 1998, #117 ) ;
#26 = AXIS2_PLACEMENT_3D ( 'NONE', #23, #75, #277 ) ;
#27 = DIRECTION ( 'NONE',  ( 0.0000000000000000000, 0.0000000000000000000, 1.000000000000000000 ) ) ;
#28 =( LENGTH_UNIT ( ) NAMED_UNIT ( * ) SI_UNIT ( $, .METRE. ) );
#29 = FACE_OUTER_BOUND ( 'NONE', #172, .T. ) ;
#30 =( NAMED_UNIT ( * ) PLANE_ANGLE_UNIT ( ) SI_UNIT ( $, .RADIAN. ) );
#31 = PLANE ( 'NONE',  #259 ) ;
#32 = AXIS2_PLACEMENT_3D ( 'NONE', #129, #108, #215 ) ;
#33 = VECTOR ( 'NONE', #12, 39.37007874015747433 ) ;
#34 = FACE_OUTER_BOUND ( 'NONE', #123, .T. ) ;
#35 = DIRECTION ( 'NONE',  ( 1.000000000000000000, 0.0000000000000000000, 0.0000000000000000000 ) ) ;
#36 = UNCERTAINTY_MEASURE_WITH_UNIT (LENGTH_MEASURE( 1.000000000000000082E-05 ), #102, 'distance_accuracy_value', 'NONE');
#37 = EDGE_CURVE ( 'NONE', #45, #94, #279, .T. ) ;
#38 = CARTESIAN_POINT ( 'NONE',  ( -0.04750000000000064587, 0.0000000000000000000, 1.500000000000000222 ) ) ;
#39 = ORIENTED_EDGE ( 'NONE', *, *, #11, .F. ) ;
#40 = DIRECTION ( 'NONE',  ( -1.224646799147353454E-16, -0.0000000000000000000, -1.000000000000000000 ) ) ;
#41 = CARTESIAN_POINT ( 'NONE',  ( 4.041334437186266650E-18, 0.0000000000000000000, 0.03300000000000000155 ) ) ;
#42 =( LENGTH_UNIT ( ) NAMED_UNIT ( * ) SI_UNIT ( $, .METRE. ) );
#43 = ORIENTED_EDGE ( 'NONE', *, *, #24, .T. ) ;
#44 = ORIENTED_EDGE ( 'NONE', *, *, #278, .T. ) ;
#45 = VERTEX_POINT ( 'NONE', #159 ) ;
#46 = ORIENTED_EDGE ( 'NONE', *, *, #228, .T. ) ;
#47 = ADVANCED_FACE ( 'NONE', ( #103 ), #130, .T. ) ;
#48 = VERTEX_POINT ( 'NONE', #4 ) ;
#49 = CLOSED_SHELL ( 'NONE', ( #120, #47, #10, #244, #59, #181, #125, #189, #184, #166, #241 ) ) ;
#50 = CARTESIAN_POINT ( 'NONE',  ( 0.0000000000000000000, 0.0000000000000000000, 1.500000000000000222 ) ) ;
#51 = CARTESIAN_POINT ( 'NONE',  ( 6.728821837915133930E-19, 0.0000000000000000000, 0.005494500000000000252 ) ) ;
#52 = DIRECTION ( 'NONE',  ( 1.000000000000000000, 0.0000000000000000000, -0.0000000000000000000 ) ) ;
#53 = DIRECTION ( 'NONE',  ( -0.0000000000000000000, -0.0000000000000000000, -1.000000000000000000 ) ) ;
#54 = CIRCLE ( 'NONE', #249, 0.005494500000000001987 ) ;
#55 = DIRECTION ( 'NONE',  ( 1.224646799147353207E-16, 1.000000000000000000, -0.0000000000000000000 ) ) ;
#56 = DIRECTION ( 'NONE',  ( -1.224646799147353454E-16, -0.0000000000000000000, -1.000000000000000000 ) ) ;
#57 = DIRECTION ( 'NONE',  ( 0.0000000000000000000, 1.000000000000000000, 0.0000000000000000000 ) ) ;
#58 = VERTEX_POINT ( 'NONE', #188 ) ;
#59 = ADVANCED_FACE ( 'NONE', ( #266 ), #239, .T. ) ;
#60 = PRODUCT_DEFINITION_FORMATION_WITH_SPECIFIED_SOURCE ( 'ANY', '', #265, .NOT_KNOWN. ) ;
#61 = CARTESIAN_POINT ( 'NONE',  ( 0.005494500000000001987, 6.728821837915134893E-19, -6.728821837915135856E-19 ) ) ;
#62 = CARTESIAN_POINT ( 'NONE',  ( 6.728821837915133930E-19, 0.0000000000000000000, 0.005494500000000000252 ) ) ;
#63 = UNCERTAINTY_MEASURE_WITH_UNIT (LENGTH_MEASURE( 1.000000000000000082E-05 ), #318, 'distance_accuracy_value', 'NONE');
#64 = ORIENTED_EDGE ( 'NONE', *, *, #301, .F. ) ;
#65 = AXIS2_PLACEMENT_3D ( 'NONE', #235, #285, #35 ) ;
#66 = AXIS2_PLACEMENT_3D ( 'NONE', #281, #307, #186 ) ;
#67 = ORIENTED_EDGE ( 'NONE', *, *, #198, .T. ) ;
#68 = CARTESIAN_POINT ( 'NONE',  ( 0.005494500000000002854, 6.728821837915134893E-19, 0.005494499999999998517 ) ) ;
#69 = ORIENTED_EDGE ( 'NONE', *, *, #73, .F. ) ;
#70 = AXIS2_PLACEMENT_3D ( 'NONE', #311, #190, #7 ) ;
#71 = STYLED_ITEM ( 'NONE', ( #100 ), #204 ) ;
#72 = SURFACE_STYLE_USAGE ( .BOTH. , #128 ) ;
#73 = EDGE_CURVE ( 'NONE', #233, #21, #254, .T. ) ;
#74 = CIRCLE ( 'NONE', #222, 0.005494500000000001987 ) ;
#75 = DIRECTION ( 'NONE',  ( 0.0000000000000000000, 0.0000000000000000000, 1.000000000000000000 ) ) ;
#76 = ORIENTED_EDGE ( 'NONE', *, *, #224, .T. ) ;
#77 = CARTESIAN_POINT ( 'NONE',  ( 0.0000000000000000000, 0.0000000000000000000, 0.0000000000000000000 ) ) ;
#78 = FILL_AREA_STYLE ('',( #257 ) ) ;
#79 = CIRCLE ( 'NONE', #232, 0.06250000000000002776 ) ;
#80 = CIRCLE ( 'NONE', #325, 0.06250000000000002776 ) ;
#81 = CARTESIAN_POINT ( 'NONE',  ( -0.06250000000000002776, 0.0000000000000000000, 1.500000000000000222 ) ) ;
#82 = DIRECTION ( 'NONE',  ( 0.0000000000000000000, -1.000000000000000000, 0.0000000000000000000 ) ) ;
#83 = CARTESIAN_POINT ( 'NONE',  ( 0.0000000000000000000, 0.0000000000000000000, 1.500000000000000222 ) ) ;
#84 = CIRCLE ( 'NONE', #308, 0.005494500000000000252 ) ;
#85 =( GEOMETRIC_REPRESENTATION_CONTEXT ( 3 ) GLOBAL_UNCERTAINTY_ASSIGNED_CONTEXT ( ( #36 ) ) GLOBAL_UNIT_ASSIGNED_CONTEXT ( ( #102, #143, #5 ) ) REPRESENTATION_CONTEXT ( 'NONE', 'WORKASPACE' ) );
#86 = DIRECTION ( 'NONE',  ( 0.0000000000000000000, 0.0000000000000000000, -1.000000000000000000 ) ) ;
#87 = DIRECTION ( 'NONE',  ( 1.000000000000000000, 0.0000000000000000000, 0.0000000000000000000 ) ) ;
#88 = EDGE_LOOP ( 'NONE', ( #98, #67, #18 ) ) ;
#89 = CARTESIAN_POINT ( 'NONE',  ( 4.363346198811338976E-17, 0.0000000000000000000, 0.3562942557682157729 ) ) ;
#90 = ORIENTED_EDGE ( 'NONE', *, *, #284, .F. ) ;
#91 = DIRECTION ( 'NONE',  ( -1.224646799147353454E-16, -0.0000000000000000000, -1.000000000000000000 ) ) ;
#92 = AXIS2_PLACEMENT_3D ( 'NONE', #41, #56, #113 ) ;
#93 = DIRECTION ( 'NONE',  ( -1.224646799147353454E-16, -0.0000000000000000000, -1.000000000000000000 ) ) ;
#94 = VERTEX_POINT ( 'NONE', #134 ) ;
#95 = AXIS2_PLACEMENT_3D ( 'NONE', #312, #192, #135 ) ;
#96 = CARTESIAN_POINT ( 'NONE',  ( 4.041334437186266650E-18, 0.0000000000000000000, 0.03300000000000000155 ) ) ;
#97 = ORIENTED_EDGE ( 'NONE', *, *, #295, .T. ) ;
#98 = ORIENTED_EDGE ( 'NONE', *, *, #175, .F. ) ;
#99 = CONICAL_SURFACE ( 'NONE', #70, 0.04750000000000064587, 0.7853981633974466137 ) ;
#100 = PRESENTATION_STYLE_ASSIGNMENT (( #72 ) ) ;
#101 = ORIENTED_EDGE ( 'NONE', *, *, #301, .T. ) ;
#102 =( CONVERSION_BASED_UNIT ( 'INCH', #104 ) LENGTH_UNIT ( ) NAMED_UNIT ( #173 ) );
#103 = FACE_OUTER_BOUND ( 'NONE', #1, .T. ) ;
#104 = LENGTH_MEASURE_WITH_UNIT ( LENGTH_MEASURE( 0.02539999999999999897 ), #28 );
#105 = DIRECTION ( 'NONE',  ( -1.000000000000000000, 0.0000000000000000000, 1.224646799147353454E-16 ) ) ;
#106 = MECHANICAL_DESIGN_GEOMETRIC_PRESENTATION_REPRESENTATION (  '', ( #321 ), #297 ) ;
#107 = DIRECTION ( 'NONE',  ( -1.000000000000000000, 0.0000000000000000000, 0.0000000000000000000 ) ) ;
#108 = DIRECTION ( 'NONE',  ( 1.224646799147353454E-16, 0.0000000000000000000, 1.000000000000000000 ) ) ;
#109 = EDGE_CURVE ( 'NONE', #13, #48, #54, .T. ) ;
#110 = CARTESIAN_POINT ( 'NONE',  ( 0.0000000000000000000, 0.0000000000000000000, 1.500000000000000222 ) ) ;
#111 = CARTESIAN_POINT ( 'NONE',  ( 0.04750000000000064587, 6.735557395310483192E-18, 1.500000000000000222 ) ) ;
#112 = ORIENTED_EDGE ( 'NONE', *, *, #252, .F. ) ;
#113 = DIRECTION ( 'NONE',  ( -1.000000000000000000, 0.0000000000000000000, 0.0000000000000000000 ) ) ;
#114 =( NAMED_UNIT ( * ) PLANE_ANGLE_UNIT ( ) SI_UNIT ( $, .RADIAN. ) );
#115 = DIRECTION ( 'NONE',  ( -1.000000000000000000, 0.0000000000000000000, 1.942175125170811635E-16 ) ) ;
#116 = DIRECTION ( 'NONE',  ( 0.0000000000000000000, 0.0000000000000000000, -1.000000000000000000 ) ) ;
#117 = APPLICATION_CONTEXT ( 'automotive_design' ) ;
#118 = PRODUCT_RELATED_PRODUCT_CATEGORY ( 'part', '', ( #265 ) ) ;
#119 = ORIENTED_EDGE ( 'NONE', *, *, #305, .T. ) ;
#120 = ADVANCED_FACE ( 'NONE', ( #306 ), #236, .T. ) ;
#121 = LINE ( 'NONE', #253, #136 ) ;
#122 = CONICAL_SURFACE ( 'NONE', #209, 0.04750000000000064587, 0.7853981633974466137 ) ;
#123 = EDGE_LOOP ( 'NONE', ( #64, #149, #126, #194 ) ) ;
#124 = CARTESIAN_POINT ( 'NONE',  ( 0.0000000000000000000, 0.0000000000000000000, 1.485000000000000764 ) ) ;
#125 = ADVANCED_FACE ( 'NONE', ( #240 ), #31, .T. ) ;
#126 = ORIENTED_EDGE ( 'NONE', *, *, #37, .T. ) ;
#127 = AXIS2_PLACEMENT_3D ( 'NONE', #96, #299, #176 ) ;
#128 = SURFACE_SIDE_STYLE ('',( #154 ) ) ;
#129 = CARTESIAN_POINT ( 'NONE',  ( 4.041334437186266650E-18, 0.0000000000000000000, 0.03300000000000000155 ) ) ;
#130 = CYLINDRICAL_SURFACE ( 'NONE', #131, 0.005494500000000001987 ) ;
#131 = AXIS2_PLACEMENT_3D ( 'NONE', #211, #237, #8 ) ;
#132 = AXIS2_PLACEMENT_3D ( 'NONE', #17, #57, #247 ) ;
#133 = DIRECTION ( 'NONE',  ( 1.224646799147353454E-16, 0.0000000000000000000, 1.000000000000000000 ) ) ;
#134 = CARTESIAN_POINT ( 'NONE',  ( -0.06249999999999997918, 0.0000000000000000000, 0.3562942557682157729 ) ) ;
#135 = DIRECTION ( 'NONE',  ( 1.000000000000000000, 0.0000000000000000000, 0.0000000000000000000 ) ) ;
#136 = VECTOR ( 'NONE', #148, 39.37007874015748143 ) ;
#137 = ORIENTED_EDGE ( 'NONE', *, *, #24, .F. ) ;
#138 = CIRCLE ( 'NONE', #267, 0.005494500000000001119 ) ;
#139 = DIRECTION ( 'NONE',  ( 1.000000000000000000, 0.0000000000000000000, 0.0000000000000000000 ) ) ;
#140 = ORIENTED_EDGE ( 'NONE', *, *, #175, .T. ) ;
#141 = SPHERICAL_SURFACE ( 'NONE', #132, 0.005494500000000000252 ) ;
#142 = PRESENTATION_STYLE_ASSIGNMENT (( #314 ) ) ;
#143 =( NAMED_UNIT ( * ) PLANE_ANGLE_UNIT ( ) SI_UNIT ( $, .RADIAN. ) );
#144 = VERTEX_POINT ( 'NONE', #155 ) ;
#145 = EDGE_LOOP ( 'NONE', ( #69, #205, #137, #319 ) ) ;
#146 = EDGE_LOOP ( 'NONE', ( #203, #243, #206, #44 ) ) ;
#147 = MECHANICAL_DESIGN_GEOMETRIC_PRESENTATION_REPRESENTATION (  '', ( #71 ), #85 ) ;
#148 = DIRECTION ( 'NONE',  ( 0.1736481776669313581, 0.0000000000000000000, 0.9848077530122077983 ) ) ;
#149 = ORIENTED_EDGE ( 'NONE', *, *, #292, .T. ) ;
#150 = PRODUCT_DEFINITION_SHAPE ( 'NONE', 'NONE',  #16 ) ;
#151 = DIRECTION ( 'NONE',  ( -0.0000000000000000000, -0.0000000000000000000, -1.000000000000000000 ) ) ;
#152 =( GEOMETRIC_REPRESENTATION_CONTEXT ( 3 ) GLOBAL_UNCERTAINTY_ASSIGNED_CONTEXT ( ( #63 ) ) GLOBAL_UNIT_ASSIGNED_CONTEXT ( ( #318, #30, #2 ) ) REPRESENTATION_CONTEXT ( 'NONE', 'WORKASPACE' ) );
#153 = CYLINDRICAL_SURFACE ( 'NONE', #238, 0.06250000000000002776 ) ;
#154 = SURFACE_STYLE_FILL_AREA ( #78 ) ;
#155 = CARTESIAN_POINT ( 'NONE',  ( 0.005494500000000005456, 0.0000000000000000000, 0.03300000000000000155 ) ) ;
#156 = DIRECTION ( 'NONE',  ( 0.0000000000000000000, 0.0000000000000000000, -1.000000000000000000 ) ) ;
#157 = CONICAL_SURFACE ( 'NONE', #127, 0.005494500000000001119, 0.1745329251994338637 ) ;
#158 = VECTOR ( 'NONE', #40, 39.37007874015748143 ) ;
#159 = CARTESIAN_POINT ( 'NONE',  ( -0.06250000000000002776, 0.0000000000000000000, 1.485000000000000764 ) ) ;
#160 = SURFACE_STYLE_FILL_AREA ( #280 ) ;
#161 =( CONVERSION_BASED_UNIT ( 'INCH', #270 ) LENGTH_UNIT ( ) NAMED_UNIT ( #22 ) );
#162 = PRESENTATION_LAYER_ASSIGNMENT (  '', '', ( #71 ) ) ;
#163 =( LENGTH_UNIT ( ) NAMED_UNIT ( * ) SI_UNIT ( $, .METRE. ) );
#164 = EDGE_LOOP ( 'NONE', ( #258, #140, #210 ) ) ;
#165 = LINE ( 'NONE', #248, #169 ) ;
#166 = ADVANCED_FACE ( 'NONE', ( #264 ), #214, .T. ) ;
#167 = DIRECTION ( 'NONE',  ( -0.0000000000000000000, -0.0000000000000000000, -1.000000000000000000 ) ) ;
#168 = CIRCLE ( 'NONE', #26, 0.04750000000000064587 ) ;
#169 = VECTOR ( 'NONE', #191, 39.37007874015748143 ) ;
#170 = ORIENTED_EDGE ( 'NONE', *, *, #37, .F. ) ;
#171 = DIMENSIONAL_EXPONENTS ( 1.000000000000000000, 0.0000000000000000000, 0.0000000000000000000, 0.0000000000000000000, 0.0000000000000000000, 0.0000000000000000000, 0.0000000000000000000 ) ;
#172 = EDGE_LOOP ( 'NONE', ( #20, #90, #275, #76 ) ) ;
#173 = DIMENSIONAL_EXPONENTS ( 1.000000000000000000, 0.0000000000000000000, 0.0000000000000000000, 0.0000000000000000000, 0.0000000000000000000, 0.0000000000000000000, 0.0000000000000000000 ) ;
#174 = ORIENTED_EDGE ( 'NONE', *, *, #226, .F. ) ;
#175 = EDGE_CURVE ( 'NONE', #58, #13, #84, .T. ) ;
#176 = DIRECTION ( 'NONE',  ( 1.000000000000000000, 0.0000000000000000000, 0.0000000000000000000 ) ) ;
#177 = CIRCLE ( 'NONE', #273, 0.005494500000000000252 ) ;
#178 = VECTOR ( 'NONE', #271, 39.37007874015748854 ) ;
#179 = PRODUCT_CONTEXT ( 'NONE', #242, 'mechanical' ) ;
#180 = DIRECTION ( 'NONE',  ( 1.000000000000000000, 0.0000000000000000000, 0.0000000000000000000 ) ) ;
#181 = ADVANCED_FACE ( 'NONE', ( #34 ), #153, .T. ) ;
#182 = FILL_AREA_STYLE_COLOUR ( '', #288 ) ;
#183 = CARTESIAN_POINT ( 'NONE',  ( 6.728821837915133930E-19, 0.0000000000000000000, 0.005494500000000000252 ) ) ;
#184 = ADVANCED_FACE ( 'NONE', ( #29 ), #316, .T. ) ;
#185 = AXIS2_PLACEMENT_3D ( 'NONE', #89, #91, #87 ) ;
#186 = DIRECTION ( 'NONE',  ( 1.000000000000000000, 0.0000000000000000000, 0.0000000000000000000 ) ) ;
#187 = CARTESIAN_POINT ( 'NONE',  ( -0.005494499999999996782, 6.728821837915133930E-19, 0.03300000000000000155 ) ) ;
#188 = CARTESIAN_POINT ( 'NONE',  ( 1.009323275687270041E-18, 0.0000000000000000000, 0.0000000000000000000 ) ) ;
#189 = ADVANCED_FACE ( 'NONE', ( #212 ), #99, .T. ) ;
#190 = DIRECTION ( 'NONE',  ( 0.0000000000000000000, 0.0000000000000000000, -1.000000000000000000 ) ) ;
#191 = DIRECTION ( 'NONE',  ( -1.224646799147353454E-16, -0.0000000000000000000, -1.000000000000000000 ) ) ;
#192 = DIRECTION ( 'NONE',  ( -1.224646799147353454E-16, -0.0000000000000000000, -1.000000000000000000 ) ) ;
#193 = CARTESIAN_POINT ( 'NONE',  ( 0.06250000000000006939, 7.654042494670963708E-18, 0.3562942557682157729 ) ) ;
#194 = ORIENTED_EDGE ( 'NONE', *, *, #224, .F. ) ;
#195 = AXIS2_PLACEMENT_3D ( 'NONE', #83, #27, #282 ) ;
#196 = CARTESIAN_POINT ( 'NONE',  ( 0.0000000000000000000, 0.0000000000000000000, 1.485000000000000764 ) ) ;
#197 = PRODUCT_DEFINITION_CONTEXT ( 'detailed design', #117, 'design' ) ;
#198 = EDGE_CURVE ( 'NONE', #58, #48, #177, .T. ) ;
#199 = DIRECTION ( 'NONE',  ( -1.000000000000000000, 0.0000000000000000000, 0.0000000000000000000 ) ) ;
#200 = SHAPE_DEFINITION_REPRESENTATION ( #150, #204 ) ;
#201 = AXIS2_PLACEMENT_3D ( 'NONE', #77, #310, #105 ) ;
#202 = COLOUR_RGB ( '',0.7921568627450980005, 0.8196078431372548767, 0.9333333333333333481 ) ;
#203 = ORIENTED_EDGE ( 'NONE', *, *, #295, .F. ) ;
#204 = ADVANCED_BREP_SHAPE_REPRESENTATION ( 'Micro_BMR-011-2X', ( #221, #66 ), #152 ) ;
#205 = ORIENTED_EDGE ( 'NONE', *, *, #6, .T. ) ;
#206 = ORIENTED_EDGE ( 'NONE', *, *, #226, .T. ) ;
#207 = AXIS2_PLACEMENT_3D ( 'NONE', #50, #260, #107 ) ;
#208 = DIRECTION ( 'NONE',  ( 0.7071067811865462405, 8.659560562354916834E-17, -0.7071067811865486830 ) ) ;
#209 = AXIS2_PLACEMENT_3D ( 'NONE', #313, #116, #293 ) ;
#210 = ORIENTED_EDGE ( 'NONE', *, *, #278, .F. ) ;
#211 = CARTESIAN_POINT ( 'NONE',  ( 0.0000000000000000000, 0.0000000000000000000, 0.0000000000000000000 ) ) ;
#212 = FACE_OUTER_BOUND ( 'NONE', #315, .T. ) ;
#213 = VECTOR ( 'NONE', #167, 39.37007874015748143 ) ;
#214 = CYLINDRICAL_SURFACE ( 'NONE', #201, 0.005494500000000001987 ) ;
#215 = DIRECTION ( 'NONE',  ( 1.000000000000000000, 0.0000000000000000000, 0.0000000000000000000 ) ) ;
#216 = DIRECTION ( 'NONE',  ( 0.0000000000000000000, 0.0000000000000000000, 1.000000000000000000 ) ) ;
#217 = CIRCLE ( 'NONE', #185, 0.06250000000000002776 ) ;
#218 = EDGE_CURVE ( 'NONE', #304, #94, #309, .T. ) ;
#219 = ORIENTED_EDGE ( 'NONE', *, *, #305, .F. ) ;
#220 = CARTESIAN_POINT ( 'NONE',  ( 0.06250000000000002776, 7.654042494670959086E-18, 1.485000000000000764 ) ) ;
#221 = MANIFOLD_SOLID_BREP ( 'Fillet1', #49 ) ;
#222 = AXIS2_PLACEMENT_3D ( 'NONE', #62, #317, #115 ) ;
#223 = LINE ( 'NONE', #38, #178 ) ;
#224 = EDGE_CURVE ( 'NONE', #298, #94, #283, .T. ) ;
#225 = ORIENTED_EDGE ( 'NONE', *, *, #73, .T. ) ;
#226 = EDGE_CURVE ( 'NONE', #304, #48, #165, .T. ) ;
#227 = VECTOR ( 'NONE', #208, 39.37007874015748854 ) ;
#228 = EDGE_CURVE ( 'NONE', #21, #45, #223, .T. ) ;
#229 = LINE ( 'NONE', #322, #227 ) ;
#230 = EDGE_LOOP ( 'NONE', ( #324, #225 ) ) ;
#231 = FACE_OUTER_BOUND ( 'NONE', #246, .T. ) ;
#232 = AXIS2_PLACEMENT_3D ( 'NONE', #124, #303, #180 ) ;
#233 = VERTEX_POINT ( 'NONE', #111 ) ;
#234 = LENGTH_MEASURE_WITH_UNIT ( LENGTH_MEASURE( 0.02539999999999999897 ), #42 );
#235 = CARTESIAN_POINT ( 'NONE',  ( 6.728821837915133930E-19, 0.0000000000000000000, 0.005494500000000000252 ) ) ;
#236 = SPHERICAL_SURFACE ( 'NONE', #65, 0.005494500000000000252 ) ;
#237 = DIRECTION ( 'NONE',  ( -1.224646799147353454E-16, -0.0000000000000000000, -1.000000000000000000 ) ) ;
#238 = AXIS2_PLACEMENT_3D ( 'NONE', #286, #53, #9 ) ;
#239 = CYLINDRICAL_SURFACE ( 'NONE', #207, 0.06250000000000002776 ) ;
#240 = FACE_OUTER_BOUND ( 'NONE', #230, .T. ) ;
#241 = ADVANCED_FACE ( 'NONE', ( #250 ), #141, .T. ) ;
#242 = APPLICATION_CONTEXT ( 'automotive_design' ) ;
#243 = ORIENTED_EDGE ( 'NONE', *, *, #284, .T. ) ;
#244 = ADVANCED_FACE ( 'NONE', ( #294 ), #122, .T. ) ;
#245 = CARTESIAN_POINT ( 'NONE',  ( 0.06250000000000002776, 7.654042494670959086E-18, 1.500000000000000222 ) ) ;
#246 = EDGE_LOOP ( 'NONE', ( #219, #251, #276, #255 ) ) ;
#247 = DIRECTION ( 'NONE',  ( 1.000000000000000000, 0.0000000000000000000, 0.0000000000000000000 ) ) ;
#248 = CARTESIAN_POINT ( 'NONE',  ( -0.005494500000000001987, 0.0000000000000000000, 6.728821837915135856E-19 ) ) ;
#249 = AXIS2_PLACEMENT_3D ( 'NONE', #51, #133, #262 ) ;
#250 = FACE_OUTER_BOUND ( 'NONE', #164, .T. ) ;
#251 = ORIENTED_EDGE ( 'NONE', *, *, #218, .T. ) ;
#252 = EDGE_CURVE ( 'NONE', #94, #298, #217, .T. ) ;
#253 = CARTESIAN_POINT ( 'NONE',  ( 0.005494500000000005456, 0.0000000000000000000, 0.03300000000000000155 ) ) ;
#254 = CIRCLE ( 'NONE', #195, 0.04750000000000064587 ) ;
#255 = ORIENTED_EDGE ( 'NONE', *, *, #3, .F. ) ;
#256 = CARTESIAN_POINT ( 'NONE',  ( -0.04750000000000064587, 0.0000000000000000000, 1.500000000000000222 ) ) ;
#257 = FILL_AREA_STYLE_COLOUR ( '', #202 ) ;
#258 = ORIENTED_EDGE ( 'NONE', *, *, #198, .F. ) ;
#259 = AXIS2_PLACEMENT_3D ( 'NONE', #110, #216, #52 ) ;
#260 = DIRECTION ( 'NONE',  ( -0.0000000000000000000, -0.0000000000000000000, -1.000000000000000000 ) ) ;
#261 = CIRCLE ( 'NONE', #92, 0.005494500000000001119 ) ;
#262 = DIRECTION ( 'NONE',  ( -1.000000000000000000, 0.0000000000000000000, 1.942175125170811635E-16 ) ) ;
#263 = APPLICATION_PROTOCOL_DEFINITION ( 'draft international standard', 'automotive_design', 1998, #242 ) ;
#264 = FACE_OUTER_BOUND ( 'NONE', #146, .T. ) ;
#265 = PRODUCT ( 'Micro_BMR-011-2X', 'Micro_BMR-011-2X', '', ( #179 ) ) ;
#266 = FACE_OUTER_BOUND ( 'NONE', #296, .T. ) ;
#267 = AXIS2_PLACEMENT_3D ( 'NONE', #290, #93, #199 ) ;
#268 = DIRECTION ( 'NONE',  ( -1.000000000000000000, 1.224646799147353207E-16, 0.0000000000000000000 ) ) ;
#269 =( NAMED_UNIT ( * ) SI_UNIT ( $, .STERADIAN. ) SOLID_ANGLE_UNIT ( ) );
#270 = LENGTH_MEASURE_WITH_UNIT ( LENGTH_MEASURE( 0.02539999999999999897 ), #163 );
#271 = DIRECTION ( 'NONE',  ( -0.7071067811865462405, 0.0000000000000000000, -0.7071067811865486830 ) ) ;
#272 = CARTESIAN_POINT ( 'NONE',  ( -0.005494499999999996782, 4.163462339231237636E-18, 0.03300000000000000155 ) ) ;
#273 = AXIS2_PLACEMENT_3D ( 'NONE', #287, #55, #268 ) ;
#274 = ORIENTED_EDGE ( 'NONE', *, *, #109, .T. ) ;
#275 = ORIENTED_EDGE ( 'NONE', *, *, #3, .T. ) ;
#276 = ORIENTED_EDGE ( 'NONE', *, *, #252, .T. ) ;
#277 = DIRECTION ( 'NONE',  ( 1.000000000000000000, 0.0000000000000000000, 0.0000000000000000000 ) ) ;
#278 = EDGE_CURVE ( 'NONE', #48, #13, #74, .T. ) ;
#279 = LINE ( 'NONE', #81, #320 ) ;
#280 = FILL_AREA_STYLE ('',( #182 ) ) ;
#281 = CARTESIAN_POINT ( 'NONE',  ( 0.0000000000000000000, 0.0000000000000000000, 0.0000000000000000000 ) ) ;
#282 = DIRECTION ( 'NONE',  ( 1.000000000000000000, 0.0000000000000000000, 0.0000000000000000000 ) ) ;
#283 = CIRCLE ( 'NONE', #95, 0.06250000000000002776 ) ;
#284 = EDGE_CURVE ( 'NONE', #144, #304, #138, .T. ) ;
#285 = DIRECTION ( 'NONE',  ( 0.0000000000000000000, 1.000000000000000000, 0.0000000000000000000 ) ) ;
#286 = CARTESIAN_POINT ( 'NONE',  ( 0.0000000000000000000, 0.0000000000000000000, 1.500000000000000222 ) ) ;
#287 = CARTESIAN_POINT ( 'NONE',  ( 6.728821837915133930E-19, 0.0000000000000000000, 0.005494500000000000252 ) ) ;
#288 = COLOUR_RGB ( '',0.7921568627450980005, 0.8196078431372548767, 0.9333333333333333481 ) ;
#289 = LINE ( 'NONE', #61, #158 ) ;
#290 = CARTESIAN_POINT ( 'NONE',  ( 4.041334437186266650E-18, 0.0000000000000000000, 0.03300000000000000155 ) ) ;
#291 = UNCERTAINTY_MEASURE_WITH_UNIT (LENGTH_MEASURE( 1.000000000000000082E-05 ), #161, 'distance_accuracy_value', 'NONE');
#292 = EDGE_CURVE ( 'NONE', #323, #45, #80, .T. ) ;
#293 = DIRECTION ( 'NONE',  ( -1.000000000000000000, 0.0000000000000000000, 0.0000000000000000000 ) ) ;
#294 = FACE_OUTER_BOUND ( 'NONE', #145, .T. ) ;
#295 = EDGE_CURVE ( 'NONE', #144, #13, #289, .T. ) ;
#296 = EDGE_LOOP ( 'NONE', ( #43, #101, #112, #170 ) ) ;
#297 =( GEOMETRIC_REPRESENTATION_CONTEXT ( 3 ) GLOBAL_UNCERTAINTY_ASSIGNED_CONTEXT ( ( #291 ) ) GLOBAL_UNIT_ASSIGNED_CONTEXT ( ( #161, #114, #269 ) ) REPRESENTATION_CONTEXT ( 'NONE', 'WORKASPACE' ) );
#298 = VERTEX_POINT ( 'NONE', #193 ) ;
#299 = DIRECTION ( 'NONE',  ( 1.224646799147353454E-16, 0.0000000000000000000, 1.000000000000000000 ) ) ;
#300 = ORIENTED_EDGE ( 'NONE', *, *, #6, .F. ) ;
#301 = EDGE_CURVE ( 'NONE', #323, #298, #15, .T. ) ;
#302 = PRESENTATION_LAYER_ASSIGNMENT (  '', '', ( #321 ) ) ;
#303 = DIRECTION ( 'NONE',  ( 0.0000000000000000000, 0.0000000000000000000, -1.000000000000000000 ) ) ;
#304 = VERTEX_POINT ( 'NONE', #272 ) ;
#305 = EDGE_CURVE ( 'NONE', #304, #144, #261, .T. ) ;
#306 = FACE_OUTER_BOUND ( 'NONE', #88, .T. ) ;
#307 = DIRECTION ( 'NONE',  ( 0.0000000000000000000, 0.0000000000000000000, 1.000000000000000000 ) ) ;
#308 = AXIS2_PLACEMENT_3D ( 'NONE', #183, #82, #156 ) ;
#309 = LINE ( 'NONE', #187, #33 ) ;
#310 = DIRECTION ( 'NONE',  ( -1.224646799147353454E-16, -0.0000000000000000000, -1.000000000000000000 ) ) ;
#311 = CARTESIAN_POINT ( 'NONE',  ( 0.0000000000000000000, 0.0000000000000000000, 1.500000000000000222 ) ) ;
#312 = CARTESIAN_POINT ( 'NONE',  ( 4.363346198811338976E-17, 0.0000000000000000000, 0.3562942557682157729 ) ) ;
#313 = CARTESIAN_POINT ( 'NONE',  ( 0.0000000000000000000, 0.0000000000000000000, 1.500000000000000222 ) ) ;
#314 = SURFACE_STYLE_USAGE ( .BOTH. , #14 ) ;
#315 = EDGE_LOOP ( 'NONE', ( #300, #39, #46, #19 ) ) ;
#316 = CONICAL_SURFACE ( 'NONE', #32, 0.005494500000000001119, 0.1745329251994338637 ) ;
#317 = DIRECTION ( 'NONE',  ( 1.224646799147353454E-16, 0.0000000000000000000, 1.000000000000000000 ) ) ;
#318 =( CONVERSION_BASED_UNIT ( 'INCH', #234 ) LENGTH_UNIT ( ) NAMED_UNIT ( #171 ) );
#319 = ORIENTED_EDGE ( 'NONE', *, *, #228, .F. ) ;
#320 = VECTOR ( 'NONE', #151, 39.37007874015748143 ) ;
#321 = STYLED_ITEM ( 'NONE', ( #142 ), #221 ) ;
#322 = CARTESIAN_POINT ( 'NONE',  ( 0.04750000000000064587, 5.817072295950006528E-18, 1.500000000000000222 ) ) ;
#323 = VERTEX_POINT ( 'NONE', #220 ) ;
#324 = ORIENTED_EDGE ( 'NONE', *, *, #11, .T. ) ;
#325 = AXIS2_PLACEMENT_3D ( 'NONE', #196, #86, #139 ) ;
ENDSEC;
END-ISO-10303-21;
