ISO-10303-21;
HEADER;
FILE_DESCRIPTION (( 'STEP AP214' ),
    '1' );
FILE_NAME ('83804.STEP',
    '2023-07-05T16:08:33',
    ( '' ),
    ( '' ),
    'SwSTEP 2.0',
    'SolidWorks 2023',
    '' );
FILE_SCHEMA (( 'AUTOMOTIVE_DESIGN' ));
ENDSEC;

DATA;
#1 = SURFACE_SIDE_STYLE ('',( #131 ) ) ;
#2 = SHAPE_DEFINITION_REPRESENTATION ( #207, #49 ) ;
#3 = AXIS2_PLACEMENT_3D ( 'NONE', #225, #193, #166 ) ;
#4 =( NAMED_UNIT ( * ) PLANE_ANGLE_UNIT ( ) SI_UNIT ( $, .RADIAN. ) );
#5 = AXIS2_PLACEMENT_3D ( 'NONE', #135, #213, #70 ) ;
#6 = DIRECTION ( 'NONE',  ( -1.216906699338408135E-16, 1.000000000000000000, -0.000000000000000000 ) ) ;
#7 =( NAMED_UNIT ( * ) SI_UNIT ( $, .STERADIAN. ) SOLID_ANGLE_UNIT ( ) );
#8 = STYLED_ITEM ( 'NONE', ( #108 ), #42 ) ;
#9 = PRESENTATION_LAYER_ASSIGNMENT (  '', '', ( #8 ) ) ;
#10 = EDGE_LOOP ( 'NONE', ( #230, #194, #54 ) ) ;
#11 = DIRECTION ( 'NONE',  ( -1.000000000000000000, -1.216906699338408135E-16, 0.000000000000000000 ) ) ;
#12 =( NAMED_UNIT ( * ) PLANE_ANGLE_UNIT ( ) SI_UNIT ( $, .RADIAN. ) );
#13 = UNCERTAINTY_MEASURE_WITH_UNIT (LENGTH_MEASURE( 1.000000000000000082E-05 ), #61, 'distance_accuracy_value', 'NONE');
#14 = ADVANCED_FACE ( 'NONE', ( #138 ), #212, .T. ) ;
#15 =( NAMED_UNIT ( * ) SI_UNIT ( $, .STERADIAN. ) SOLID_ANGLE_UNIT ( ) );
#16 = DIMENSIONAL_EXPONENTS ( 1.000000000000000000, 0.000000000000000000, 0.000000000000000000, 0.000000000000000000, 0.000000000000000000, 0.000000000000000000, 0.000000000000000000 ) ;
#17 = CARTESIAN_POINT ( 'NONE',  ( 0.000000000000000000, 0.000000000000000000, 0.000000000000000000 ) ) ;
#18 = FILL_AREA_STYLE_COLOUR ( '', #162 ) ;
#19 =( LENGTH_UNIT ( ) NAMED_UNIT ( * ) SI_UNIT ( $, .METRE. ) );
#20 = CLOSED_SHELL ( 'NONE', ( #191, #45, #100 ) ) ;
#21 = EDGE_CURVE ( 'NONE', #40, #140, #159, .T. ) ;
#22 = DIRECTION ( 'NONE',  ( -1.216906699338408135E-16, 1.000000000000000000, -0.000000000000000000 ) ) ;
#23 = SURFACE_STYLE_USAGE ( .BOTH. , #183 ) ;
#24 = CYLINDRICAL_SURFACE ( 'NONE', #182, 0.09374999999999994449 ) ;
#25 = SURFACE_SIDE_STYLE ('',( #224 ) ) ;
#26 = FILL_AREA_STYLE ('',( #204 ) ) ;
#27 = CARTESIAN_POINT ( 'NONE',  ( -0.09374999999999965306, 0.09374999999999976408, 0.000000000000000000 ) ) ;
#28 = EDGE_CURVE ( 'NONE', #140, #206, #178, .T. ) ;
#29 = PRODUCT_DEFINITION_FORMATION_WITH_SPECIFIED_SOURCE ( 'ANY', '', #55, .NOT_KNOWN. ) ;
#30 = LENGTH_MEASURE_WITH_UNIT ( LENGTH_MEASURE( 0.02539999999999999897 ), #189 );
#31 = VERTEX_POINT ( 'NONE', #27 ) ;
#32 = EDGE_CURVE ( 'NONE', #157, #72, #168, .T. ) ;
#33 = CONICAL_SURFACE ( 'NONE', #5, 39.37007874015762354, 0.7853981633974500554 ) ;
#34 = LINE ( 'NONE', #58, #35 ) ;
#35 = VECTOR ( 'NONE', #210, 39.37007874015748143 ) ;
#36 = DIRECTION ( 'NONE',  ( -1.216906699338408135E-16, 1.000000000000000000, 0.000000000000000000 ) ) ;
#37 = ORIENTED_EDGE ( 'NONE', *, *, #53, .F. ) ;
#38 = SURFACE_SIDE_STYLE ('',( #253 ) ) ;
#39 = ORIENTED_EDGE ( 'NONE', *, *, #128, .F. ) ;
#40 = VERTEX_POINT ( 'NONE', #67 ) ;
#41 = FILL_AREA_STYLE ('',( #201 ) ) ;
#42 = MANIFOLD_SOLID_BREP ( 'Revolve - Cutting Edge', #20 ) ;
#43 = CARTESIAN_POINT ( 'NONE',  ( 7.870206804039943619E-19, 0.09374999999999966693, 0.000000000000000000 ) ) ;
#44 = LENGTH_MEASURE_WITH_UNIT ( LENGTH_MEASURE( 0.02539999999999999897 ), #241 );
#45 = ADVANCED_FACE ( 'NONE', ( #102 ), #65, .T. ) ;
#46 = PLANE ( 'NONE',  #248 ) ;
#47 =( LENGTH_UNIT ( ) NAMED_UNIT ( * ) SI_UNIT ( $, .METRE. ) );
#48 =( NAMED_UNIT ( * ) SI_UNIT ( $, .STERADIAN. ) SOLID_ANGLE_UNIT ( ) );
#49 = ADVANCED_BREP_SHAPE_REPRESENTATION ( '83804', ( #42, #136, #110 ), #152 ) ;
#50 = EDGE_CURVE ( 'NONE', #31, #144, #34, .T. ) ;
#51 = FILL_AREA_STYLE_COLOUR ( '', #154 ) ;
#52 = PRESENTATION_LAYER_ASSIGNMENT (  '', '', ( #188 ) ) ;
#53 = EDGE_CURVE ( 'NONE', #72, #144, #205, .T. ) ;
#54 = ORIENTED_EDGE ( 'NONE', *, *, #264, .T. ) ;
#55 = PRODUCT ( '83804', '83804', '', ( #247 ) ) ;
#56 = FACE_OUTER_BOUND ( 'NONE', #118, .T. ) ;
#57 = ORIENTED_EDGE ( 'NONE', *, *, #32, .T. ) ;
#58 = CARTESIAN_POINT ( 'NONE',  ( -0.09375000000000001388, 2.000000000000000000, 0.000000000000000000 ) ) ;
#59 = UNCERTAINTY_MEASURE_WITH_UNIT (LENGTH_MEASURE( 1.000000000000000082E-05 ), #179, 'distance_accuracy_value', 'NONE');
#60 = VECTOR ( 'NONE', #130, 39.37007874015748143 ) ;
#61 =( CONVERSION_BASED_UNIT ( 'INCH', #200 ) LENGTH_UNIT ( ) NAMED_UNIT ( #214 ) );
#62 = FACE_OUTER_BOUND ( 'NONE', #97, .T. ) ;
#63 = AXIS2_PLACEMENT_3D ( 'NONE', #235, #257, #255 ) ;
#64 = DIRECTION ( 'NONE',  ( -1.000000000000000000, -1.821231995776178930E-16, 0.000000000000000000 ) ) ;
#65 = PLANE ( 'NONE',  #63 ) ;
#66 =( GEOMETRIC_REPRESENTATION_CONTEXT ( 3 ) GLOBAL_UNCERTAINTY_ASSIGNED_CONTEXT ( ( #260 ) ) GLOBAL_UNIT_ASSIGNED_CONTEXT ( ( #93, #121, #15 ) ) REPRESENTATION_CONTEXT ( 'NONE', 'WORKASPACE' ) );
#67 = CARTESIAN_POINT ( 'NONE',  ( 0.000000000000000000, 0.000000000000000000, 0.000000000000000000 ) ) ;
#68 = DIRECTION ( 'NONE',  ( 1.000000000000000000, 0.000000000000000000, 0.000000000000000000 ) ) ;
#69 = LENGTH_MEASURE_WITH_UNIT ( LENGTH_MEASURE( 0.02539999999999999897 ), #47 );
#70 = DIRECTION ( 'NONE',  ( -1.000000000000000000, 0.000000000000000000, 0.000000000000000000 ) ) ;
#71 = SURFACE_STYLE_USAGE ( .BOTH. , #38 ) ;
#72 = VERTEX_POINT ( 'NONE', #232 ) ;
#73 = DIRECTION ( 'NONE',  ( -1.000000000000000000, 0.000000000000000000, 0.000000000000000000 ) ) ;
#74 = ORIENTED_EDGE ( 'NONE', *, *, #128, .T. ) ;
#75 = AXIS2_PLACEMENT_3D ( 'NONE', #91, #36, #11 ) ;
#76 = DIMENSIONAL_EXPONENTS ( 1.000000000000000000, 0.000000000000000000, 0.000000000000000000, 0.000000000000000000, 0.000000000000000000, 0.000000000000000000, 0.000000000000000000 ) ;
#77 = EDGE_CURVE ( 'NONE', #31, #157, #185, .T. ) ;
#78 = ORIENTED_EDGE ( 'NONE', *, *, #50, .F. ) ;
#79 = AXIS2_PLACEMENT_3D ( 'NONE', #85, #242, #64 ) ;
#80 = ADVANCED_FACE ( 'NONE', ( #56 ), #215, .F. ) ;
#81 = MECHANICAL_DESIGN_GEOMETRIC_PRESENTATION_REPRESENTATION (  '', ( #259 ), #114 ) ;
#82 = SURFACE_STYLE_FILL_AREA ( #101 ) ;
#83 = DIRECTION ( 'NONE',  ( -1.000000000000000000, 0.000000000000000000, 0.000000000000000000 ) ) ;
#84 = DIRECTION ( 'NONE',  ( -1.000000000000000000, 0.000000000000000000, 0.000000000000000000 ) ) ;
#85 = CARTESIAN_POINT ( 'NONE',  ( 1.707404996040164512E-16, 0.09374999999999979183, 0.000000000000000000 ) ) ;
#86 =( CONVERSION_BASED_UNIT ( 'INCH', #173 ) LENGTH_UNIT ( ) NAMED_UNIT ( #158 ) );
#87 = CARTESIAN_POINT ( 'NONE',  ( 0.09374999999999998612, 0.09374999999999980571, 1.148106374200643555E-17 ) ) ;
#88 = COLOUR_RGB ( '',1.000000000000000000, 0.000000000000000000, 0.000000000000000000 ) ;
#89 = DIRECTION ( 'NONE',  ( -1.000000000000000000, 0.000000000000000000, 0.000000000000000000 ) ) ;
#90 =( LENGTH_UNIT ( ) NAMED_UNIT ( * ) SI_UNIT ( $, .METRE. ) );
#91 = CARTESIAN_POINT ( 'NONE',  ( 1.707404996040164512E-16, 0.09374999999999966693, 0.000000000000000000 ) ) ;
#92 =( GEOMETRIC_REPRESENTATION_CONTEXT ( 3 ) GLOBAL_UNCERTAINTY_ASSIGNED_CONTEXT ( ( #218 ) ) GLOBAL_UNIT_ASSIGNED_CONTEXT ( ( #86, #132, #243 ) ) REPRESENTATION_CONTEXT ( 'NONE', 'WORKASPACE' ) );
#93 =( CONVERSION_BASED_UNIT ( 'INCH', #111 ) LENGTH_UNIT ( ) NAMED_UNIT ( #76 ) );
#94 = ORIENTED_EDGE ( 'NONE', *, *, #28, .T. ) ;
#95 = ORIENTED_EDGE ( 'NONE', *, *, #77, .T. ) ;
#96 = CARTESIAN_POINT ( 'NONE',  ( 1.707404996040164512E-16, 0.09374999999999979183, 0.000000000000000000 ) ) ;
#97 = EDGE_LOOP ( 'NONE', ( #95, #57, #196, #78 ) ) ;
#98 = ORIENTED_EDGE ( 'NONE', *, *, #28, .F. ) ;
#99 = CIRCLE ( 'NONE', #165, 0.09375000000000005551 ) ;
#100 = ADVANCED_FACE ( 'NONE', ( #174 ), #33, .T. ) ;
#101 = FILL_AREA_STYLE ('',( #18 ) ) ;
#102 = FACE_OUTER_BOUND ( 'NONE', #219, .T. ) ;
#103 = PRESENTATION_STYLE_ASSIGNMENT (( #23 ) ) ;
#104 = DIRECTION ( 'NONE',  ( 1.000000000000000000, 0.000000000000000000, 0.000000000000000000 ) ) ;
#105 = DIRECTION ( 'NONE',  ( 8.394887257642635801E-18, 1.000000000000000000, 0.000000000000000000 ) ) ;
#106 = PRODUCT_RELATED_PRODUCT_CATEGORY ( 'part', '', ( #55 ) ) ;
#107 = SURFACE_STYLE_USAGE ( .BOTH. , #25 ) ;
#108 = PRESENTATION_STYLE_ASSIGNMENT (( #171 ) ) ;
#109 = DIRECTION ( 'NONE',  ( 0.000000000000000000, 0.000000000000000000, 1.000000000000000000 ) ) ;
#110 = AXIS2_PLACEMENT_3D ( 'NONE', #127, #109, #68 ) ;
#111 = LENGTH_MEASURE_WITH_UNIT ( LENGTH_MEASURE( 0.02539999999999999897 ), #237 );
#112 = EDGE_LOOP ( 'NONE', ( #234, #74, #133, #37 ) ) ;
#113 =( GEOMETRIC_REPRESENTATION_CONTEXT ( 3 ) GLOBAL_UNCERTAINTY_ASSIGNED_CONTEXT ( ( #119 ) ) GLOBAL_UNIT_ASSIGNED_CONTEXT ( ( #123, #221, #262 ) ) REPRESENTATION_CONTEXT ( 'NONE', 'WORKASPACE' ) );
#114 =( GEOMETRIC_REPRESENTATION_CONTEXT ( 3 ) GLOBAL_UNCERTAINTY_ASSIGNED_CONTEXT ( ( #59 ) ) GLOBAL_UNIT_ASSIGNED_CONTEXT ( ( #179, #12, #7 ) ) REPRESENTATION_CONTEXT ( 'NONE', 'WORKASPACE' ) );
#115 = DIMENSIONAL_EXPONENTS ( 1.000000000000000000, 0.000000000000000000, 0.000000000000000000, 0.000000000000000000, 0.000000000000000000, 0.000000000000000000, 0.000000000000000000 ) ;
#116 = ORIENTED_EDGE ( 'NONE', *, *, #21, .T. ) ;
#117 = PRESENTATION_STYLE_ASSIGNMENT (( #71 ) ) ;
#118 = EDGE_LOOP ( 'NONE', ( #256, #39 ) ) ;
#119 = UNCERTAINTY_MEASURE_WITH_UNIT (LENGTH_MEASURE( 1.000000000000000082E-05 ), #123, 'distance_accuracy_value', 'NONE');
#120 = AXIS2_PLACEMENT_3D ( 'NONE', #231, #142, #73 ) ;
#121 =( NAMED_UNIT ( * ) PLANE_ANGLE_UNIT ( ) SI_UNIT ( $, .RADIAN. ) );
#122 = CARTESIAN_POINT ( 'NONE',  ( 0.09374999999999998612, 0.09374999999999966693, 1.148106374200643555E-17 ) ) ;
#123 =( CONVERSION_BASED_UNIT ( 'INCH', #44 ) LENGTH_UNIT ( ) NAMED_UNIT ( #115 ) );
#124 = MECHANICAL_DESIGN_GEOMETRIC_PRESENTATION_REPRESENTATION (  '', ( #198 ), #113 ) ;
#125 =( NAMED_UNIT ( * ) PLANE_ANGLE_UNIT ( ) SI_UNIT ( $, .RADIAN. ) );
#126 = ADVANCED_FACE ( 'NONE', ( #176 ), #46, .F. ) ;
#127 = CARTESIAN_POINT ( 'NONE',  ( 0.000000000000000000, 0.000000000000000000, 0.000000000000000000 ) ) ;
#128 = EDGE_CURVE ( 'NONE', #157, #31, #149, .T. ) ;
#129 = DIRECTION ( 'NONE',  ( -0.7071067811865486830, 0.7071067811865462405, 0.000000000000000000 ) ) ;
#130 = DIRECTION ( 'NONE',  ( -1.216906699338408135E-16, 1.000000000000000000, -0.000000000000000000 ) ) ;
#131 = SURFACE_STYLE_FILL_AREA ( #251 ) ;
#132 =( NAMED_UNIT ( * ) PLANE_ANGLE_UNIT ( ) SI_UNIT ( $, .RADIAN. ) );
#133 = ORIENTED_EDGE ( 'NONE', *, *, #50, .T. ) ;
#134 = APPLICATION_CONTEXT ( 'automotive_design' ) ;
#135 = CARTESIAN_POINT ( 'NONE',  ( 3.305073723481352533E-16, 39.37007874015748143, 0.000000000000000000 ) ) ;
#136 = MANIFOLD_SOLID_BREP ( 'Revolve - Tool Body (Pointed)', #150 ) ;
#137 =( GEOMETRIC_REPRESENTATION_CONTEXT ( 3 ) GLOBAL_UNCERTAINTY_ASSIGNED_CONTEXT ( ( #13 ) ) GLOBAL_UNIT_ASSIGNED_CONTEXT ( ( #61, #125, #48 ) ) REPRESENTATION_CONTEXT ( 'NONE', 'WORKASPACE' ) );
#138 = FACE_OUTER_BOUND ( 'NONE', #112, .T. ) ;
#139 = COLOUR_RGB ( '',0.7921568627450980005, 0.8196078431372548767, 0.9333333333333333481 ) ;
#140 = VERTEX_POINT ( 'NONE', #122 ) ;
#141 = PRODUCT_DEFINITION_CONTEXT ( 'detailed design', #209, 'design' ) ;
#142 = DIRECTION ( 'NONE',  ( -1.216906699338408135E-16, 1.000000000000000000, -0.000000000000000000 ) ) ;
#143 = ADVANCED_FACE ( 'NONE', ( #62 ), #24, .T. ) ;
#144 = VERTEX_POINT ( 'NONE', #197 ) ;
#145 = CONICAL_SURFACE ( 'NONE', #236, 39.37007874015762354, 0.7853981633974500554 ) ;
#146 = PRESENTATION_LAYER_ASSIGNMENT (  '', '', ( #259 ) ) ;
#147 = PRESENTATION_STYLE_ASSIGNMENT (( #160 ) ) ;
#148 = CARTESIAN_POINT ( 'NONE',  ( 0.09374999999999987510, 2.000000000000000000, 1.148106374200642938E-17 ) ) ;
#149 = CIRCLE ( 'NONE', #79, 0.09374999999999981959 ) ;
#150 = CLOSED_SHELL ( 'NONE', ( #143, #80, #14, #126 ) ) ;
#151 = APPLICATION_PROTOCOL_DEFINITION ( 'draft international standard', 'automotive_design', 1998, #134 ) ;
#152 =( GEOMETRIC_REPRESENTATION_CONTEXT ( 3 ) GLOBAL_UNCERTAINTY_ASSIGNED_CONTEXT ( ( #181 ) ) GLOBAL_UNIT_ASSIGNED_CONTEXT ( ( #170, #4, #250 ) ) REPRESENTATION_CONTEXT ( 'NONE', 'WORKASPACE' ) );
#153 = DIRECTION ( 'NONE',  ( -8.394887257642635801E-18, -1.000000000000000000, -0.000000000000000000 ) ) ;
#154 = COLOUR_RGB ( '',0.7921568627450980005, 0.8196078431372548767, 0.9333333333333333481 ) ;
#155 = ORIENTED_EDGE ( 'NONE', *, *, #53, .T. ) ;
#156 = STYLED_ITEM ( 'NONE', ( #117 ), #100 ) ;
#157 = VERTEX_POINT ( 'NONE', #87 ) ;
#158 = DIMENSIONAL_EXPONENTS ( 1.000000000000000000, 0.000000000000000000, 0.000000000000000000, 0.000000000000000000, 0.000000000000000000, 0.000000000000000000, 0.000000000000000000 ) ;
#159 = LINE ( 'NONE', #17, #169 ) ;
#160 = SURFACE_STYLE_USAGE ( .BOTH. , #240 ) ;
#161 = FACE_OUTER_BOUND ( 'NONE', #216, .T. ) ;
#162 = COLOUR_RGB ( '',1.000000000000000000, 0.000000000000000000, 0.000000000000000000 ) ;
#163 = AXIS2_PLACEMENT_3D ( 'NONE', #43, #153, #104 ) ;
#164 = DIRECTION ( 'NONE',  ( 0.7071067811865486830, 0.7071067811865462405, 8.659560562354947649E-17 ) ) ;
#165 = AXIS2_PLACEMENT_3D ( 'NONE', #203, #6, #89 ) ;
#166 = DIRECTION ( 'NONE',  ( 1.000000000000000000, 0.000000000000000000, 0.000000000000000000 ) ) ;
#167 = PRESENTATION_LAYER_ASSIGNMENT (  '', '', ( #156 ) ) ;
#168 = LINE ( 'NONE', #148, #60 ) ;
#169 = VECTOR ( 'NONE', #164, 39.37007874015748854 ) ;
#170 =( CONVERSION_BASED_UNIT ( 'INCH', #69 ) LENGTH_UNIT ( ) NAMED_UNIT ( #233 ) );
#171 = SURFACE_STYLE_USAGE ( .BOTH. , #1 ) ;
#172 = CARTESIAN_POINT ( 'NONE',  ( -0.09374999999999998612, 0.09374999999999966693, 0.000000000000000000 ) ) ;
#173 = LENGTH_MEASURE_WITH_UNIT ( LENGTH_MEASURE( 0.02539999999999999897 ), #90 );
#174 = FACE_OUTER_BOUND ( 'NONE', #10, .T. ) ;
#175 = AXIS2_PLACEMENT_3D ( 'NONE', #195, #22, #84 ) ;
#176 = FACE_OUTER_BOUND ( 'NONE', #238, .T. ) ;
#177 = FILL_AREA_STYLE_COLOUR ( '', #88 ) ;
#178 = CIRCLE ( 'NONE', #163, 0.09374999999999998612 ) ;
#179 =( CONVERSION_BASED_UNIT ( 'INCH', #30 ) LENGTH_UNIT ( ) NAMED_UNIT ( #16 ) );
#180 = ORIENTED_EDGE ( 'NONE', *, *, #228, .F. ) ;
#181 = UNCERTAINTY_MEASURE_WITH_UNIT (LENGTH_MEASURE( 1.000000000000000082E-05 ), #170, 'distance_accuracy_value', 'NONE');
#182 = AXIS2_PLACEMENT_3D ( 'NONE', #187, #263, #83 ) ;
#183 = SURFACE_SIDE_STYLE ('',( #199 ) ) ;
#184 = MECHANICAL_DESIGN_GEOMETRIC_PRESENTATION_REPRESENTATION (  '', ( #156 ), #66 ) ;
#185 = CIRCLE ( 'NONE', #211, 0.09374999999999981959 ) ;
#186 = DIRECTION ( 'NONE',  ( 1.000000000000000000, 1.216906699338408135E-16, 0.000000000000000000 ) ) ;
#187 = CARTESIAN_POINT ( 'NONE',  ( -6.123233995736763571E-17, 2.000000000000000000, 0.000000000000000000 ) ) ;
#188 = STYLED_ITEM ( 'NONE', ( #147 ), #191 ) ;
#189 =( LENGTH_UNIT ( ) NAMED_UNIT ( * ) SI_UNIT ( $, .METRE. ) );
#190 = CARTESIAN_POINT ( 'NONE',  ( 0.000000000000000000, 0.000000000000000000, 0.000000000000000000 ) ) ;
#191 = ADVANCED_FACE ( 'NONE', ( #161 ), #145, .T. ) ;
#192 = DIRECTION ( 'NONE',  ( -1.000000000000000000, 0.000000000000000000, 0.000000000000000000 ) ) ;
#193 = DIRECTION ( 'NONE',  ( -8.394887257642635801E-18, -1.000000000000000000, -0.000000000000000000 ) ) ;
#194 = ORIENTED_EDGE ( 'NONE', *, *, #228, .T. ) ;
#195 = CARTESIAN_POINT ( 'NONE',  ( -6.123233995736763571E-17, 2.000000000000000000, 0.000000000000000000 ) ) ;
#196 = ORIENTED_EDGE ( 'NONE', *, *, #220, .F. ) ;
#197 = CARTESIAN_POINT ( 'NONE',  ( -0.09375000000000012490, 2.000000000000000000, 0.000000000000000000 ) ) ;
#198 = STYLED_ITEM ( 'NONE', ( #103 ), #136 ) ;
#199 = SURFACE_STYLE_FILL_AREA ( #41 ) ;
#200 = LENGTH_MEASURE_WITH_UNIT ( LENGTH_MEASURE( 0.02539999999999999897 ), #19 );
#201 = FILL_AREA_STYLE_COLOUR ( '', #139 ) ;
#202 = MECHANICAL_DESIGN_GEOMETRIC_PRESENTATION_REPRESENTATION (  '', ( #8 ), #92 ) ;
#203 = CARTESIAN_POINT ( 'NONE',  ( -6.123233995736763571E-17, 2.000000000000000000, 0.000000000000000000 ) ) ;
#204 = FILL_AREA_STYLE_COLOUR ( '', #239 ) ;
#205 = CIRCLE ( 'NONE', #120, 0.09375000000000005551 ) ;
#206 = VERTEX_POINT ( 'NONE', #172 ) ;
#207 = PRODUCT_DEFINITION_SHAPE ( 'NONE', 'NONE',  #246 ) ;
#208 = MECHANICAL_DESIGN_GEOMETRIC_PRESENTATION_REPRESENTATION (  '', ( #188 ), #137 ) ;
#209 = APPLICATION_CONTEXT ( 'automotive_design' ) ;
#210 = DIRECTION ( 'NONE',  ( -1.216906699338408135E-16, 1.000000000000000000, -0.000000000000000000 ) ) ;
#211 = AXIS2_PLACEMENT_3D ( 'NONE', #96, #229, #217 ) ;
#212 = CYLINDRICAL_SURFACE ( 'NONE', #175, 0.09374999999999994449 ) ;
#213 = DIRECTION ( 'NONE',  ( 8.394887257642635801E-18, 1.000000000000000000, 0.000000000000000000 ) ) ;
#214 = DIMENSIONAL_EXPONENTS ( 1.000000000000000000, 0.000000000000000000, 0.000000000000000000, 0.000000000000000000, 0.000000000000000000, 0.000000000000000000, 0.000000000000000000 ) ;
#215 = PLANE ( 'NONE',  #75 ) ;
#216 = EDGE_LOOP ( 'NONE', ( #180, #116, #94 ) ) ;
#217 = DIRECTION ( 'NONE',  ( -1.000000000000000000, -1.821231995776178930E-16, 0.000000000000000000 ) ) ;
#218 = UNCERTAINTY_MEASURE_WITH_UNIT (LENGTH_MEASURE( 1.000000000000000082E-05 ), #86, 'distance_accuracy_value', 'NONE');
#219 = EDGE_LOOP ( 'NONE', ( #258, #98 ) ) ;
#220 = EDGE_CURVE ( 'NONE', #144, #72, #99, .T. ) ;
#221 =( NAMED_UNIT ( * ) PLANE_ANGLE_UNIT ( ) SI_UNIT ( $, .RADIAN. ) );
#222 = CARTESIAN_POINT ( 'NONE',  ( 3.305073723481352533E-16, 39.37007874015748143, 0.000000000000000000 ) ) ;
#223 = PRESENTATION_LAYER_ASSIGNMENT (  '', '', ( #198 ) ) ;
#224 = SURFACE_STYLE_FILL_AREA ( #26 ) ;
#225 = CARTESIAN_POINT ( 'NONE',  ( 7.870206804039943619E-19, 0.09374999999999966693, 0.000000000000000000 ) ) ;
#226 = CIRCLE ( 'NONE', #3, 0.09374999999999998612 ) ;
#227 = LINE ( 'NONE', #190, #252 ) ;
#228 = EDGE_CURVE ( 'NONE', #40, #206, #227, .T. ) ;
#229 = DIRECTION ( 'NONE',  ( -1.216906699338408135E-16, 1.000000000000000000, -0.000000000000000000 ) ) ;
#230 = ORIENTED_EDGE ( 'NONE', *, *, #21, .F. ) ;
#231 = CARTESIAN_POINT ( 'NONE',  ( -6.123233995736763571E-17, 2.000000000000000000, 0.000000000000000000 ) ) ;
#232 = CARTESIAN_POINT ( 'NONE',  ( 0.09374999999999998612, 2.000000000000000000, 1.148106374200643555E-17 ) ) ;
#233 = DIMENSIONAL_EXPONENTS ( 1.000000000000000000, 0.000000000000000000, 0.000000000000000000, 0.000000000000000000, 0.000000000000000000, 0.000000000000000000, 0.000000000000000000 ) ;
#234 = ORIENTED_EDGE ( 'NONE', *, *, #32, .F. ) ;
#235 = CARTESIAN_POINT ( 'NONE',  ( 7.870206804039943619E-19, 0.09374999999999966693, 0.000000000000000000 ) ) ;
#236 = AXIS2_PLACEMENT_3D ( 'NONE', #222, #105, #192 ) ;
#237 =( LENGTH_UNIT ( ) NAMED_UNIT ( * ) SI_UNIT ( $, .METRE. ) );
#238 = EDGE_LOOP ( 'NONE', ( #254, #155 ) ) ;
#239 = COLOUR_RGB ( '',1.000000000000000000, 0.000000000000000000, 0.000000000000000000 ) ;
#240 = SURFACE_SIDE_STYLE ('',( #82 ) ) ;
#241 =( LENGTH_UNIT ( ) NAMED_UNIT ( * ) SI_UNIT ( $, .METRE. ) );
#242 = DIRECTION ( 'NONE',  ( -1.216906699338408135E-16, 1.000000000000000000, -0.000000000000000000 ) ) ;
#243 =( NAMED_UNIT ( * ) SI_UNIT ( $, .STERADIAN. ) SOLID_ANGLE_UNIT ( ) );
#244 = CARTESIAN_POINT ( 'NONE',  ( 0.09374999999999998612, 2.000000000000000000, 0.000000000000000000 ) ) ;
#245 = APPLICATION_PROTOCOL_DEFINITION ( 'draft international standard', 'automotive_design', 1998, #209 ) ;
#246 = PRODUCT_DEFINITION ( 'UNKNOWN', '', #29, #141 ) ;
#247 = PRODUCT_CONTEXT ( 'NONE', #134, 'mechanical' ) ;
#248 = AXIS2_PLACEMENT_3D ( 'NONE', #244, #265, #186 ) ;
#249 = PRESENTATION_STYLE_ASSIGNMENT (( #107 ) ) ;
#250 =( NAMED_UNIT ( * ) SI_UNIT ( $, .STERADIAN. ) SOLID_ANGLE_UNIT ( ) );
#251 = FILL_AREA_STYLE ('',( #51 ) ) ;
#252 = VECTOR ( 'NONE', #129, 39.37007874015748854 ) ;
#253 = SURFACE_STYLE_FILL_AREA ( #261 ) ;
#254 = ORIENTED_EDGE ( 'NONE', *, *, #220, .T. ) ;
#255 = DIRECTION ( 'NONE',  ( -1.000000000000000000, 8.394887257642635801E-18, 0.000000000000000000 ) ) ;
#256 = ORIENTED_EDGE ( 'NONE', *, *, #77, .F. ) ;
#257 = DIRECTION ( 'NONE',  ( 8.394887257642635801E-18, 1.000000000000000000, 0.000000000000000000 ) ) ;
#258 = ORIENTED_EDGE ( 'NONE', *, *, #264, .F. ) ;
#259 = STYLED_ITEM ( 'NONE', ( #249 ), #45 ) ;
#260 = UNCERTAINTY_MEASURE_WITH_UNIT (LENGTH_MEASURE( 1.000000000000000082E-05 ), #93, 'distance_accuracy_value', 'NONE');
#261 = FILL_AREA_STYLE ('',( #177 ) ) ;
#262 =( NAMED_UNIT ( * ) SI_UNIT ( $, .STERADIAN. ) SOLID_ANGLE_UNIT ( ) );
#263 = DIRECTION ( 'NONE',  ( -1.216906699338408135E-16, 1.000000000000000000, -0.000000000000000000 ) ) ;
#264 = EDGE_CURVE ( 'NONE', #206, #140, #226, .T. ) ;
#265 = DIRECTION ( 'NONE',  ( 1.216906699338408135E-16, -1.000000000000000000, 0.000000000000000000 ) ) ;
ENDSEC;
END-ISO-10303-21;
