ISO-10303-21;
HEADER;
FILE_DESCRIPTION (( 'STEP AP214' ),
    '1' );
FILE_NAME ('Micro_AEMM-035-3.STEP',
    '2022-03-15T14:24:38',
    ( '' ),
    ( '' ),
    'SwSTEP 2.0',
    'SolidWorks 2022',
    '' );
FILE_SCHEMA (( 'AUTOMOTIVE_DESIGN' ));
ENDSEC;

DATA;
#1 = VERTEX_POINT ( 'NONE', #71 ) ;
#2 = FILL_AREA_STYLE_COLOUR ( '', #270 ) ;
#3 = EDGE_LOOP ( 'NONE', ( #46, #277, #96, #236 ) ) ;
#4 = ORIENTED_EDGE ( 'NONE', *, *, #266, .F. ) ;
#5 = ADVANCED_FACE ( 'NONE', ( #279 ), #256, .T. ) ;
#6 = CARTESIAN_POINT ( 'NONE',  ( -0.1031100000000002570, 0.000000000000000000, 2.244094000000000033 ) ) ;
#7 = DIRECTION ( 'NONE',  ( -1.224646799147353207E-16, -0.000000000000000000, -1.000000000000000000 ) ) ;
#8 = CARTESIAN_POINT ( 'NONE',  ( 4.821446694711121291E-17, 0.000000000000000000, 0.3937009999999999676 ) ) ;
#9 = CONICAL_SURFACE ( 'NONE', #65, 0.1031100000000002570, 0.7853981633974318477 ) ;
#10 = DIRECTION ( 'NONE',  ( -1.224646799147353207E-16, -0.000000000000000000, -1.000000000000000000 ) ) ;
#11 = DIRECTION ( 'NONE',  ( 1.000000000000000000, 0.000000000000000000, 0.000000000000000000 ) ) ;
#12 = PRESENTATION_LAYER_ASSIGNMENT (  '', '', ( #54 ) ) ;
#13 = CYLINDRICAL_SURFACE ( 'NONE', #160, 0.06882860250000000235 ) ;
#14 = DIRECTION ( 'NONE',  ( 0.000000000000000000, 0.000000000000000000, -1.000000000000000000 ) ) ;
#15 = DIRECTION ( 'NONE',  ( 1.000000000000000000, 0.000000000000000000, 0.000000000000000000 ) ) ;
#16 = CLOSED_SHELL ( 'NONE', ( #282, #158, #101, #284, #293, #5, #271, #193, #213, #298 ) ) ;
#17 = DIRECTION ( 'NONE',  ( 0.000000000000000000, 0.000000000000000000, 1.000000000000000000 ) ) ;
#18 = CIRCLE ( 'NONE', #190, 0.1031100000000002570 ) ;
#19 = SHAPE_DEFINITION_REPRESENTATION ( #62, #85 ) ;
#20 = ORIENTED_EDGE ( 'NONE', *, *, #112, .F. ) ;
#21 = EDGE_CURVE ( 'NONE', #210, #230, #97, .T. ) ;
#22 = APPLICATION_PROTOCOL_DEFINITION ( 'draft international standard', 'automotive_design', 1998, #181 ) ;
#23 = EDGE_LOOP ( 'NONE', ( #26, #94, #95, #69 ) ) ;
#24 =( NAMED_UNIT ( * ) SI_UNIT ( $, .STERADIAN. ) SOLID_ANGLE_UNIT ( ) );
#25 = MECHANICAL_DESIGN_GEOMETRIC_PRESENTATION_REPRESENTATION (  '', ( #164 ), #59 ) ;
#26 = ORIENTED_EDGE ( 'NONE', *, *, #266, .T. ) ;
#27 = ORIENTED_EDGE ( 'NONE', *, *, #98, .T. ) ;
#28 = ORIENTED_EDGE ( 'NONE', *, *, #198, .F. ) ;
#29 = CARTESIAN_POINT ( 'NONE',  ( 0.000000000000000000, 0.000000000000000000, 2.244094000000000033 ) ) ;
#30 = VECTOR ( 'NONE', #245, 39.37007874015748143 ) ;
#31 = DIRECTION ( 'NONE',  ( 0.000000000000000000, 0.000000000000000000, -1.000000000000000000 ) ) ;
#32 = DIRECTION ( 'NONE',  ( 0.000000000000000000, 0.000000000000000000, 1.000000000000000000 ) ) ;
#33 = DIRECTION ( 'NONE',  ( 0.000000000000000000, 0.000000000000000000, -1.000000000000000000 ) ) ;
#34 = CONICAL_SURFACE ( 'NONE', #84, 0.06882860250000000235, 0.1745329251994338360 ) ;
#35 = APPLICATION_CONTEXT ( 'automotive_design' ) ;
#36 =( NAMED_UNIT ( * ) SI_UNIT ( $, .STERADIAN. ) SOLID_ANGLE_UNIT ( ) );
#37 = DIRECTION ( 'NONE',  ( 1.000000000000000000, 0.000000000000000000, 0.000000000000000000 ) ) ;
#38 = CARTESIAN_POINT ( 'NONE',  ( 1.032263699263193969E-33, 0.000000000000000000, 8.429072774141052587E-18 ) ) ;
#39 = CIRCLE ( 'NONE', #130, 0.06882860250000000235 ) ;
#40 = DIRECTION ( 'NONE',  ( 0.1736481776669313304, 0.000000000000000000, 0.9848077530122077983 ) ) ;
#41 = DIRECTION ( 'NONE',  ( -1.000000000000000000, 0.000000000000000000, 0.000000000000000000 ) ) ;
#42 = CARTESIAN_POINT ( 'NONE',  ( 0.000000000000000000, 0.000000000000000000, 0.000000000000000000 ) ) ;
#43 = EDGE_CURVE ( 'NONE', #251, #1, #250, .T. ) ;
#44 = ORIENTED_EDGE ( 'NONE', *, *, #61, .T. ) ;
#45 = LENGTH_MEASURE_WITH_UNIT ( LENGTH_MEASURE( 0.02539999999999999897 ), #202 );
#46 = ORIENTED_EDGE ( 'NONE', *, *, #76, .F. ) ;
#47 = EDGE_CURVE ( 'NONE', #208, #210, #227, .T. ) ;
#48 = ORIENTED_EDGE ( 'NONE', *, *, #133, .F. ) ;
#49 = ORIENTED_EDGE ( 'NONE', *, *, #61, .F. ) ;
#50 = FILL_AREA_STYLE ('',( #2 ) ) ;
#51 = VERTEX_POINT ( 'NONE', #176 ) ;
#52 = FILL_AREA_STYLE_COLOUR ( '', #260 ) ;
#53 = LINE ( 'NONE', #102, #142 ) ;
#54 = STYLED_ITEM ( 'NONE', ( #263 ), #105 ) ;
#55 = SURFACE_SIDE_STYLE ('',( #179 ) ) ;
#56 = LENGTH_MEASURE_WITH_UNIT ( LENGTH_MEASURE( 0.02539999999999999897 ), #127 );
#57 = DIRECTION ( 'NONE',  ( -0.7071067811865358044, 0.000000000000000000, -0.7071067811865590080 ) ) ;
#58 = VECTOR ( 'NONE', #78, 39.37007874015748143 ) ;
#59 =( GEOMETRIC_REPRESENTATION_CONTEXT ( 3 ) GLOBAL_UNCERTAINTY_ASSIGNED_CONTEXT ( ( #203 ) ) GLOBAL_UNIT_ASSIGNED_CONTEXT ( ( #278, #280, #24 ) ) REPRESENTATION_CONTEXT ( 'NONE', 'WORKASPACE' ) );
#60 = DIRECTION ( 'NONE',  ( -1.224646799147353207E-16, -0.000000000000000000, -1.000000000000000000 ) ) ;
#61 = EDGE_CURVE ( 'NONE', #51, #255, #264, .T. ) ;
#62 = PRODUCT_DEFINITION_SHAPE ( 'NONE', 'NONE',  #253 ) ;
#63 = LINE ( 'NONE', #246, #155 ) ;
#64 = DIRECTION ( 'NONE',  ( -0.1736481776669311639, 2.126576849575782392E-17, 0.9848077530122080203 ) ) ;
#65 = AXIS2_PLACEMENT_3D ( 'NONE', #86, #14, #165 ) ;
#66 = FACE_OUTER_BOUND ( 'NONE', #283, .T. ) ;
#67 = DIRECTION ( 'NONE',  ( -0.000000000000000000, -0.000000000000000000, -1.000000000000000000 ) ) ;
#68 = PRESENTATION_LAYER_ASSIGNMENT (  '', '', ( #164 ) ) ;
#69 = ORIENTED_EDGE ( 'NONE', *, *, #21, .F. ) ;
#70 = VERTEX_POINT ( 'NONE', #159 ) ;
#71 = CARTESIAN_POINT ( 'NONE',  ( -0.06882860249999996072, 1.144668805943522018E-17, 0.3937009999999999676 ) ) ;
#72 = DIRECTION ( 'NONE',  ( 1.000000000000000000, 0.000000000000000000, 0.000000000000000000 ) ) ;
#73 = AXIS2_PLACEMENT_3D ( 'NONE', #226, #17, #290 ) ;
#74 = ORIENTED_EDGE ( 'NONE', *, *, #147, .F. ) ;
#75 = CARTESIAN_POINT ( 'NONE',  ( -0.1181100000000000066, 0.000000000000000000, 2.244094000000000033 ) ) ;
#76 = EDGE_CURVE ( 'NONE', #251, #255, #53, .T. ) ;
#77 = CARTESIAN_POINT ( 'NONE',  ( 0.000000000000000000, 0.000000000000000000, 2.244094000000000033 ) ) ;
#78 = DIRECTION ( 'NONE',  ( -0.000000000000000000, -0.000000000000000000, -1.000000000000000000 ) ) ;
#79 = AXIS2_PLACEMENT_3D ( 'NONE', #247, #67, #41 ) ;
#80 = CARTESIAN_POINT ( 'NONE',  ( 1.032263699263193969E-33, 0.000000000000000000, 8.429072774141052587E-18 ) ) ;
#81 = DIRECTION ( 'NONE',  ( 1.000000000000000000, 0.000000000000000000, 0.000000000000000000 ) ) ;
#82 = DIRECTION ( 'NONE',  ( -1.224646799147353207E-16, -0.000000000000000000, -1.000000000000000000 ) ) ;
#83 = DIMENSIONAL_EXPONENTS ( 1.000000000000000000, 0.000000000000000000, 0.000000000000000000, 0.000000000000000000, 0.000000000000000000, 0.000000000000000000, 0.000000000000000000 ) ;
#84 = AXIS2_PLACEMENT_3D ( 'NONE', #8, #200, #11 ) ;
#85 = ADVANCED_BREP_SHAPE_REPRESENTATION ( 'Micro_AEMM-035-3', ( #105, #183 ), #177 ) ;
#86 = CARTESIAN_POINT ( 'NONE',  ( 0.000000000000000000, 0.000000000000000000, 2.244094000000000033 ) ) ;
#87 = CARTESIAN_POINT ( 'NONE',  ( 0.06882860250000000235, 8.429072774141052587E-18, 0.000000000000000000 ) ) ;
#88 = PRODUCT_DEFINITION_FORMATION_WITH_SPECIFIED_SOURCE ( 'ANY', '', #224, .NOT_KNOWN. ) ;
#89 = FACE_OUTER_BOUND ( 'NONE', #23, .T. ) ;
#90 = DIRECTION ( 'NONE',  ( 0.000000000000000000, 0.000000000000000000, 1.000000000000000000 ) ) ;
#91 =( CONVERSION_BASED_UNIT ( 'INCH', #45 ) LENGTH_UNIT ( ) NAMED_UNIT ( #83 ) );
#92 = PRODUCT_RELATED_PRODUCT_CATEGORY ( 'part', '', ( #224 ) ) ;
#93 = ORIENTED_EDGE ( 'NONE', *, *, #117, .F. ) ;
#94 = ORIENTED_EDGE ( 'NONE', *, *, #215, .T. ) ;
#95 = ORIENTED_EDGE ( 'NONE', *, *, #175, .F. ) ;
#96 = ORIENTED_EDGE ( 'NONE', *, *, #147, .T. ) ;
#97 = LINE ( 'NONE', #75, #58 ) ;
#98 = EDGE_CURVE ( 'NONE', #189, #230, #221, .T. ) ;
#99 = DIRECTION ( 'NONE',  ( 1.000000000000000000, 0.000000000000000000, 0.000000000000000000 ) ) ;
#100 = DIRECTION ( 'NONE',  ( -1.000000000000000000, 0.000000000000000000, 1.224646799147353454E-16 ) ) ;
#101 = ADVANCED_FACE ( 'NONE', ( #259 ), #137, .T. ) ;
#102 = CARTESIAN_POINT ( 'NONE',  ( 0.06882860250000000235, 8.429072774141052587E-18, -8.429072774141052587E-18 ) ) ;
#103 = CIRCLE ( 'NONE', #233, 0.1031100000000002570 ) ;
#104 = LINE ( 'NONE', #180, #111 ) ;
#105 = MANIFOLD_SOLID_BREP ( 'Cut-Revolve1', #16 ) ;
#106 = DIRECTION ( 'NONE',  ( 1.000000000000000000, 0.000000000000000000, 0.000000000000000000 ) ) ;
#107 = DIMENSIONAL_EXPONENTS ( 1.000000000000000000, 0.000000000000000000, 0.000000000000000000, 0.000000000000000000, 0.000000000000000000, 0.000000000000000000, 0.000000000000000000 ) ;
#108 = FACE_OUTER_BOUND ( 'NONE', #234, .T. ) ;
#109 = AXIS2_PLACEMENT_3D ( 'NONE', #241, #242, #99 ) ;
#110 = AXIS2_PLACEMENT_3D ( 'NONE', #286, #31, #106 ) ;
#111 = VECTOR ( 'NONE', #131, 39.37007874015748854 ) ;
#112 = EDGE_CURVE ( 'NONE', #70, #210, #217, .T. ) ;
#113 = CARTESIAN_POINT ( 'NONE',  ( 0.1181100000000000066, 1.446430334472939084E-17, 2.229093999999999465 ) ) ;
#114 = UNCERTAINTY_MEASURE_WITH_UNIT (LENGTH_MEASURE( 1.000000000000000082E-05 ), #91, 'distance_accuracy_value', 'NONE');
#115 = CYLINDRICAL_SURFACE ( 'NONE', #79, 0.1181100000000000066 ) ;
#116 = DIRECTION ( 'NONE',  ( -1.224646799147353207E-16, -0.000000000000000000, -1.000000000000000000 ) ) ;
#117 = EDGE_CURVE ( 'NONE', #1, #251, #39, .T. ) ;
#118 = EDGE_LOOP ( 'NONE', ( #196, #146, #4, #20 ) ) ;
#119 = PRODUCT_CONTEXT ( 'NONE', #35, 'mechanical' ) ;
#120 = EDGE_LOOP ( 'NONE', ( #28, #299, #297, #27 ) ) ;
#121 = CONICAL_SURFACE ( 'NONE', #149, 0.06882860250000000235, 0.1745329251994338360 ) ;
#122 = ORIENTED_EDGE ( 'NONE', *, *, #98, .F. ) ;
#123 = ORIENTED_EDGE ( 'NONE', *, *, #288, .F. ) ;
#124 = PRESENTATION_STYLE_ASSIGNMENT (( #249 ) ) ;
#125 = ORIENTED_EDGE ( 'NONE', *, *, #198, .T. ) ;
#126 = EDGE_CURVE ( 'NONE', #170, #70, #103, .T. ) ;
#127 =( LENGTH_UNIT ( ) NAMED_UNIT ( * ) SI_UNIT ( $, .METRE. ) );
#128 = LINE ( 'NONE', #240, #167 ) ;
#129 = SURFACE_STYLE_USAGE ( .BOTH. , #55 ) ;
#130 = AXIS2_PLACEMENT_3D ( 'NONE', #285, #10, #156 ) ;
#131 = DIRECTION ( 'NONE',  ( 0.7071067811865358044, 8.659560562354788645E-17, -0.7071067811865590080 ) ) ;
#132 = FACE_OUTER_BOUND ( 'NONE', #212, .T. ) ;
#133 = EDGE_CURVE ( 'NONE', #170, #208, #104, .T. ) ;
#134 = UNCERTAINTY_MEASURE_WITH_UNIT (LENGTH_MEASURE( 1.000000000000000082E-05 ), #237, 'distance_accuracy_value', 'NONE');
#135 = DIRECTION ( 'NONE',  ( 1.000000000000000000, 0.000000000000000000, 0.000000000000000000 ) ) ;
#136 = PRODUCT_DEFINITION_CONTEXT ( 'detailed design', #181, 'design' ) ;
#137 = CONICAL_SURFACE ( 'NONE', #154, 0.1031100000000002570, 0.7853981633974318477 ) ;
#138 = AXIS2_PLACEMENT_3D ( 'NONE', #188, #272, #244 ) ;
#139 = DIRECTION ( 'NONE',  ( 0.000000000000000000, 0.000000000000000000, -1.000000000000000000 ) ) ;
#140 = CARTESIAN_POINT ( 'NONE',  ( 0.1031100000000002570, 1.354581824536888722E-17, 2.244094000000000033 ) ) ;
#141 = DIRECTION ( 'NONE',  ( -1.224646799147353207E-16, -0.000000000000000000, -1.000000000000000000 ) ) ;
#142 = VECTOR ( 'NONE', #201, 39.37007874015748143 ) ;
#143 = VECTOR ( 'NONE', #64, 39.37007874015747433 ) ;
#144 = ORIENTED_EDGE ( 'NONE', *, *, #76, .T. ) ;
#145 =( LENGTH_UNIT ( ) NAMED_UNIT ( * ) SI_UNIT ( $, .METRE. ) );
#146 = ORIENTED_EDGE ( 'NONE', *, *, #133, .T. ) ;
#147 = EDGE_CURVE ( 'NONE', #1, #51, #128, .T. ) ;
#148 = ORIENTED_EDGE ( 'NONE', *, *, #112, .T. ) ;
#149 = AXIS2_PLACEMENT_3D ( 'NONE', #222, #294, #205 ) ;
#150 = ORIENTED_EDGE ( 'NONE', *, *, #215, .F. ) ;
#151 = ORIENTED_EDGE ( 'NONE', *, *, #21, .T. ) ;
#152 = DIRECTION ( 'NONE',  ( -1.224646799147353207E-16, -0.000000000000000000, -1.000000000000000000 ) ) ;
#153 = AXIS2_PLACEMENT_3D ( 'NONE', #216, #152, #258 ) ;
#154 = AXIS2_PLACEMENT_3D ( 'NONE', #29, #33, #197 ) ;
#155 = VECTOR ( 'NONE', #40, 39.37007874015748143 ) ;
#156 = DIRECTION ( 'NONE',  ( -1.000000000000000000, 0.000000000000000000, 0.000000000000000000 ) ) ;
#157 =( NAMED_UNIT ( * ) PLANE_ANGLE_UNIT ( ) SI_UNIT ( $, .RADIAN. ) );
#158 = ADVANCED_FACE ( 'NONE', ( #178 ), #34, .T. ) ;
#159 = CARTESIAN_POINT ( 'NONE',  ( -0.1031100000000002570, 0.000000000000000000, 2.244094000000000033 ) ) ;
#160 = AXIS2_PLACEMENT_3D ( 'NONE', #42, #82, #204 ) ;
#161 = CARTESIAN_POINT ( 'NONE',  ( 0.06882860250000005786, 0.000000000000000000, 0.3937009999999999676 ) ) ;
#162 = DIRECTION ( 'NONE',  ( 0.000000000000000000, 0.000000000000000000, 1.000000000000000000 ) ) ;
#163 = CARTESIAN_POINT ( 'NONE',  ( 0.1181100000000000066, 1.446430334472939084E-17, 2.244094000000000033 ) ) ;
#164 = STYLED_ITEM ( 'NONE', ( #124 ), #85 ) ;
#165 = DIRECTION ( 'NONE',  ( -1.000000000000000000, 0.000000000000000000, 0.000000000000000000 ) ) ;
#166 = FACE_OUTER_BOUND ( 'NONE', #120, .T. ) ;
#167 = VECTOR ( 'NONE', #218, 39.37007874015748143 ) ;
#168 = EDGE_CURVE ( 'NONE', #70, #170, #18, .T. ) ;
#169 = ORIENTED_EDGE ( 'NONE', *, *, #117, .T. ) ;
#170 = VERTEX_POINT ( 'NONE', #140 ) ;
#171 = CARTESIAN_POINT ( 'NONE',  ( 0.000000000000000000, 0.000000000000000000, 0.000000000000000000 ) ) ;
#172 = EDGE_LOOP ( 'NONE', ( #254, #191 ) ) ;
#173 = AXIS2_PLACEMENT_3D ( 'NONE', #225, #139, #135 ) ;
#174 = ORIENTED_EDGE ( 'NONE', *, *, #47, .F. ) ;
#175 = EDGE_CURVE ( 'NONE', #230, #189, #276, .T. ) ;
#176 = CARTESIAN_POINT ( 'NONE',  ( -0.06882860250000000235, 0.000000000000000000, 1.685814554828210517E-17 ) ) ;
#177 =( GEOMETRIC_REPRESENTATION_CONTEXT ( 3 ) GLOBAL_UNCERTAINTY_ASSIGNED_CONTEXT ( ( #114 ) ) GLOBAL_UNIT_ASSIGNED_CONTEXT ( ( #91, #273, #231 ) ) REPRESENTATION_CONTEXT ( 'NONE', 'WORKASPACE' ) );
#178 = FACE_OUTER_BOUND ( 'NONE', #211, .T. ) ;
#179 = SURFACE_STYLE_FILL_AREA ( #262 ) ;
#180 = CARTESIAN_POINT ( 'NONE',  ( 0.1031100000000002570, 1.262733314600838667E-17, 2.244094000000000033 ) ) ;
#181 = APPLICATION_CONTEXT ( 'automotive_design' ) ;
#182 = DIRECTION ( 'NONE',  ( -1.000000000000000000, 0.000000000000000000, 1.224646799147353454E-16 ) ) ;
#183 = AXIS2_PLACEMENT_3D ( 'NONE', #171, #90, #72 ) ;
#184 = CYLINDRICAL_SURFACE ( 'NONE', #138, 0.1181100000000000066 ) ;
#185 = FACE_OUTER_BOUND ( 'NONE', #229, .T. ) ;
#186 = FACE_OUTER_BOUND ( 'NONE', #3, .T. ) ;
#187 =( GEOMETRIC_REPRESENTATION_CONTEXT ( 3 ) GLOBAL_UNCERTAINTY_ASSIGNED_CONTEXT ( ( #134 ) ) GLOBAL_UNIT_ASSIGNED_CONTEXT ( ( #237, #157, #36 ) ) REPRESENTATION_CONTEXT ( 'NONE', 'WORKASPACE' ) );
#188 = CARTESIAN_POINT ( 'NONE',  ( 0.000000000000000000, 0.000000000000000000, 2.244094000000000033 ) ) ;
#189 = VERTEX_POINT ( 'NONE', #207 ) ;
#190 = AXIS2_PLACEMENT_3D ( 'NONE', #287, #162, #15 ) ;
#191 = ORIENTED_EDGE ( 'NONE', *, *, #126, .T. ) ;
#192 = ORIENTED_EDGE ( 'NONE', *, *, #175, .T. ) ;
#193 = ADVANCED_FACE ( 'NONE', ( #166 ), #121, .T. ) ;
#194 = SURFACE_STYLE_FILL_AREA ( #50 ) ;
#195 = CARTESIAN_POINT ( 'NONE',  ( 0.000000000000000000, 0.000000000000000000, 2.244094000000000033 ) ) ;
#196 = ORIENTED_EDGE ( 'NONE', *, *, #126, .F. ) ;
#197 = DIRECTION ( 'NONE',  ( -1.000000000000000000, 0.000000000000000000, 0.000000000000000000 ) ) ;
#198 = EDGE_CURVE ( 'NONE', #1, #230, #248, .T. ) ;
#199 = CIRCLE ( 'NONE', #173, 0.1181100000000000066 ) ;
#200 = DIRECTION ( 'NONE',  ( 1.224646799147353207E-16, 0.000000000000000000, 1.000000000000000000 ) ) ;
#201 = DIRECTION ( 'NONE',  ( -1.224646799147353207E-16, -0.000000000000000000, -1.000000000000000000 ) ) ;
#202 =( LENGTH_UNIT ( ) NAMED_UNIT ( * ) SI_UNIT ( $, .METRE. ) );
#203 = UNCERTAINTY_MEASURE_WITH_UNIT (LENGTH_MEASURE( 1.000000000000000082E-05 ), #278, 'distance_accuracy_value', 'NONE');
#204 = DIRECTION ( 'NONE',  ( -1.000000000000000000, 0.000000000000000000, 1.224646799147353454E-16 ) ) ;
#205 = DIRECTION ( 'NONE',  ( 1.000000000000000000, 0.000000000000000000, 0.000000000000000000 ) ) ;
#206 = CARTESIAN_POINT ( 'NONE',  ( 8.244196035928968872E-17, 0.000000000000000000, 0.6731896936871021309 ) ) ;
#207 = CARTESIAN_POINT ( 'NONE',  ( 0.1181100000000000899, 1.446430334472940009E-17, 0.6731896936871021309 ) ) ;
#208 = VERTEX_POINT ( 'NONE', #113 ) ;
#209 = SURFACE_SIDE_STYLE ('',( #194 ) ) ;
#210 = VERTEX_POINT ( 'NONE', #223 ) ;
#211 = EDGE_LOOP ( 'NONE', ( #93, #125, #192, #123 ) ) ;
#212 = EDGE_LOOP ( 'NONE', ( #44, #257 ) ) ;
#213 = ADVANCED_FACE ( 'NONE', ( #186 ), #13, .T. ) ;
#214 = DIRECTION ( 'NONE',  ( 1.000000000000000000, 0.000000000000000000, -0.000000000000000000 ) ) ;
#215 = EDGE_CURVE ( 'NONE', #208, #189, #292, .T. ) ;
#216 = CARTESIAN_POINT ( 'NONE',  ( 4.821446694711121291E-17, 0.000000000000000000, 0.3937009999999999676 ) ) ;
#217 = LINE ( 'NONE', #6, #289 ) ;
#218 = DIRECTION ( 'NONE',  ( -1.224646799147353207E-16, -0.000000000000000000, -1.000000000000000000 ) ) ;
#219 = PLANE ( 'NONE',  #73 ) ;
#220 = DIMENSIONAL_EXPONENTS ( 1.000000000000000000, 0.000000000000000000, 0.000000000000000000, 0.000000000000000000, 0.000000000000000000, 0.000000000000000000, 0.000000000000000000 ) ;
#221 = CIRCLE ( 'NONE', #109, 0.1181100000000000066 ) ;
#222 = CARTESIAN_POINT ( 'NONE',  ( 4.821446694711121291E-17, 0.000000000000000000, 0.3937009999999999676 ) ) ;
#223 = CARTESIAN_POINT ( 'NONE',  ( -0.1181100000000000066, 0.000000000000000000, 2.229093999999999465 ) ) ;
#224 = PRODUCT ( 'Micro_AEMM-035-3', 'Micro_AEMM-035-3', '', ( #119 ) ) ;
#225 = CARTESIAN_POINT ( 'NONE',  ( 0.000000000000000000, 0.000000000000000000, 2.229093999999999465 ) ) ;
#226 = CARTESIAN_POINT ( 'NONE',  ( 0.000000000000000000, 0.000000000000000000, 0.000000000000000000 ) ) ;
#227 = CIRCLE ( 'NONE', #110, 0.1181100000000000066 ) ;
#228 = AXIS2_PLACEMENT_3D ( 'NONE', #268, #141, #182 ) ;
#229 = EDGE_LOOP ( 'NONE', ( #169, #144, #49, #74 ) ) ;
#230 = VERTEX_POINT ( 'NONE', #265 ) ;
#231 =( NAMED_UNIT ( * ) SI_UNIT ( $, .STERADIAN. ) SOLID_ANGLE_UNIT ( ) );
#232 = ORIENTED_EDGE ( 'NONE', *, *, #47, .T. ) ;
#233 = AXIS2_PLACEMENT_3D ( 'NONE', #77, #32, #81 ) ;
#234 = EDGE_LOOP ( 'NONE', ( #150, #232, #151, #122 ) ) ;
#235 = APPLICATION_PROTOCOL_DEFINITION ( 'draft international standard', 'automotive_design', 1998, #35 ) ;
#236 = ORIENTED_EDGE ( 'NONE', *, *, #243, .F. ) ;
#237 =( CONVERSION_BASED_UNIT ( 'INCH', #56 ) LENGTH_UNIT ( ) NAMED_UNIT ( #107 ) );
#238 = AXIS2_PLACEMENT_3D ( 'NONE', #195, #281, #214 ) ;
#239 = AXIS2_PLACEMENT_3D ( 'NONE', #38, #116, #269 ) ;
#240 = CARTESIAN_POINT ( 'NONE',  ( -0.06882860250000000235, 0.000000000000000000, 8.429072774141052587E-18 ) ) ;
#241 = CARTESIAN_POINT ( 'NONE',  ( 8.244196035928968872E-17, 0.000000000000000000, 0.6731896936871021309 ) ) ;
#242 = DIRECTION ( 'NONE',  ( -1.224646799147353207E-16, -0.000000000000000000, -1.000000000000000000 ) ) ;
#243 = EDGE_CURVE ( 'NONE', #255, #51, #261, .T. ) ;
#244 = DIRECTION ( 'NONE',  ( -1.000000000000000000, 0.000000000000000000, 0.000000000000000000 ) ) ;
#245 = DIRECTION ( 'NONE',  ( -0.000000000000000000, -0.000000000000000000, -1.000000000000000000 ) ) ;
#246 = CARTESIAN_POINT ( 'NONE',  ( 0.06882860250000005786, 0.000000000000000000, 0.3937009999999999676 ) ) ;
#247 = CARTESIAN_POINT ( 'NONE',  ( 0.000000000000000000, 0.000000000000000000, 2.244094000000000033 ) ) ;
#248 = LINE ( 'NONE', #291, #143 ) ;
#249 = SURFACE_STYLE_USAGE ( .BOTH. , #209 ) ;
#250 = CIRCLE ( 'NONE', #153, 0.06882860250000000235 ) ;
#251 = VERTEX_POINT ( 'NONE', #161 ) ;
#252 = AXIS2_PLACEMENT_3D ( 'NONE', #206, #60, #37 ) ;
#253 = PRODUCT_DEFINITION ( 'UNKNOWN', '', #88, #136 ) ;
#254 = ORIENTED_EDGE ( 'NONE', *, *, #168, .T. ) ;
#255 = VERTEX_POINT ( 'NONE', #87 ) ;
#256 = PLANE ( 'NONE',  #238 ) ;
#257 = ORIENTED_EDGE ( 'NONE', *, *, #243, .T. ) ;
#258 = DIRECTION ( 'NONE',  ( -1.000000000000000000, 0.000000000000000000, 0.000000000000000000 ) ) ;
#259 = FACE_OUTER_BOUND ( 'NONE', #118, .T. ) ;
#260 = COLOUR_RGB ( '',0.7921568627450980005, 0.8196078431372548767, 0.9333333333333333481 ) ;
#261 = CIRCLE ( 'NONE', #239, 0.06882860250000000235 ) ;
#262 = FILL_AREA_STYLE ('',( #52 ) ) ;
#263 = PRESENTATION_STYLE_ASSIGNMENT (( #129 ) ) ;
#264 = CIRCLE ( 'NONE', #274, 0.06882860250000000235 ) ;
#265 = CARTESIAN_POINT ( 'NONE',  ( -0.1181099999999999234, 0.000000000000000000, 0.6731896936871021309 ) ) ;
#266 = EDGE_CURVE ( 'NONE', #210, #208, #199, .T. ) ;
#267 = CYLINDRICAL_SURFACE ( 'NONE', #228, 0.06882860250000000235 ) ;
#268 = CARTESIAN_POINT ( 'NONE',  ( 0.000000000000000000, 0.000000000000000000, 0.000000000000000000 ) ) ;
#269 = DIRECTION ( 'NONE',  ( -1.000000000000000000, 0.000000000000000000, 1.224646799147353454E-16 ) ) ;
#270 = COLOUR_RGB ( '',0.7921568627450980005, 0.8196078431372548767, 0.9333333333333333481 ) ;
#271 = ADVANCED_FACE ( 'NONE', ( #66 ), #9, .T. ) ;
#272 = DIRECTION ( 'NONE',  ( -0.000000000000000000, -0.000000000000000000, -1.000000000000000000 ) ) ;
#273 =( NAMED_UNIT ( * ) PLANE_ANGLE_UNIT ( ) SI_UNIT ( $, .RADIAN. ) );
#274 = AXIS2_PLACEMENT_3D ( 'NONE', #80, #7, #100 ) ;
#275 = ORIENTED_EDGE ( 'NONE', *, *, #168, .F. ) ;
#276 = CIRCLE ( 'NONE', #252, 0.1181100000000000066 ) ;
#277 = ORIENTED_EDGE ( 'NONE', *, *, #43, .T. ) ;
#278 =( CONVERSION_BASED_UNIT ( 'INCH', #296 ) LENGTH_UNIT ( ) NAMED_UNIT ( #220 ) );
#279 = FACE_OUTER_BOUND ( 'NONE', #172, .T. ) ;
#280 =( NAMED_UNIT ( * ) PLANE_ANGLE_UNIT ( ) SI_UNIT ( $, .RADIAN. ) );
#281 = DIRECTION ( 'NONE',  ( 0.000000000000000000, 0.000000000000000000, 1.000000000000000000 ) ) ;
#282 = ADVANCED_FACE ( 'NONE', ( #185 ), #267, .T. ) ;
#283 = EDGE_LOOP ( 'NONE', ( #48, #275, #148, #174 ) ) ;
#284 = ADVANCED_FACE ( 'NONE', ( #89 ), #184, .T. ) ;
#285 = CARTESIAN_POINT ( 'NONE',  ( 4.821446694711121291E-17, 0.000000000000000000, 0.3937009999999999676 ) ) ;
#286 = CARTESIAN_POINT ( 'NONE',  ( 0.000000000000000000, 0.000000000000000000, 2.229093999999999465 ) ) ;
#287 = CARTESIAN_POINT ( 'NONE',  ( 0.000000000000000000, 0.000000000000000000, 2.244094000000000033 ) ) ;
#288 = EDGE_CURVE ( 'NONE', #251, #189, #63, .T. ) ;
#289 = VECTOR ( 'NONE', #57, 39.37007874015748854 ) ;
#290 = DIRECTION ( 'NONE',  ( 1.000000000000000000, 0.000000000000000000, -0.000000000000000000 ) ) ;
#291 = CARTESIAN_POINT ( 'NONE',  ( -0.06882860249999996072, 8.429072774141052587E-18, 0.3937009999999999676 ) ) ;
#292 = LINE ( 'NONE', #163, #30 ) ;
#293 = ADVANCED_FACE ( 'NONE', ( #108 ), #115, .T. ) ;
#294 = DIRECTION ( 'NONE',  ( 1.224646799147353207E-16, 0.000000000000000000, 1.000000000000000000 ) ) ;
#295 = MECHANICAL_DESIGN_GEOMETRIC_PRESENTATION_REPRESENTATION (  '', ( #54 ), #187 ) ;
#296 = LENGTH_MEASURE_WITH_UNIT ( LENGTH_MEASURE( 0.02539999999999999897 ), #145 );
#297 = ORIENTED_EDGE ( 'NONE', *, *, #288, .T. ) ;
#298 = ADVANCED_FACE ( 'NONE', ( #132 ), #219, .F. ) ;
#299 = ORIENTED_EDGE ( 'NONE', *, *, #43, .F. ) ;
ENDSEC;
END-ISO-10303-21;
