ISO-10303-21;
HEADER;
FILE_DESCRIPTION (( 'STEP AP214' ),
    '1' );
FILE_NAME ('07025.STEP',
    '2023-07-12T13:05:14',
    ( '' ),
    ( '' ),
    'SwSTEP 2.0',
    'SolidWorks 2023',
    '' );
FILE_SCHEMA (( 'AUTOMOTIVE_DESIGN' ));
ENDSEC;

DATA;
#1 = FACE_OUTER_BOUND ( 'NONE', #199, .T. ) ;
#2 = DIMENSIONAL_EXPONENTS ( 1.000000000000000000, 0.000000000000000000, 0.000000000000000000, 0.000000000000000000, 0.000000000000000000, 0.000000000000000000, 0.000000000000000000 ) ;
#3 = FACE_OUTER_BOUND ( 'NONE', #19, .T. ) ;
#4 = CIRCLE ( 'NONE', #58, 0.3749999999999999445 ) ;
#5 = CARTESIAN_POINT ( 'NONE',  ( 2.987958743070287834E-16, 0.5629165124598836112, 0.000000000000000000 ) ) ;
#6 = UNCERTAINTY_MEASURE_WITH_UNIT (LENGTH_MEASURE( 1.000000000000000082E-05 ), #220, 'distance_accuracy_value', 'NONE');
#7 =( NAMED_UNIT ( * ) SI_UNIT ( $, .STERADIAN. ) SOLID_ANGLE_UNIT ( ) );
#8 = AXIS2_PLACEMENT_3D ( 'NONE', #5, #121, #217 ) ;
#9 = DIMENSIONAL_EXPONENTS ( 1.000000000000000000, 0.000000000000000000, 0.000000000000000000, 0.000000000000000000, 0.000000000000000000, 0.000000000000000000, 0.000000000000000000 ) ;
#10 = LENGTH_MEASURE_WITH_UNIT ( LENGTH_MEASURE( 0.02539999999999999897 ), #126 );
#11 = PRESENTATION_STYLE_ASSIGNMENT (( #109 ) ) ;
#12 = EDGE_LOOP ( 'NONE', ( #306, #92 ) ) ;
#13 = ADVANCED_FACE ( 'NONE', ( #158 ), #39, .F. ) ;
#14 = CARTESIAN_POINT ( 'NONE',  ( 3.317454181822997505E-37, 1.287915793408675816E-19, 0.000000000000000000 ) ) ;
#15 = ORIENTED_EDGE ( 'NONE', *, *, #94, .F. ) ;
#16 = MECHANICAL_DESIGN_GEOMETRIC_PRESENTATION_REPRESENTATION (  '', ( #266 ), #263 ) ;
#17 = CIRCLE ( 'NONE', #44, 0.3750000000000000555 ) ;
#18 = FACE_OUTER_BOUND ( 'NONE', #184, .T. ) ;
#19 = EDGE_LOOP ( 'NONE', ( #281, #15 ) ) ;
#20 = LENGTH_MEASURE_WITH_UNIT ( LENGTH_MEASURE( 0.02539999999999999897 ), #152 );
#21 = FILL_AREA_STYLE_COLOUR ( '', #262 ) ;
#22 = DIRECTION ( 'NONE',  ( -1.000000000000000000, 0.000000000000000000, 0.000000000000000000 ) ) ;
#23 = DIMENSIONAL_EXPONENTS ( 1.000000000000000000, 0.000000000000000000, 0.000000000000000000, 0.000000000000000000, 0.000000000000000000, 0.000000000000000000, 0.000000000000000000 ) ;
#24 = FILL_AREA_STYLE_COLOUR ( '', #276 ) ;
#25 = DIRECTION ( 'NONE',  ( -2.575831586817351440E-18, -1.000000000000000000, -0.000000000000000000 ) ) ;
#26 = CARTESIAN_POINT ( 'NONE',  ( 0.3749999999999997780, 3.000000000000000444, 4.592425496802572370E-17 ) ) ;
#27 = AXIS2_PLACEMENT_3D ( 'NONE', #200, #64, #269 ) ;
#28 =( NAMED_UNIT ( * ) PLANE_ANGLE_UNIT ( ) SI_UNIT ( $, .RADIAN. ) );
#29 = SURFACE_STYLE_FILL_AREA ( #251 ) ;
#30 = DIMENSIONAL_EXPONENTS ( 1.000000000000000000, 0.000000000000000000, 0.000000000000000000, 0.000000000000000000, 0.000000000000000000, 0.000000000000000000, 0.000000000000000000 ) ;
#31 = VECTOR ( 'NONE', #233, 39.37007874015748143 ) ;
#32 =( LENGTH_UNIT ( ) NAMED_UNIT ( * ) SI_UNIT ( $, .METRE. ) );
#33 = COLOUR_RGB ( '',0.7921568627450980005, 0.8196078431372548767, 0.9333333333333333481 ) ;
#34 = FILL_AREA_STYLE ('',( #83 ) ) ;
#35 =( CONVERSION_BASED_UNIT ( 'INCH', #10 ) LENGTH_UNIT ( ) NAMED_UNIT ( #82 ) );
#36 = EDGE_CURVE ( 'NONE', #270, #111, #286, .T. ) ;
#37 = UNCERTAINTY_MEASURE_WITH_UNIT (LENGTH_MEASURE( 1.000000000000000082E-05 ), #102, 'distance_accuracy_value', 'NONE');
#38 =( CONVERSION_BASED_UNIT ( 'INCH', #20 ) LENGTH_UNIT ( ) NAMED_UNIT ( #23 ) );
#39 = PLANE ( 'NONE',  #297 ) ;
#40 = UNCERTAINTY_MEASURE_WITH_UNIT (LENGTH_MEASURE( 1.000000000000000082E-05 ), #38, 'distance_accuracy_value', 'NONE');
#41 = PRESENTATION_STYLE_ASSIGNMENT (( #252 ) ) ;
#42 = ORIENTED_EDGE ( 'NONE', *, *, #49, .T. ) ;
#43 = COLOUR_RGB ( '',1.000000000000000000, 0.000000000000000000, 0.000000000000000000 ) ;
#44 = AXIS2_PLACEMENT_3D ( 'NONE', #267, #79, #22 ) ;
#45 = CARTESIAN_POINT ( 'NONE',  ( 1.449978133535231054E-18, 0.5629165124598835002, 0.000000000000000000 ) ) ;
#46 = DIRECTION ( 'NONE',  ( -1.477291262712517609E-16, 1.000000000000000000, -0.000000000000000000 ) ) ;
#47 = DIRECTION ( 'NONE',  ( -1.477291262712517609E-16, 1.000000000000000000, 0.000000000000000000 ) ) ;
#48 = VERTEX_POINT ( 'NONE', #68 ) ;
#49 = EDGE_CURVE ( 'NONE', #183, #303, #117, .T. ) ;
#50 = PRESENTATION_LAYER_ASSIGNMENT (  '', '', ( #247 ) ) ;
#51 = STYLED_ITEM ( 'NONE', ( #198 ), #189 ) ;
#52 = DIRECTION ( 'NONE',  ( -2.575831586817351440E-18, -1.000000000000000000, -0.000000000000000000 ) ) ;
#53 = CLOSED_SHELL ( 'NONE', ( #189, #91, #73, #215 ) ) ;
#54 = CONICAL_SURFACE ( 'NONE', #235, 0.05000000000000000278, 0.5235987755983000369 ) ;
#55 = SHAPE_DEFINITION_REPRESENTATION ( #62, #187 ) ;
#56 = SURFACE_STYLE_USAGE ( .BOTH. , #223 ) ;
#57 = PRODUCT_DEFINITION_FORMATION_WITH_SPECIFIED_SOURCE ( 'ANY', '', #154, .NOT_KNOWN. ) ;
#58 = AXIS2_PLACEMENT_3D ( 'NONE', #45, #118, #255 ) ;
#59 =( NAMED_UNIT ( * ) SI_UNIT ( $, .STERADIAN. ) SOLID_ANGLE_UNIT ( ) );
#60 = SURFACE_STYLE_FILL_AREA ( #34 ) ;
#61 = ADVANCED_FACE ( 'NONE', ( #300 ), #88, .T. ) ;
#62 = PRODUCT_DEFINITION_SHAPE ( 'NONE', 'NONE',  #63 ) ;
#63 = PRODUCT_DEFINITION ( 'UNKNOWN', '', #57, #120 ) ;
#64 = DIRECTION ( 'NONE',  ( 2.575831586817351440E-18, 1.000000000000000000, 0.000000000000000000 ) ) ;
#65 = FACE_OUTER_BOUND ( 'NONE', #113, .T. ) ;
#66 = CARTESIAN_POINT ( 'NONE',  ( -6.123233995736770966E-17, 3.000000000000000444, 0.000000000000000000 ) ) ;
#67 = DIRECTION ( 'NONE',  ( -1.000000000000000000, -1.821231995776177205E-16, 0.000000000000000000 ) ) ;
#68 = CARTESIAN_POINT ( 'NONE',  ( 0.05000000000000000278, 0.000000000000000000, 2.602374448188125350E-17 ) ) ;
#69 = VECTOR ( 'NONE', #140, 39.37007874015748143 ) ;
#70 = DIRECTION ( 'NONE',  ( -1.477291262712517609E-16, 1.000000000000000000, -0.000000000000000000 ) ) ;
#71 = CARTESIAN_POINT ( 'NONE',  ( -0.05000000000000000278, 2.575831586817351632E-19, 0.000000000000000000 ) ) ;
#72 = LENGTH_MEASURE_WITH_UNIT ( LENGTH_MEASURE( 0.02539999999999999897 ), #169 );
#73 = ADVANCED_FACE ( 'NONE', ( #18 ), #54, .T. ) ;
#74 = ORIENTED_EDGE ( 'NONE', *, *, #146, .F. ) ;
#75 = SURFACE_STYLE_FILL_AREA ( #196 ) ;
#76 = DIMENSIONAL_EXPONENTS ( 1.000000000000000000, 0.000000000000000000, 0.000000000000000000, 0.000000000000000000, 0.000000000000000000, 0.000000000000000000, 0.000000000000000000 ) ;
#77 = STYLED_ITEM ( 'NONE', ( #246 ), #210 ) ;
#78 =( NAMED_UNIT ( * ) PLANE_ANGLE_UNIT ( ) SI_UNIT ( $, .RADIAN. ) );
#79 = DIRECTION ( 'NONE',  ( -1.477291262712517609E-16, 1.000000000000000000, -0.000000000000000000 ) ) ;
#80 = CARTESIAN_POINT ( 'NONE',  ( 0.3749999999999999445, 0.5629165124598836112, 4.592425496802574219E-17 ) ) ;
#81 = CARTESIAN_POINT ( 'NONE',  ( 0.3749999999999999445, 0.5629165124598833891, 4.592425496802573602E-17 ) ) ;
#82 = DIMENSIONAL_EXPONENTS ( 1.000000000000000000, 0.000000000000000000, 0.000000000000000000, 0.000000000000000000, 0.000000000000000000, 0.000000000000000000, 0.000000000000000000 ) ;
#83 = FILL_AREA_STYLE_COLOUR ( '', #182 ) ;
#84 = ORIENTED_EDGE ( 'NONE', *, *, #291, .F. ) ;
#85 =( GEOMETRIC_REPRESENTATION_CONTEXT ( 3 ) GLOBAL_UNCERTAINTY_ASSIGNED_CONTEXT ( ( #37 ) ) GLOBAL_UNIT_ASSIGNED_CONTEXT ( ( #102, #191, #287 ) ) REPRESENTATION_CONTEXT ( 'NONE', 'WORKASPACE' ) );
#86 = FACE_OUTER_BOUND ( 'NONE', #93, .T. ) ;
#87 =( GEOMETRIC_REPRESENTATION_CONTEXT ( 3 ) GLOBAL_UNCERTAINTY_ASSIGNED_CONTEXT ( ( #225 ) ) GLOBAL_UNIT_ASSIGNED_CONTEXT ( ( #250, #227, #106 ) ) REPRESENTATION_CONTEXT ( 'NONE', 'WORKASPACE' ) );
#88 = CYLINDRICAL_SURFACE ( 'NONE', #275, 0.3749999999999998335 ) ;
#89 = CARTESIAN_POINT ( 'NONE',  ( 1.658727090911498753E-37, 6.439578967043379081E-20, 0.000000000000000000 ) ) ;
#90 = VERTEX_POINT ( 'NONE', #80 ) ;
#91 = ADVANCED_FACE ( 'NONE', ( #3 ), #124, .T. ) ;
#92 = ORIENTED_EDGE ( 'NONE', *, *, #292, .F. ) ;
#93 = EDGE_LOOP ( 'NONE', ( #137, #260, #211, #188 ) ) ;
#94 = EDGE_CURVE ( 'NONE', #108, #303, #100, .T. ) ;
#95 = EDGE_CURVE ( 'NONE', #90, #270, #293, .T. ) ;
#96 = ORIENTED_EDGE ( 'NONE', *, *, #291, .T. ) ;
#97 = PLANE ( 'NONE',  #194 ) ;
#98 = PRESENTATION_STYLE_ASSIGNMENT (( #170 ) ) ;
#99 = AXIS2_PLACEMENT_3D ( 'NONE', #14, #279, #110 ) ;
#100 = CIRCLE ( 'NONE', #132, 0.3749999999999999445 ) ;
#101 = DIRECTION ( 'NONE',  ( 0.5000000000000009992, 0.8660254037844380415, 6.123233995736778362E-17 ) ) ;
#102 =( CONVERSION_BASED_UNIT ( 'INCH', #157 ) LENGTH_UNIT ( ) NAMED_UNIT ( #30 ) );
#103 =( LENGTH_UNIT ( ) NAMED_UNIT ( * ) SI_UNIT ( $, .METRE. ) );
#104 = DIRECTION ( 'NONE',  ( -1.000000000000000000, 2.575831586817351440E-18, 0.000000000000000000 ) ) ;
#105 = CLOSED_SHELL ( 'NONE', ( #61, #13, #245, #178 ) ) ;
#106 =( NAMED_UNIT ( * ) SI_UNIT ( $, .STERADIAN. ) SOLID_ANGLE_UNIT ( ) );
#107 = CARTESIAN_POINT ( 'NONE',  ( -0.05000000000000000278, 2.575831586817351632E-19, 0.000000000000000000 ) ) ;
#108 = VERTEX_POINT ( 'NONE', #81 ) ;
#109 = SURFACE_STYLE_USAGE ( .BOTH. , #228 ) ;
#110 = DIRECTION ( 'NONE',  ( 1.000000000000000000, -2.575831586817351440E-18, 0.000000000000000000 ) ) ;
#111 = VERTEX_POINT ( 'NONE', #173 ) ;
#112 = PRESENTATION_LAYER_ASSIGNMENT (  '', '', ( #150 ) ) ;
#113 = EDGE_LOOP ( 'NONE', ( #229, #304, #280, #204 ) ) ;
#114 = PRESENTATION_LAYER_ASSIGNMENT (  '', '', ( #230 ) ) ;
#115 =( LENGTH_UNIT ( ) NAMED_UNIT ( * ) SI_UNIT ( $, .METRE. ) );
#116 = FILL_AREA_STYLE ('',( #21 ) ) ;
#117 = LINE ( 'NONE', #71, #69 ) ;
#118 = DIRECTION ( 'NONE',  ( -2.575831586817351440E-18, -1.000000000000000000, -0.000000000000000000 ) ) ;
#119 = SURFACE_SIDE_STYLE ('',( #278 ) ) ;
#120 = PRODUCT_DEFINITION_CONTEXT ( 'detailed design', #207, 'design' ) ;
#121 = DIRECTION ( 'NONE',  ( -1.477291262712517609E-16, 1.000000000000000000, -0.000000000000000000 ) ) ;
#122 = LINE ( 'NONE', #123, #172 ) ;
#123 = CARTESIAN_POINT ( 'NONE',  ( 0.05000000000000000278, 0.000000000000000000, 6.123233995736766344E-18 ) ) ;
#124 = PLANE ( 'NONE',  #177 ) ;
#125 = EDGE_CURVE ( 'NONE', #48, #183, #209, .T. ) ;
#126 =( LENGTH_UNIT ( ) NAMED_UNIT ( * ) SI_UNIT ( $, .METRE. ) );
#127 = AXIS2_PLACEMENT_3D ( 'NONE', #259, #70, #277 ) ;
#128 =( GEOMETRIC_REPRESENTATION_CONTEXT ( 3 ) GLOBAL_UNCERTAINTY_ASSIGNED_CONTEXT ( ( #309 ) ) GLOBAL_UNIT_ASSIGNED_CONTEXT ( ( #35, #201, #59 ) ) REPRESENTATION_CONTEXT ( 'NONE', 'WORKASPACE' ) );
#129 = DIMENSIONAL_EXPONENTS ( 1.000000000000000000, 0.000000000000000000, 0.000000000000000000, 0.000000000000000000, 0.000000000000000000, 0.000000000000000000, 0.000000000000000000 ) ;
#130 = CARTESIAN_POINT ( 'NONE',  ( 0.000000000000000000, 0.000000000000000000, 0.000000000000000000 ) ) ;
#131 = SURFACE_STYLE_FILL_AREA ( #249 ) ;
#132 = AXIS2_PLACEMENT_3D ( 'NONE', #167, #52, #197 ) ;
#133 = EDGE_CURVE ( 'NONE', #48, #108, #122, .T. ) ;
#134 = CYLINDRICAL_SURFACE ( 'NONE', #127, 0.3749999999999998335 ) ;
#135 = CARTESIAN_POINT ( 'NONE',  ( -0.3749999999999998890, 3.000000000000000444, 0.000000000000000000 ) ) ;
#136 = COLOUR_RGB ( '',0.7921568627450980005, 0.8196078431372548767, 0.9333333333333333481 ) ;
#137 = ORIENTED_EDGE ( 'NONE', *, *, #125, .F. ) ;
#138 = CIRCLE ( 'NONE', #8, 0.3749999999999996669 ) ;
#139 = SURFACE_STYLE_FILL_AREA ( #180 ) ;
#140 = DIRECTION ( 'NONE',  ( -0.5000000000000009992, 0.8660254037844380415, 0.000000000000000000 ) ) ;
#141 =( CONVERSION_BASED_UNIT ( 'INCH', #72 ) LENGTH_UNIT ( ) NAMED_UNIT ( #76 ) );
#142 = VERTEX_POINT ( 'NONE', #289 ) ;
#143 = PRESENTATION_LAYER_ASSIGNMENT (  '', '', ( #266 ) ) ;
#144 =( GEOMETRIC_REPRESENTATION_CONTEXT ( 3 ) GLOBAL_UNCERTAINTY_ASSIGNED_CONTEXT ( ( #218 ) ) GLOBAL_UNIT_ASSIGNED_CONTEXT ( ( #265, #241, #145 ) ) REPRESENTATION_CONTEXT ( 'NONE', 'WORKASPACE' ) );
#145 =( NAMED_UNIT ( * ) SI_UNIT ( $, .STERADIAN. ) SOLID_ANGLE_UNIT ( ) );
#146 = EDGE_CURVE ( 'NONE', #111, #270, #17, .T. ) ;
#147 = DIRECTION ( 'NONE',  ( 1.000000000000000000, 0.000000000000000000, 0.000000000000000000 ) ) ;
#148 = AXIS2_PLACEMENT_3D ( 'NONE', #130, #149, #147 ) ;
#149 = DIRECTION ( 'NONE',  ( 0.000000000000000000, 0.000000000000000000, 1.000000000000000000 ) ) ;
#150 = STYLED_ITEM ( 'NONE', ( #11 ), #215 ) ;
#151 = FILL_AREA_STYLE_COLOUR ( '', #43 ) ;
#152 =( LENGTH_UNIT ( ) NAMED_UNIT ( * ) SI_UNIT ( $, .METRE. ) );
#153 = EDGE_CURVE ( 'NONE', #142, #90, #138, .T. ) ;
#154 = PRODUCT ( '07025', '07025', '', ( #171 ) ) ;
#155 = CARTESIAN_POINT ( 'NONE',  ( -0.3749999999999999445, 0.5629165124598833891, 0.000000000000000000 ) ) ;
#156 = SURFACE_STYLE_USAGE ( .BOTH. , #119 ) ;
#157 = LENGTH_MEASURE_WITH_UNIT ( LENGTH_MEASURE( 0.02539999999999999897 ), #115 );
#158 = FACE_OUTER_BOUND ( 'NONE', #12, .T. ) ;
#159 = AXIS2_PLACEMENT_3D ( 'NONE', #66, #206, #212 ) ;
#160 = CARTESIAN_POINT ( 'NONE',  ( 3.317454181822997505E-37, 1.287915793408675816E-19, 0.000000000000000000 ) ) ;
#161 = MECHANICAL_DESIGN_GEOMETRIC_PRESENTATION_REPRESENTATION (  '', ( #51 ), #128 ) ;
#162 = DIRECTION ( 'NONE',  ( 1.000000000000000000, -2.575831586817351440E-18, 0.000000000000000000 ) ) ;
#163 = ORIENTED_EDGE ( 'NONE', *, *, #254, .T. ) ;
#164 = ORIENTED_EDGE ( 'NONE', *, *, #153, .T. ) ;
#165 = CIRCLE ( 'NONE', #99, 0.05000000000000000278 ) ;
#166 = CONICAL_SURFACE ( 'NONE', #27, 0.05000000000000000278, 0.5235987755983000369 ) ;
#167 = CARTESIAN_POINT ( 'NONE',  ( 1.449978133535231054E-18, 0.5629165124598835002, 0.000000000000000000 ) ) ;
#168 = LENGTH_MEASURE_WITH_UNIT ( LENGTH_MEASURE( 0.02539999999999999897 ), #232 );
#169 =( LENGTH_UNIT ( ) NAMED_UNIT ( * ) SI_UNIT ( $, .METRE. ) );
#170 = SURFACE_STYLE_USAGE ( .BOTH. , #290 ) ;
#171 = PRODUCT_CONTEXT ( 'NONE', #243, 'mechanical' ) ;
#172 = VECTOR ( 'NONE', #101, 39.37007874015748143 ) ;
#173 = CARTESIAN_POINT ( 'NONE',  ( -0.3750000000000001110, 3.000000000000000444, 0.000000000000000000 ) ) ;
#174 =( NAMED_UNIT ( * ) SI_UNIT ( $, .STERADIAN. ) SOLID_ANGLE_UNIT ( ) );
#175 = CIRCLE ( 'NONE', #273, 0.3749999999999996669 ) ;
#176 = SURFACE_SIDE_STYLE ('',( #60 ) ) ;
#177 = AXIS2_PLACEMENT_3D ( 'NONE', #264, #222, #104 ) ;
#178 = ADVANCED_FACE ( 'NONE', ( #1 ), #97, .F. ) ;
#179 =( GEOMETRIC_REPRESENTATION_CONTEXT ( 3 ) GLOBAL_UNCERTAINTY_ASSIGNED_CONTEXT ( ( #40 ) ) GLOBAL_UNIT_ASSIGNED_CONTEXT ( ( #38, #231, #305 ) ) REPRESENTATION_CONTEXT ( 'NONE', 'WORKASPACE' ) );
#180 = FILL_AREA_STYLE ('',( #282 ) ) ;
#181 = CARTESIAN_POINT ( 'NONE',  ( -6.123233995736772199E-17, 3.000000000000000444, 0.000000000000000000 ) ) ;
#182 = COLOUR_RGB ( '',1.000000000000000000, 0.000000000000000000, 0.000000000000000000 ) ;
#183 = VERTEX_POINT ( 'NONE', #107 ) ;
#184 = EDGE_LOOP ( 'NONE', ( #284, #84, #42, #163 ) ) ;
#185 = DIRECTION ( 'NONE',  ( -2.575831586817351440E-18, -1.000000000000000000, 0.000000000000000000 ) ) ;
#186 = CARTESIAN_POINT ( 'NONE',  ( 2.987958743070287834E-16, 0.5629165124598835002, 0.000000000000000000 ) ) ;
#187 = ADVANCED_BREP_SHAPE_REPRESENTATION ( '07025', ( #308, #210, #148 ), #192 ) ;
#188 = ORIENTED_EDGE ( 'NONE', *, *, #49, .F. ) ;
#189 = ADVANCED_FACE ( 'NONE', ( #86 ), #166, .T. ) ;
#190 = CARTESIAN_POINT ( 'NONE',  ( 3.317454181822997505E-37, 1.287915793408675816E-19, 0.000000000000000000 ) ) ;
#191 =( NAMED_UNIT ( * ) PLANE_ANGLE_UNIT ( ) SI_UNIT ( $, .RADIAN. ) );
#192 =( GEOMETRIC_REPRESENTATION_CONTEXT ( 3 ) GLOBAL_UNCERTAINTY_ASSIGNED_CONTEXT ( ( #295 ) ) GLOBAL_UNIT_ASSIGNED_CONTEXT ( ( #141, #28, #174 ) ) REPRESENTATION_CONTEXT ( 'NONE', 'WORKASPACE' ) );
#193 = AXIS2_PLACEMENT_3D ( 'NONE', #89, #185, #162 ) ;
#194 = AXIS2_PLACEMENT_3D ( 'NONE', #274, #202, #294 ) ;
#195 = DIRECTION ( 'NONE',  ( 1.000000000000000000, -2.575831586817351440E-18, 0.000000000000000000 ) ) ;
#196 = FILL_AREA_STYLE ('',( #24 ) ) ;
#197 = DIRECTION ( 'NONE',  ( 1.000000000000000000, 0.000000000000000000, 0.000000000000000000 ) ) ;
#198 = PRESENTATION_STYLE_ASSIGNMENT (( #205 ) ) ;
#199 = EDGE_LOOP ( 'NONE', ( #240, #214 ) ) ;
#200 = CARTESIAN_POINT ( 'NONE',  ( 3.317454181822997505E-37, 1.287915793408675816E-19, 0.000000000000000000 ) ) ;
#201 =( NAMED_UNIT ( * ) PLANE_ANGLE_UNIT ( ) SI_UNIT ( $, .RADIAN. ) );
#202 = DIRECTION ( 'NONE',  ( 1.477291262712517609E-16, -1.000000000000000000, 0.000000000000000000 ) ) ;
#203 = PRESENTATION_LAYER_ASSIGNMENT (  '', '', ( #77 ) ) ;
#204 = ORIENTED_EDGE ( 'NONE', *, *, #36, .F. ) ;
#205 = SURFACE_STYLE_USAGE ( .BOTH. , #176 ) ;
#206 = DIRECTION ( 'NONE',  ( -1.477291262712517609E-16, 1.000000000000000000, -0.000000000000000000 ) ) ;
#207 = APPLICATION_CONTEXT ( 'automotive_design' ) ;
#208 = ORIENTED_EDGE ( 'NONE', *, *, #125, .T. ) ;
#209 = CIRCLE ( 'NONE', #307, 0.05000000000000000278 ) ;
#210 = MANIFOLD_SOLID_BREP ( 'Revolve - Tool Body (Tipped Off)', #105 ) ;
#211 = ORIENTED_EDGE ( 'NONE', *, *, #94, .T. ) ;
#212 = DIRECTION ( 'NONE',  ( -1.000000000000000000, 0.000000000000000000, 0.000000000000000000 ) ) ;
#213 = LINE ( 'NONE', #135, #31 ) ;
#214 = ORIENTED_EDGE ( 'NONE', *, *, #36, .T. ) ;
#215 = ADVANCED_FACE ( 'NONE', ( #272 ), #296, .T. ) ;
#216 = PRODUCT_RELATED_PRODUCT_CATEGORY ( 'part', '', ( #154 ) ) ;
#217 = DIRECTION ( 'NONE',  ( -1.000000000000000000, -1.821231995776177205E-16, 0.000000000000000000 ) ) ;
#218 = UNCERTAINTY_MEASURE_WITH_UNIT (LENGTH_MEASURE( 1.000000000000000082E-05 ), #265, 'distance_accuracy_value', 'NONE');
#219 = DIRECTION ( 'NONE',  ( -1.000000000000000000, 2.575831586817351440E-18, 0.000000000000000000 ) ) ;
#220 =( CONVERSION_BASED_UNIT ( 'INCH', #168 ) LENGTH_UNIT ( ) NAMED_UNIT ( #9 ) );
#221 = VECTOR ( 'NONE', #242, 39.37007874015748143 ) ;
#222 = DIRECTION ( 'NONE',  ( 2.575831586817351440E-18, 1.000000000000000000, 0.000000000000000000 ) ) ;
#223 = SURFACE_SIDE_STYLE ('',( #29 ) ) ;
#224 = MECHANICAL_DESIGN_GEOMETRIC_PRESENTATION_REPRESENTATION (  '', ( #247 ), #85 ) ;
#225 = UNCERTAINTY_MEASURE_WITH_UNIT (LENGTH_MEASURE( 1.000000000000000082E-05 ), #250, 'distance_accuracy_value', 'NONE');
#226 = PRESENTATION_LAYER_ASSIGNMENT (  '', '', ( #51 ) ) ;
#227 =( NAMED_UNIT ( * ) PLANE_ANGLE_UNIT ( ) SI_UNIT ( $, .RADIAN. ) );
#228 = SURFACE_SIDE_STYLE ('',( #131 ) ) ;
#229 = ORIENTED_EDGE ( 'NONE', *, *, #95, .F. ) ;
#230 = STYLED_ITEM ( 'NONE', ( #98 ), #91 ) ;
#231 =( NAMED_UNIT ( * ) PLANE_ANGLE_UNIT ( ) SI_UNIT ( $, .RADIAN. ) );
#232 =( LENGTH_UNIT ( ) NAMED_UNIT ( * ) SI_UNIT ( $, .METRE. ) );
#233 = DIRECTION ( 'NONE',  ( -1.477291262712517609E-16, 1.000000000000000000, -0.000000000000000000 ) ) ;
#234 = ORIENTED_EDGE ( 'NONE', *, *, #95, .T. ) ;
#235 = AXIS2_PLACEMENT_3D ( 'NONE', #160, #285, #219 ) ;
#236 = CARTESIAN_POINT ( 'NONE',  ( 0.3749999999999999445, 3.000000000000000444, 4.592425496802574219E-17 ) ) ;
#237 = EDGE_LOOP ( 'NONE', ( #164, #234, #74, #257 ) ) ;
#238 = SURFACE_SIDE_STYLE ('',( #139 ) ) ;
#239 = DIRECTION ( 'NONE',  ( -1.477291262712517609E-16, 1.000000000000000000, -0.000000000000000000 ) ) ;
#240 = ORIENTED_EDGE ( 'NONE', *, *, #146, .T. ) ;
#241 =( NAMED_UNIT ( * ) PLANE_ANGLE_UNIT ( ) SI_UNIT ( $, .RADIAN. ) );
#242 = DIRECTION ( 'NONE',  ( -1.477291262712517609E-16, 1.000000000000000000, -0.000000000000000000 ) ) ;
#243 = APPLICATION_CONTEXT ( 'automotive_design' ) ;
#244 = FILL_AREA_STYLE_COLOUR ( '', #33 ) ;
#245 = ADVANCED_FACE ( 'NONE', ( #65 ), #134, .T. ) ;
#246 = PRESENTATION_STYLE_ASSIGNMENT (( #56 ) ) ;
#247 = STYLED_ITEM ( 'NONE', ( #41 ), #308 ) ;
#248 = MECHANICAL_DESIGN_GEOMETRIC_PRESENTATION_REPRESENTATION (  '', ( #77 ), #87 ) ;
#249 = FILL_AREA_STYLE ('',( #151 ) ) ;
#250 =( CONVERSION_BASED_UNIT ( 'INCH', #298 ) LENGTH_UNIT ( ) NAMED_UNIT ( #129 ) );
#251 = FILL_AREA_STYLE ('',( #244 ) ) ;
#252 = SURFACE_STYLE_USAGE ( .BOTH. , #238 ) ;
#253 = PRESENTATION_STYLE_ASSIGNMENT (( #156 ) ) ;
#254 = EDGE_CURVE ( 'NONE', #303, #108, #4, .T. ) ;
#255 = DIRECTION ( 'NONE',  ( 1.000000000000000000, 0.000000000000000000, 0.000000000000000000 ) ) ;
#256 = DIRECTION ( 'NONE',  ( -1.000000000000000000, 0.000000000000000000, 0.000000000000000000 ) ) ;
#257 = ORIENTED_EDGE ( 'NONE', *, *, #258, .F. ) ;
#258 = EDGE_CURVE ( 'NONE', #142, #111, #213, .T. ) ;
#259 = CARTESIAN_POINT ( 'NONE',  ( -6.123233995736772199E-17, 3.000000000000000444, 0.000000000000000000 ) ) ;
#260 = ORIENTED_EDGE ( 'NONE', *, *, #133, .T. ) ;
#261 = EDGE_LOOP ( 'NONE', ( #96, #208 ) ) ;
#262 = COLOUR_RGB ( '',1.000000000000000000, 0.000000000000000000, 0.000000000000000000 ) ;
#263 =( GEOMETRIC_REPRESENTATION_CONTEXT ( 3 ) GLOBAL_UNCERTAINTY_ASSIGNED_CONTEXT ( ( #6 ) ) GLOBAL_UNIT_ASSIGNED_CONTEXT ( ( #220, #78, #7 ) ) REPRESENTATION_CONTEXT ( 'NONE', 'WORKASPACE' ) );
#264 = CARTESIAN_POINT ( 'NONE',  ( 1.449978133535231054E-18, 0.5629165124598836112, 0.000000000000000000 ) ) ;
#265 =( CONVERSION_BASED_UNIT ( 'INCH', #288 ) LENGTH_UNIT ( ) NAMED_UNIT ( #2 ) );
#266 = STYLED_ITEM ( 'NONE', ( #253 ), #73 ) ;
#267 = CARTESIAN_POINT ( 'NONE',  ( -6.123233995736770966E-17, 3.000000000000000444, 0.000000000000000000 ) ) ;
#268 = APPLICATION_PROTOCOL_DEFINITION ( 'draft international standard', 'automotive_design', 1998, #207 ) ;
#269 = DIRECTION ( 'NONE',  ( -1.000000000000000000, 2.575831586817351440E-18, 0.000000000000000000 ) ) ;
#270 = VERTEX_POINT ( 'NONE', #236 ) ;
#271 = APPLICATION_PROTOCOL_DEFINITION ( 'draft international standard', 'automotive_design', 1998, #243 ) ;
#272 = FACE_OUTER_BOUND ( 'NONE', #261, .T. ) ;
#273 = AXIS2_PLACEMENT_3D ( 'NONE', #299, #46, #67 ) ;
#274 = CARTESIAN_POINT ( 'NONE',  ( 0.3749999999999999445, 3.000000000000000444, 0.000000000000000000 ) ) ;
#275 = AXIS2_PLACEMENT_3D ( 'NONE', #181, #239, #256 ) ;
#276 = COLOUR_RGB ( '',1.000000000000000000, 0.000000000000000000, 0.000000000000000000 ) ;
#277 = DIRECTION ( 'NONE',  ( -1.000000000000000000, 0.000000000000000000, 0.000000000000000000 ) ) ;
#278 = SURFACE_STYLE_FILL_AREA ( #116 ) ;
#279 = DIRECTION ( 'NONE',  ( -2.575831586817351440E-18, -1.000000000000000000, -0.000000000000000000 ) ) ;
#280 = ORIENTED_EDGE ( 'NONE', *, *, #258, .T. ) ;
#281 = ORIENTED_EDGE ( 'NONE', *, *, #254, .F. ) ;
#282 = FILL_AREA_STYLE_COLOUR ( '', #136 ) ;
#283 = DIRECTION ( 'NONE',  ( -1.000000000000000000, -1.477291262712517609E-16, 0.000000000000000000 ) ) ;
#284 = ORIENTED_EDGE ( 'NONE', *, *, #133, .F. ) ;
#285 = DIRECTION ( 'NONE',  ( 2.575831586817351440E-18, 1.000000000000000000, 0.000000000000000000 ) ) ;
#286 = CIRCLE ( 'NONE', #159, 0.3750000000000000555 ) ;
#287 =( NAMED_UNIT ( * ) SI_UNIT ( $, .STERADIAN. ) SOLID_ANGLE_UNIT ( ) );
#288 = LENGTH_MEASURE_WITH_UNIT ( LENGTH_MEASURE( 0.02539999999999999897 ), #103 );
#289 = CARTESIAN_POINT ( 'NONE',  ( -0.3749999999999993894, 0.5629165124598835002, 0.000000000000000000 ) ) ;
#290 = SURFACE_SIDE_STYLE ('',( #75 ) ) ;
#291 = EDGE_CURVE ( 'NONE', #183, #48, #165, .T. ) ;
#292 = EDGE_CURVE ( 'NONE', #90, #142, #175, .T. ) ;
#293 = LINE ( 'NONE', #26, #221 ) ;
#294 = DIRECTION ( 'NONE',  ( 1.000000000000000000, 1.477291262712517609E-16, 0.000000000000000000 ) ) ;
#295 = UNCERTAINTY_MEASURE_WITH_UNIT (LENGTH_MEASURE( 1.000000000000000082E-05 ), #141, 'distance_accuracy_value', 'NONE');
#296 = PLANE ( 'NONE',  #193 ) ;
#297 = AXIS2_PLACEMENT_3D ( 'NONE', #186, #47, #283 ) ;
#298 = LENGTH_MEASURE_WITH_UNIT ( LENGTH_MEASURE( 0.02539999999999999897 ), #32 );
#299 = CARTESIAN_POINT ( 'NONE',  ( 2.987958743070287834E-16, 0.5629165124598836112, 0.000000000000000000 ) ) ;
#300 = FACE_OUTER_BOUND ( 'NONE', #237, .T. ) ;
#301 = MECHANICAL_DESIGN_GEOMETRIC_PRESENTATION_REPRESENTATION (  '', ( #150 ), #179 ) ;
#302 = MECHANICAL_DESIGN_GEOMETRIC_PRESENTATION_REPRESENTATION (  '', ( #230 ), #144 ) ;
#303 = VERTEX_POINT ( 'NONE', #155 ) ;
#304 = ORIENTED_EDGE ( 'NONE', *, *, #292, .T. ) ;
#305 =( NAMED_UNIT ( * ) SI_UNIT ( $, .STERADIAN. ) SOLID_ANGLE_UNIT ( ) );
#306 = ORIENTED_EDGE ( 'NONE', *, *, #153, .F. ) ;
#307 = AXIS2_PLACEMENT_3D ( 'NONE', #190, #25, #195 ) ;
#308 = MANIFOLD_SOLID_BREP ( 'Revolve - Cutting Edge', #53 ) ;
#309 = UNCERTAINTY_MEASURE_WITH_UNIT (LENGTH_MEASURE( 1.000000000000000082E-05 ), #35, 'distance_accuracy_value', 'NONE');
ENDSEC;
END-ISO-10303-21;
