ISO-10303-21;
HEADER;
FILE_DESCRIPTION (( 'STEP AP214' ),
    '1' );
FILE_NAME ('Micro_EMS-093-3.STEP',
    '2021-09-01T17:37:41',
    ( '' ),
    ( '' ),
    'SwSTEP 2.0',
    'SolidWorks 2020',
    '' );
FILE_SCHEMA (( 'AUTOMOTIVE_DESIGN' ));
ENDSEC;

DATA;
#1 = ORIENTED_EDGE ( 'NONE', *, *, #57, .T. ) ;
#2 = CARTESIAN_POINT ( 'NONE',  ( 5.679152322418704750E-17, 0.0000000000000000000, 0.4637379795033760299 ) ) ;
#3 = ORIENTED_EDGE ( 'NONE', *, *, #63, .F. ) ;
#4 = ORIENTED_EDGE ( 'NONE', *, *, #243, .T. ) ;
#5 = EDGE_CURVE ( 'NONE', #72, #116, #131, .T. ) ;
#6 = CARTESIAN_POINT ( 'NONE',  ( -0.04685309999999996700, 5.737849894513086668E-18, 0.3750000000000000555 ) ) ;
#7 = VECTOR ( 'NONE', #208, 39.37007874015747433 ) ;
#8 = AXIS2_PLACEMENT_3D ( 'NONE', #185, #234, #164 ) ;
#9 = DIRECTION ( 'NONE',  ( -1.000000000000000000, 0.0000000000000000000, 0.0000000000000000000 ) ) ;
#10 = DIRECTION ( 'NONE',  ( 1.224646799147353700E-16, 0.0000000000000000000, 1.000000000000000000 ) ) ;
#11 = FACE_OUTER_BOUND ( 'NONE', #267, .T. ) ;
#12 = EDGE_CURVE ( 'NONE', #219, #204, #121, .T. ) ;
#13 = CARTESIAN_POINT ( 'NONE',  ( 4.592425496802576684E-17, 0.0000000000000000000, 0.3750000000000000555 ) ) ;
#14 = SURFACE_STYLE_USAGE ( .BOTH. , #60 ) ;
#15 = SURFACE_STYLE_FILL_AREA ( #192 ) ;
#16 = CIRCLE ( 'NONE', #216, 0.04750000000000064587 ) ;
#17 =( NAMED_UNIT ( * ) SI_UNIT ( $, .STERADIAN. ) SOLID_ANGLE_UNIT ( ) );
#18 = CARTESIAN_POINT ( 'NONE',  ( 0.0000000000000000000, 0.0000000000000000000, 1.500000000000000222 ) ) ;
#19 = EDGE_CURVE ( 'NONE', #45, #116, #178, .T. ) ;
#20 = ORIENTED_EDGE ( 'NONE', *, *, #266, .T. ) ;
#21 = DIRECTION ( 'NONE',  ( -0.7071067811865462405, 0.0000000000000000000, -0.7071067811865486830 ) ) ;
#22 = STYLED_ITEM ( 'NONE', ( #69 ), #88 ) ;
#23 = PRODUCT_CONTEXT ( 'NONE', #227, 'mechanical' ) ;
#24 = ORIENTED_EDGE ( 'NONE', *, *, #209, .F. ) ;
#25 = ADVANCED_FACE ( 'NONE', ( #138 ), #278, .F. ) ;
#26 = EDGE_LOOP ( 'NONE', ( #177, #152 ) ) ;
#27 = DIRECTION ( 'NONE',  ( -0.0000000000000000000, -0.0000000000000000000, -1.000000000000000000 ) ) ;
#28 = AXIS2_PLACEMENT_3D ( 'NONE', #13, #10, #29 ) ;
#29 = DIRECTION ( 'NONE',  ( 1.000000000000000000, 0.0000000000000000000, 0.0000000000000000000 ) ) ;
#30 = EDGE_CURVE ( 'NONE', #45, #295, #181, .T. ) ;
#31 = CARTESIAN_POINT ( 'NONE',  ( 4.592425496802576684E-17, 0.0000000000000000000, 0.3750000000000000555 ) ) ;
#32 = DIRECTION ( 'NONE',  ( -1.000000000000000000, 0.0000000000000000000, 1.224646799147353700E-16 ) ) ;
#33 = CIRCLE ( 'NONE', #43, 0.06250000000000002776 ) ;
#34 = COLOUR_RGB ( '',0.7921568627450980005, 0.8196078431372548767, 0.9333333333333333481 ) ;
#35 = FACE_OUTER_BOUND ( 'NONE', #117, .T. ) ;
#36 = EDGE_CURVE ( 'NONE', #246, #277, #268, .T. ) ;
#37 = CARTESIAN_POINT ( 'NONE',  ( 0.04685310000000000169, 5.737849894513085128E-18, -5.737849894513087439E-18 ) ) ;
#38 = ORIENTED_EDGE ( 'NONE', *, *, #19, .F. ) ;
#39 = COLOUR_RGB ( '',0.7921568627450980005, 0.8196078431372548767, 0.9333333333333333481 ) ;
#40 =( LENGTH_UNIT ( ) NAMED_UNIT ( * ) SI_UNIT ( $, .METRE. ) );
#41 = ORIENTED_EDGE ( 'NONE', *, *, #75, .T. ) ;
#42 = SURFACE_STYLE_FILL_AREA ( #244 ) ;
#43 = AXIS2_PLACEMENT_3D ( 'NONE', #210, #261, #86 ) ;
#44 = ORIENTED_EDGE ( 'NONE', *, *, #79, .T. ) ;
#45 = VERTEX_POINT ( 'NONE', #158 ) ;
#46 = VERTEX_POINT ( 'NONE', #137 ) ;
#47 = ORIENTED_EDGE ( 'NONE', *, *, #36, .F. ) ;
#48 = CIRCLE ( 'NONE', #162, 0.04685310000000000169 ) ;
#49 = DIMENSIONAL_EXPONENTS ( 1.000000000000000000, 0.0000000000000000000, 0.0000000000000000000, 0.0000000000000000000, 0.0000000000000000000, 0.0000000000000000000, 0.0000000000000000000 ) ;
#50 = CARTESIAN_POINT ( 'NONE',  ( 0.04685310000000005026, 0.0000000000000000000, 0.3750000000000000555 ) ) ;
#51 = PRODUCT_RELATED_PRODUCT_CATEGORY ( 'part', '', ( #251 ) ) ;
#52 = DIRECTION ( 'NONE',  ( 1.000000000000000000, 0.0000000000000000000, 0.0000000000000000000 ) ) ;
#53 = CYLINDRICAL_SURFACE ( 'NONE', #166, 0.04685310000000000169 ) ;
#54 = DIRECTION ( 'NONE',  ( 0.7071067811865462405, 8.659560562354916834E-17, -0.7071067811865486830 ) ) ;
#55 = DIRECTION ( 'NONE',  ( 0.0000000000000000000, 0.0000000000000000000, -1.000000000000000000 ) ) ;
#56 = LINE ( 'NONE', #163, #102 ) ;
#57 = EDGE_CURVE ( 'NONE', #295, #45, #187, .T. ) ;
#58 =( GEOMETRIC_REPRESENTATION_CONTEXT ( 3 ) GLOBAL_UNCERTAINTY_ASSIGNED_CONTEXT ( ( #111 ) ) GLOBAL_UNIT_ASSIGNED_CONTEXT ( ( #198, #157, #17 ) ) REPRESENTATION_CONTEXT ( 'NONE', 'WORKASPACE' ) );
#59 = CARTESIAN_POINT ( 'NONE',  ( 0.0000000000000000000, 0.0000000000000000000, 1.500000000000000222 ) ) ;
#60 = SURFACE_SIDE_STYLE ('',( #15 ) ) ;
#61 = AXIS2_PLACEMENT_3D ( 'NONE', #94, #114, #118 ) ;
#62 = DIRECTION ( 'NONE',  ( 0.0000000000000000000, 0.0000000000000000000, 1.000000000000000000 ) ) ;
#63 = EDGE_CURVE ( 'NONE', #219, #46, #220, .T. ) ;
#64 =( NAMED_UNIT ( * ) SI_UNIT ( $, .STERADIAN. ) SOLID_ANGLE_UNIT ( ) );
#65 = ORIENTED_EDGE ( 'NONE', *, *, #57, .F. ) ;
#66 = LENGTH_MEASURE_WITH_UNIT ( LENGTH_MEASURE( 0.02539999999999999897 ), #254 );
#67 = ORIENTED_EDGE ( 'NONE', *, *, #186, .F. ) ;
#68 = EDGE_LOOP ( 'NONE', ( #155, #4, #203, #159 ) ) ;
#69 = PRESENTATION_STYLE_ASSIGNMENT (( #222 ) ) ;
#70 = CARTESIAN_POINT ( 'NONE',  ( 4.592425496802576684E-17, 0.0000000000000000000, 0.3750000000000000555 ) ) ;
#71 = EDGE_CURVE ( 'NONE', #204, #72, #165, .T. ) ;
#72 = VERTEX_POINT ( 'NONE', #281 ) ;
#73 = CARTESIAN_POINT ( 'NONE',  ( 0.0000000000000000000, 0.0000000000000000000, 1.485000000000000764 ) ) ;
#74 = DIRECTION ( 'NONE',  ( 1.000000000000000000, 0.0000000000000000000, 0.0000000000000000000 ) ) ;
#75 = EDGE_CURVE ( 'NONE', #295, #72, #128, .T. ) ;
#76 = DIRECTION ( 'NONE',  ( -1.000000000000000000, 0.0000000000000000000, 0.0000000000000000000 ) ) ;
#77 = CARTESIAN_POINT ( 'NONE',  ( 0.06250000000000002776, 7.654042494670959086E-18, 1.485000000000000764 ) ) ;
#78 = CYLINDRICAL_SURFACE ( 'NONE', #286, 0.06250000000000002776 ) ;
#79 = EDGE_CURVE ( 'NONE', #46, #245, #233, .T. ) ;
#80 = DIRECTION ( 'NONE',  ( 1.000000000000000000, 0.0000000000000000000, -0.0000000000000000000 ) ) ;
#81 = AXIS2_PLACEMENT_3D ( 'NONE', #206, #156, #224 ) ;
#82 = AXIS2_PLACEMENT_3D ( 'NONE', #59, #242, #133 ) ;
#83 = CARTESIAN_POINT ( 'NONE',  ( 0.0000000000000000000, 0.0000000000000000000, 1.500000000000000222 ) ) ;
#84 = ADVANCED_FACE ( 'NONE', ( #283 ), #175, .T. ) ;
#85 = ORIENTED_EDGE ( 'NONE', *, *, #12, .T. ) ;
#86 = DIRECTION ( 'NONE',  ( 1.000000000000000000, 0.0000000000000000000, 0.0000000000000000000 ) ) ;
#87 = CARTESIAN_POINT ( 'NONE',  ( 0.04685310000000000169, 5.737849894513085128E-18, 0.0000000000000000000 ) ) ;
#88 = ADVANCED_BREP_SHAPE_REPRESENTATION ( 'Micro_EMS-093-3', ( #297, #61 ), #182 ) ;
#89 = CARTESIAN_POINT ( 'NONE',  ( 7.026839507303433011E-34, 0.0000000000000000000, 5.737849894513087439E-18 ) ) ;
#90 = DIRECTION ( 'NONE',  ( 1.000000000000000000, 0.0000000000000000000, 0.0000000000000000000 ) ) ;
#91 = DIRECTION ( 'NONE',  ( 0.1736481776669313581, 0.0000000000000000000, 0.9848077530122077983 ) ) ;
#92 = ORIENTED_EDGE ( 'NONE', *, *, #294, .F. ) ;
#93 = ADVANCED_FACE ( 'NONE', ( #145 ), #78, .T. ) ;
#94 = CARTESIAN_POINT ( 'NONE',  ( 0.0000000000000000000, 0.0000000000000000000, 0.0000000000000000000 ) ) ;
#95 = DIRECTION ( 'NONE',  ( -1.224646799147353700E-16, -0.0000000000000000000, -1.000000000000000000 ) ) ;
#96 = DIMENSIONAL_EXPONENTS ( 1.000000000000000000, 0.0000000000000000000, 0.0000000000000000000, 0.0000000000000000000, 0.0000000000000000000, 0.0000000000000000000, 0.0000000000000000000 ) ;
#97 = AXIS2_PLACEMENT_3D ( 'NONE', #18, #200, #90 ) ;
#98 = CYLINDRICAL_SURFACE ( 'NONE', #237, 0.06250000000000002776 ) ;
#99 = CARTESIAN_POINT ( 'NONE',  ( 0.0000000000000000000, 0.0000000000000000000, 1.500000000000000222 ) ) ;
#100 = DIRECTION ( 'NONE',  ( 0.0000000000000000000, 0.0000000000000000000, -1.000000000000000000 ) ) ;
#101 = DIRECTION ( 'NONE',  ( -0.0000000000000000000, -0.0000000000000000000, -1.000000000000000000 ) ) ;
#102 = VECTOR ( 'NONE', #101, 39.37007874015748143 ) ;
#103 = CARTESIAN_POINT ( 'NONE',  ( 0.0000000000000000000, 0.0000000000000000000, 1.500000000000000222 ) ) ;
#104 = PRODUCT_DEFINITION_SHAPE ( 'NONE', 'NONE',  #232 ) ;
#105 =( CONVERSION_BASED_UNIT ( 'INCH', #240 ) LENGTH_UNIT ( ) NAMED_UNIT ( #49 ) );
#106 = PRODUCT_DEFINITION_CONTEXT ( 'detailed design', #191, 'design' ) ;
#107 = DIRECTION ( 'NONE',  ( -1.224646799147353700E-16, -0.0000000000000000000, -1.000000000000000000 ) ) ;
#108 = AXIS2_PLACEMENT_3D ( 'NONE', #73, #211, #74 ) ;
#109 = FILL_AREA_STYLE_COLOUR ( '', #34 ) ;
#110 = EDGE_LOOP ( 'NONE', ( #250, #113, #171, #24 ) ) ;
#111 = UNCERTAINTY_MEASURE_WITH_UNIT (LENGTH_MEASURE( 1.000000000000000082E-05 ), #198, 'distance_accuracy_value', 'NONE');
#112 = FACE_OUTER_BOUND ( 'NONE', #135, .T. ) ;
#113 = ORIENTED_EDGE ( 'NONE', *, *, #30, .T. ) ;
#114 = DIRECTION ( 'NONE',  ( 0.0000000000000000000, 0.0000000000000000000, 1.000000000000000000 ) ) ;
#115 = EDGE_CURVE ( 'NONE', #245, #204, #207, .T. ) ;
#116 = VERTEX_POINT ( 'NONE', #287 ) ;
#117 = EDGE_LOOP ( 'NONE', ( #279, #196, #241, #20 ) ) ;
#118 = DIRECTION ( 'NONE',  ( 1.000000000000000000, 0.0000000000000000000, 0.0000000000000000000 ) ) ;
#119 = DIRECTION ( 'NONE',  ( -1.000000000000000000, 0.0000000000000000000, 1.224646799147353700E-16 ) ) ;
#120 = ORIENTED_EDGE ( 'NONE', *, *, #115, .T. ) ;
#121 = LINE ( 'NONE', #180, #285 ) ;
#122 = DIRECTION ( 'NONE',  ( -1.224646799147353700E-16, -0.0000000000000000000, -1.000000000000000000 ) ) ;
#123 = DIRECTION ( 'NONE',  ( -1.000000000000000000, 0.0000000000000000000, 1.224646799147353700E-16 ) ) ;
#124 = CARTESIAN_POINT ( 'NONE',  ( -0.06250000000000002776, 0.0000000000000000000, 1.500000000000000222 ) ) ;
#125 = CARTESIAN_POINT ( 'NONE',  ( -0.04750000000000064587, 0.0000000000000000000, 1.500000000000000222 ) ) ;
#126 = AXIS2_PLACEMENT_3D ( 'NONE', #89, #248, #119 ) ;
#127 = AXIS2_PLACEMENT_3D ( 'NONE', #212, #55, #160 ) ;
#128 = LINE ( 'NONE', #6, #7 ) ;
#129 =( CONVERSION_BASED_UNIT ( 'INCH', #150 ) LENGTH_UNIT ( ) NAMED_UNIT ( #256 ) );
#130 =( NAMED_UNIT ( * ) PLANE_ANGLE_UNIT ( ) SI_UNIT ( $, .RADIAN. ) );
#131 = CIRCLE ( 'NONE', #174, 0.06250000000000002776 ) ;
#132 = CIRCLE ( 'NONE', #108, 0.06250000000000002776 ) ;
#133 = DIRECTION ( 'NONE',  ( -1.000000000000000000, 0.0000000000000000000, 0.0000000000000000000 ) ) ;
#134 = SHAPE_DEFINITION_REPRESENTATION ( #104, #88 ) ;
#135 = EDGE_LOOP ( 'NONE', ( #140, #3, #85, #225 ) ) ;
#136 = CONICAL_SURFACE ( 'NONE', #82, 0.04750000000000064587, 0.7853981633974466137 ) ;
#137 = CARTESIAN_POINT ( 'NONE',  ( 0.04750000000000064587, 6.735557395310483192E-18, 1.500000000000000222 ) ) ;
#138 = FACE_OUTER_BOUND ( 'NONE', #274, .T. ) ;
#139 = ORIENTED_EDGE ( 'NONE', *, *, #271, .T. ) ;
#140 = ORIENTED_EDGE ( 'NONE', *, *, #79, .F. ) ;
#141 = DIRECTION ( 'NONE',  ( -1.000000000000000000, 0.0000000000000000000, 0.0000000000000000000 ) ) ;
#142 = FACE_OUTER_BOUND ( 'NONE', #255, .T. ) ;
#143 = AXIS2_PLACEMENT_3D ( 'NONE', #172, #272, #223 ) ;
#144 = CARTESIAN_POINT ( 'NONE',  ( 0.0000000000000000000, 0.0000000000000000000, 0.0000000000000000000 ) ) ;
#145 = FACE_OUTER_BOUND ( 'NONE', #217, .T. ) ;
#146 = CYLINDRICAL_SURFACE ( 'NONE', #8, 0.04685310000000000169 ) ;
#147 = ADVANCED_FACE ( 'NONE', ( #11 ), #146, .T. ) ;
#148 = CARTESIAN_POINT ( 'NONE',  ( 0.0000000000000000000, 0.0000000000000000000, 1.500000000000000222 ) ) ;
#149 = PRESENTATION_STYLE_ASSIGNMENT (( #14 ) ) ;
#150 = LENGTH_MEASURE_WITH_UNIT ( LENGTH_MEASURE( 0.02539999999999999897 ), #40 );
#151 = LINE ( 'NONE', #290, #193 ) ;
#152 = ORIENTED_EDGE ( 'NONE', *, *, #186, .T. ) ;
#153 =( GEOMETRIC_REPRESENTATION_CONTEXT ( 3 ) GLOBAL_UNCERTAINTY_ASSIGNED_CONTEXT ( ( #288 ) ) GLOBAL_UNIT_ASSIGNED_CONTEXT ( ( #105, #270, #64 ) ) REPRESENTATION_CONTEXT ( 'NONE', 'WORKASPACE' ) );
#154 = EDGE_CURVE ( 'NONE', #204, #245, #132, .T. ) ;
#155 = ORIENTED_EDGE ( 'NONE', *, *, #154, .T. ) ;
#156 = DIRECTION ( 'NONE',  ( 0.0000000000000000000, 0.0000000000000000000, 1.000000000000000000 ) ) ;
#157 =( NAMED_UNIT ( * ) PLANE_ANGLE_UNIT ( ) SI_UNIT ( $, .RADIAN. ) );
#158 = CARTESIAN_POINT ( 'NONE',  ( 0.04685310000000005026, 0.0000000000000000000, 0.3750000000000000555 ) ) ;
#159 = ORIENTED_EDGE ( 'NONE', *, *, #71, .F. ) ;
#160 = DIRECTION ( 'NONE',  ( 1.000000000000000000, 0.0000000000000000000, 0.0000000000000000000 ) ) ;
#161 = DIRECTION ( 'NONE',  ( 0.0000000000000000000, 0.0000000000000000000, 1.000000000000000000 ) ) ;
#162 = AXIS2_PLACEMENT_3D ( 'NONE', #190, #263, #32 ) ;
#163 = CARTESIAN_POINT ( 'NONE',  ( 0.06250000000000002776, 7.654042494670959086E-18, 1.500000000000000222 ) ) ;
#164 = DIRECTION ( 'NONE',  ( -1.000000000000000000, 0.0000000000000000000, 1.224646799147353700E-16 ) ) ;
#165 = LINE ( 'NONE', #124, #264 ) ;
#166 = AXIS2_PLACEMENT_3D ( 'NONE', #144, #122, #123 ) ;
#167 =( NAMED_UNIT ( * ) SI_UNIT ( $, .STERADIAN. ) SOLID_ANGLE_UNIT ( ) );
#168 = ORIENTED_EDGE ( 'NONE', *, *, #5, .T. ) ;
#169 = FILL_AREA_STYLE_COLOUR ( '', #39 ) ;
#170 = AXIS2_PLACEMENT_3D ( 'NONE', #31, #235, #183 ) ;
#171 = ORIENTED_EDGE ( 'NONE', *, *, #294, .T. ) ;
#172 = CARTESIAN_POINT ( 'NONE',  ( 4.592425496802576684E-17, 0.0000000000000000000, 0.3750000000000000555 ) ) ;
#173 = ORIENTED_EDGE ( 'NONE', *, *, #266, .F. ) ;
#174 = AXIS2_PLACEMENT_3D ( 'NONE', #2, #95, #201 ) ;
#175 = CONICAL_SURFACE ( 'NONE', #269, 0.04750000000000064587, 0.7853981633974466137 ) ;
#176 = APPLICATION_PROTOCOL_DEFINITION ( 'draft international standard', 'automotive_design', 1998, #191 ) ;
#177 = ORIENTED_EDGE ( 'NONE', *, *, #63, .T. ) ;
#178 = LINE ( 'NONE', #50, #259 ) ;
#179 = ADVANCED_FACE ( 'NONE', ( #142 ), #296, .T. ) ;
#180 = CARTESIAN_POINT ( 'NONE',  ( -0.04750000000000064587, 0.0000000000000000000, 1.500000000000000222 ) ) ;
#181 = CIRCLE ( 'NONE', #273, 0.04685310000000000863 ) ;
#182 =( GEOMETRIC_REPRESENTATION_CONTEXT ( 3 ) GLOBAL_UNCERTAINTY_ASSIGNED_CONTEXT ( ( #194 ) ) GLOBAL_UNIT_ASSIGNED_CONTEXT ( ( #129, #130, #167 ) ) REPRESENTATION_CONTEXT ( 'NONE', 'WORKASPACE' ) );
#183 = DIRECTION ( 'NONE',  ( 1.000000000000000000, 0.0000000000000000000, 0.0000000000000000000 ) ) ;
#184 = FACE_OUTER_BOUND ( 'NONE', #68, .T. ) ;
#185 = CARTESIAN_POINT ( 'NONE',  ( 0.0000000000000000000, 0.0000000000000000000, 0.0000000000000000000 ) ) ;
#186 = EDGE_CURVE ( 'NONE', #46, #219, #16, .T. ) ;
#187 = CIRCLE ( 'NONE', #143, 0.04685310000000000863 ) ;
#188 = PRODUCT_DEFINITION_FORMATION_WITH_SPECIFIED_SOURCE ( 'ANY', '', #251, .NOT_KNOWN. ) ;
#189 = DIRECTION ( 'NONE',  ( -0.0000000000000000000, -0.0000000000000000000, -1.000000000000000000 ) ) ;
#190 = CARTESIAN_POINT ( 'NONE',  ( 7.026839507303433011E-34, 0.0000000000000000000, 5.737849894513087439E-18 ) ) ;
#191 = APPLICATION_CONTEXT ( 'automotive_design' ) ;
#192 = FILL_AREA_STYLE ('',( #109 ) ) ;
#193 = VECTOR ( 'NONE', #218, 39.37007874015748143 ) ;
#194 = UNCERTAINTY_MEASURE_WITH_UNIT (LENGTH_MEASURE( 1.000000000000000082E-05 ), #129, 'distance_accuracy_value', 'NONE');
#195 = LINE ( 'NONE', #37, #265 ) ;
#196 = ORIENTED_EDGE ( 'NONE', *, *, #30, .F. ) ;
#197 = PRESENTATION_LAYER_ASSIGNMENT (  '', '', ( #22 ) ) ;
#198 =( CONVERSION_BASED_UNIT ( 'INCH', #66 ) LENGTH_UNIT ( ) NAMED_UNIT ( #96 ) );
#199 = ORIENTED_EDGE ( 'NONE', *, *, #209, .T. ) ;
#200 = DIRECTION ( 'NONE',  ( 0.0000000000000000000, 0.0000000000000000000, 1.000000000000000000 ) ) ;
#201 = DIRECTION ( 'NONE',  ( 1.000000000000000000, 0.0000000000000000000, 0.0000000000000000000 ) ) ;
#202 = VECTOR ( 'NONE', #54, 39.37007874015748854 ) ;
#203 = ORIENTED_EDGE ( 'NONE', *, *, #5, .F. ) ;
#204 = VERTEX_POINT ( 'NONE', #262 ) ;
#205 = ADVANCED_FACE ( 'NONE', ( #35 ), #260, .T. ) ;
#206 = CARTESIAN_POINT ( 'NONE',  ( 0.0000000000000000000, 0.0000000000000000000, 0.0000000000000000000 ) ) ;
#207 = CIRCLE ( 'NONE', #127, 0.06250000000000002776 ) ;
#208 = DIRECTION ( 'NONE',  ( -0.1736481776669311639, 2.126576849575783008E-17, 0.9848077530122080203 ) ) ;
#209 = EDGE_CURVE ( 'NONE', #277, #246, #48, .T. ) ;
#210 = CARTESIAN_POINT ( 'NONE',  ( 5.679152322418704750E-17, 0.0000000000000000000, 0.4637379795033760299 ) ) ;
#211 = DIRECTION ( 'NONE',  ( 0.0000000000000000000, 0.0000000000000000000, -1.000000000000000000 ) ) ;
#212 = CARTESIAN_POINT ( 'NONE',  ( 0.0000000000000000000, 0.0000000000000000000, 1.485000000000000764 ) ) ;
#213 = CARTESIAN_POINT ( 'NONE',  ( -0.04685309999999996700, 6.695946194592023262E-18, 0.3750000000000000555 ) ) ;
#214 =( LENGTH_UNIT ( ) NAMED_UNIT ( * ) SI_UNIT ( $, .METRE. ) );
#215 = APPLICATION_PROTOCOL_DEFINITION ( 'draft international standard', 'automotive_design', 1998, #227 ) ;
#216 = AXIS2_PLACEMENT_3D ( 'NONE', #103, #161, #52 ) ;
#217 = EDGE_LOOP ( 'NONE', ( #253, #120, #221, #173 ) ) ;
#218 = DIRECTION ( 'NONE',  ( -1.224646799147353700E-16, -0.0000000000000000000, -1.000000000000000000 ) ) ;
#219 = VERTEX_POINT ( 'NONE', #125 ) ;
#220 = CIRCLE ( 'NONE', #97, 0.04750000000000064587 ) ;
#221 = ORIENTED_EDGE ( 'NONE', *, *, #71, .T. ) ;
#222 = SURFACE_STYLE_USAGE ( .BOTH. , #276 ) ;
#223 = DIRECTION ( 'NONE',  ( -1.000000000000000000, 0.0000000000000000000, 0.0000000000000000000 ) ) ;
#224 = DIRECTION ( 'NONE',  ( 1.000000000000000000, 0.0000000000000000000, -0.0000000000000000000 ) ) ;
#225 = ORIENTED_EDGE ( 'NONE', *, *, #115, .F. ) ;
#226 = CLOSED_SHELL ( 'NONE', ( #147, #179, #84, #236, #93, #299, #282, #205, #247, #25 ) ) ;
#227 = APPLICATION_CONTEXT ( 'automotive_design' ) ;
#228 = EDGE_LOOP ( 'NONE', ( #67, #44, #229, #293 ) ) ;
#229 = ORIENTED_EDGE ( 'NONE', *, *, #154, .F. ) ;
#230 = CARTESIAN_POINT ( 'NONE',  ( -0.04685310000000000169, 0.0000000000000000000, 1.147569978902617488E-17 ) ) ;
#231 = AXIS2_PLACEMENT_3D ( 'NONE', #83, #62, #80 ) ;
#232 = PRODUCT_DEFINITION ( 'UNKNOWN', '', #188, #106 ) ;
#233 = LINE ( 'NONE', #238, #202 ) ;
#234 = DIRECTION ( 'NONE',  ( -1.224646799147353700E-16, -0.0000000000000000000, -1.000000000000000000 ) ) ;
#235 = DIRECTION ( 'NONE',  ( 1.224646799147353700E-16, 0.0000000000000000000, 1.000000000000000000 ) ) ;
#236 = ADVANCED_FACE ( 'NONE', ( #184 ), #98, .T. ) ;
#237 = AXIS2_PLACEMENT_3D ( 'NONE', #148, #289, #76 ) ;
#238 = CARTESIAN_POINT ( 'NONE',  ( 0.04750000000000064587, 5.817072295950006528E-18, 1.500000000000000222 ) ) ;
#239 = PLANE ( 'NONE',  #231 ) ;
#240 = LENGTH_MEASURE_WITH_UNIT ( LENGTH_MEASURE( 0.02539999999999999897 ), #214 );
#241 = ORIENTED_EDGE ( 'NONE', *, *, #19, .T. ) ;
#242 = DIRECTION ( 'NONE',  ( 0.0000000000000000000, 0.0000000000000000000, -1.000000000000000000 ) ) ;
#243 = EDGE_CURVE ( 'NONE', #245, #116, #56, .T. ) ;
#244 = FILL_AREA_STYLE ('',( #169 ) ) ;
#245 = VERTEX_POINT ( 'NONE', #77 ) ;
#246 = VERTEX_POINT ( 'NONE', #230 ) ;
#247 = ADVANCED_FACE ( 'NONE', ( #258 ), #53, .T. ) ;
#248 = DIRECTION ( 'NONE',  ( -1.224646799147353700E-16, -0.0000000000000000000, -1.000000000000000000 ) ) ;
#249 = PRESENTATION_LAYER_ASSIGNMENT (  '', '', ( #291 ) ) ;
#250 = ORIENTED_EDGE ( 'NONE', *, *, #271, .F. ) ;
#251 = PRODUCT ( 'Micro_EMS-093-3', 'Micro_EMS-093-3', '', ( #23 ) ) ;
#252 = DIRECTION ( 'NONE',  ( -1.224646799147353700E-16, -0.0000000000000000000, -1.000000000000000000 ) ) ;
#253 = ORIENTED_EDGE ( 'NONE', *, *, #243, .F. ) ;
#254 =( LENGTH_UNIT ( ) NAMED_UNIT ( * ) SI_UNIT ( $, .METRE. ) );
#255 = EDGE_LOOP ( 'NONE', ( #65, #41, #168, #38 ) ) ;
#256 = DIMENSIONAL_EXPONENTS ( 1.000000000000000000, 0.0000000000000000000, 0.0000000000000000000, 0.0000000000000000000, 0.0000000000000000000, 0.0000000000000000000, 0.0000000000000000000 ) ;
#257 = CARTESIAN_POINT ( 'NONE',  ( 0.0000000000000000000, 0.0000000000000000000, 1.500000000000000222 ) ) ;
#258 = FACE_OUTER_BOUND ( 'NONE', #110, .T. ) ;
#259 = VECTOR ( 'NONE', #91, 39.37007874015748143 ) ;
#260 = CONICAL_SURFACE ( 'NONE', #170, 0.04685310000000000863, 0.1745329251994338637 ) ;
#261 = DIRECTION ( 'NONE',  ( -1.224646799147353700E-16, -0.0000000000000000000, -1.000000000000000000 ) ) ;
#262 = CARTESIAN_POINT ( 'NONE',  ( -0.06250000000000002776, 0.0000000000000000000, 1.485000000000000764 ) ) ;
#263 = DIRECTION ( 'NONE',  ( -1.224646799147353700E-16, -0.0000000000000000000, -1.000000000000000000 ) ) ;
#264 = VECTOR ( 'NONE', #189, 39.37007874015748143 ) ;
#265 = VECTOR ( 'NONE', #107, 39.37007874015748143 ) ;
#266 = EDGE_CURVE ( 'NONE', #116, #72, #33, .T. ) ;
#267 = EDGE_LOOP ( 'NONE', ( #1, #139, #47, #92 ) ) ;
#268 = CIRCLE ( 'NONE', #126, 0.04685310000000000169 ) ;
#269 = AXIS2_PLACEMENT_3D ( 'NONE', #257, #100, #9 ) ;
#270 =( NAMED_UNIT ( * ) PLANE_ANGLE_UNIT ( ) SI_UNIT ( $, .RADIAN. ) );
#271 = EDGE_CURVE ( 'NONE', #45, #277, #195, .T. ) ;
#272 = DIRECTION ( 'NONE',  ( -1.224646799147353700E-16, -0.0000000000000000000, -1.000000000000000000 ) ) ;
#273 = AXIS2_PLACEMENT_3D ( 'NONE', #70, #252, #141 ) ;
#274 = EDGE_LOOP ( 'NONE', ( #298, #199 ) ) ;
#275 = MECHANICAL_DESIGN_GEOMETRIC_PRESENTATION_REPRESENTATION (  '', ( #22 ), #58 ) ;
#276 = SURFACE_SIDE_STYLE ('',( #42 ) ) ;
#277 = VERTEX_POINT ( 'NONE', #87 ) ;
#278 = PLANE ( 'NONE',  #81 ) ;
#279 = ORIENTED_EDGE ( 'NONE', *, *, #75, .F. ) ;
#280 = MECHANICAL_DESIGN_GEOMETRIC_PRESENTATION_REPRESENTATION (  '', ( #291 ), #153 ) ;
#281 = CARTESIAN_POINT ( 'NONE',  ( -0.06249999999999996531, 0.0000000000000000000, 0.4637379795033760299 ) ) ;
#282 = ADVANCED_FACE ( 'NONE', ( #112 ), #136, .T. ) ;
#283 = FACE_OUTER_BOUND ( 'NONE', #228, .T. ) ;
#284 = DIRECTION ( 'NONE',  ( -1.000000000000000000, 0.0000000000000000000, 0.0000000000000000000 ) ) ;
#285 = VECTOR ( 'NONE', #21, 39.37007874015748854 ) ;
#286 = AXIS2_PLACEMENT_3D ( 'NONE', #99, #27, #284 ) ;
#287 = CARTESIAN_POINT ( 'NONE',  ( 0.06250000000000008327, 7.654042494670966789E-18, 0.4637379795033760299 ) ) ;
#288 = UNCERTAINTY_MEASURE_WITH_UNIT (LENGTH_MEASURE( 1.000000000000000082E-05 ), #105, 'distance_accuracy_value', 'NONE');
#289 = DIRECTION ( 'NONE',  ( -0.0000000000000000000, -0.0000000000000000000, -1.000000000000000000 ) ) ;
#290 = CARTESIAN_POINT ( 'NONE',  ( -0.04685310000000000169, 0.0000000000000000000, 5.737849894513087439E-18 ) ) ;
#291 = STYLED_ITEM ( 'NONE', ( #149 ), #297 ) ;
#292 = FACE_OUTER_BOUND ( 'NONE', #26, .T. ) ;
#293 = ORIENTED_EDGE ( 'NONE', *, *, #12, .F. ) ;
#294 = EDGE_CURVE ( 'NONE', #295, #246, #151, .T. ) ;
#295 = VERTEX_POINT ( 'NONE', #213 ) ;
#296 = CONICAL_SURFACE ( 'NONE', #28, 0.04685310000000000863, 0.1745329251994338637 ) ;
#297 = MANIFOLD_SOLID_BREP ( 'Cut-Revolve1', #226 ) ;
#298 = ORIENTED_EDGE ( 'NONE', *, *, #36, .T. ) ;
#299 = ADVANCED_FACE ( 'NONE', ( #292 ), #239, .T. ) ;
ENDSEC;
END-ISO-10303-21;
