ISO-10303-21;
HEADER;
FILE_DESCRIPTION (( 'STEP AP214' ),
    '1' );
FILE_NAME ('59709.STEP',
    '2023-07-24T15:54:09',
    ( '' ),
    ( '' ),
    'SwSTEP 2.0',
    'SolidWorks 2023',
    '' );
FILE_SCHEMA (( 'AUTOMOTIVE_DESIGN' ));
ENDSEC;

DATA;
#1 = CARTESIAN_POINT ( 'NONE',  ( 1.994140431240143121E-33, 18.00000000000000000, 0.000000000000000000 ) ) ;
#2 = DIRECTION ( 'NONE',  ( -0.000000000000000000, -1.000000000000000000, -0.000000000000000000 ) ) ;
#3 = DIRECTION ( 'NONE',  ( -2.578203787678638266E-17, 1.000000000000000000, -0.000000000000000000 ) ) ;
#4 =( LENGTH_UNIT ( ) NAMED_UNIT ( * ) SI_UNIT ( .MILLI., .METRE. ) );
#5 = MECHANICAL_DESIGN_GEOMETRIC_PRESENTATION_REPRESENTATION (  '', ( #221 ), #215 ) ;
#6 = AXIS2_PLACEMENT_3D ( 'NONE', #191, #42, #265 ) ;
#7 =( NAMED_UNIT ( * ) PLANE_ANGLE_UNIT ( ) SI_UNIT ( $, .RADIAN. ) );
#8 = UNCERTAINTY_MEASURE_WITH_UNIT (LENGTH_MEASURE( 1.000000000000000082E-05 ), #285, 'distance_accuracy_value', 'NONE');
#9 = DIRECTION ( 'NONE',  ( -2.578203787678638266E-17, 1.000000000000000000, -0.000000000000000000 ) ) ;
#10 = AXIS2_PLACEMENT_3D ( 'NONE', #205, #120, #166 ) ;
#11 = FILL_AREA_STYLE_COLOUR ( '', #227 ) ;
#12 = EDGE_LOOP ( 'NONE', ( #232, #187, #39, #267 ) ) ;
#13 = FILL_AREA_STYLE ('',( #233 ) ) ;
#14 = SURFACE_STYLE_USAGE ( .BOTH. , #254 ) ;
#15 = VECTOR ( 'NONE', #65, 1000.000000000000000 ) ;
#16 = FACE_OUTER_BOUND ( 'NONE', #12, .T. ) ;
#17 = UNCERTAINTY_MEASURE_WITH_UNIT (LENGTH_MEASURE( 1.000000000000000082E-05 ), #104, 'distance_accuracy_value', 'NONE');
#18 = MECHANICAL_DESIGN_GEOMETRIC_PRESENTATION_REPRESENTATION (  '', ( #272 ), #47 ) ;
#19 = DIRECTION ( 'NONE',  ( -0.000000000000000000, -1.000000000000000000, -0.000000000000000000 ) ) ;
#20 =( NAMED_UNIT ( * ) PLANE_ANGLE_UNIT ( ) SI_UNIT ( $, .RADIAN. ) );
#21 = ORIENTED_EDGE ( 'NONE', *, *, #244, .F. ) ;
#22 = EDGE_CURVE ( 'NONE', #62, #81, #125, .T. ) ;
#23 = AXIS2_PLACEMENT_3D ( 'NONE', #86, #197, #68 ) ;
#24 = DIRECTION ( 'NONE',  ( -2.578203787678638266E-17, 1.000000000000000000, -0.000000000000000000 ) ) ;
#25 = ADVANCED_FACE ( 'NONE', ( #175 ), #266, .F. ) ;
#26 = CARTESIAN_POINT ( 'NONE',  ( -1.469576158976823750E-15, 75.00000000000000000, 0.000000000000000000 ) ) ;
#27 = SURFACE_STYLE_USAGE ( .BOTH. , #75 ) ;
#28 = AXIS2_PLACEMENT_3D ( 'NONE', #282, #80, #167 ) ;
#29 = SURFACE_STYLE_USAGE ( .BOTH. , #116 ) ;
#30 =( LENGTH_UNIT ( ) NAMED_UNIT ( * ) SI_UNIT ( .MILLI., .METRE. ) );
#31 = ORIENTED_EDGE ( 'NONE', *, *, #239, .F. ) ;
#32 = CARTESIAN_POINT ( 'NONE',  ( 0.000000000000000000, 18.00000000000000000, 0.000000000000000000 ) ) ;
#33 = CLOSED_SHELL ( 'NONE', ( #259, #71, #204, #25 ) ) ;
#34 =( GEOMETRIC_REPRESENTATION_CONTEXT ( 3 ) GLOBAL_UNCERTAINTY_ASSIGNED_CONTEXT ( ( #124 ) ) GLOBAL_UNIT_ASSIGNED_CONTEXT ( ( #186, #281, #99 ) ) REPRESENTATION_CONTEXT ( 'NONE', 'WORKASPACE' ) );
#35 = ORIENTED_EDGE ( 'NONE', *, *, #200, .T. ) ;
#36 = FILL_AREA_STYLE ('',( #252 ) ) ;
#37 = DIRECTION ( 'NONE',  ( 0.000000000000000000, 1.000000000000000000, 0.000000000000000000 ) ) ;
#38 = ORIENTED_EDGE ( 'NONE', *, *, #280, .T. ) ;
#39 = ORIENTED_EDGE ( 'NONE', *, *, #280, .F. ) ;
#40 = EDGE_CURVE ( 'NONE', #109, #245, #212, .T. ) ;
#41 = PRESENTATION_LAYER_ASSIGNMENT (  '', '', ( #272 ) ) ;
#42 = DIRECTION ( 'NONE',  ( 0.000000000000000000, 0.000000000000000000, 1.000000000000000000 ) ) ;
#43 = EDGE_LOOP ( 'NONE', ( #38, #35 ) ) ;
#44 = ORIENTED_EDGE ( 'NONE', *, *, #200, .F. ) ;
#45 =( NAMED_UNIT ( * ) SI_UNIT ( $, .STERADIAN. ) SOLID_ANGLE_UNIT ( ) );
#46 = AXIS2_PLACEMENT_3D ( 'NONE', #182, #270, #247 ) ;
#47 =( GEOMETRIC_REPRESENTATION_CONTEXT ( 3 ) GLOBAL_UNCERTAINTY_ASSIGNED_CONTEXT ( ( #8 ) ) GLOBAL_UNIT_ASSIGNED_CONTEXT ( ( #285, #83, #240 ) ) REPRESENTATION_CONTEXT ( 'NONE', 'WORKASPACE' ) );
#48 = EDGE_LOOP ( 'NONE', ( #31, #163, #260, #168 ) ) ;
#49 = CARTESIAN_POINT ( 'NONE',  ( 7.347880794884119736E-16, 0.000000000000000000, 6.000000000000000000 ) ) ;
#50 = ADVANCED_FACE ( 'NONE', ( #16 ), #171, .T. ) ;
#51 = CIRCLE ( 'NONE', #286, 6.000000000000001776 ) ;
#52 = CARTESIAN_POINT ( 'NONE',  ( 0.000000000000000000, 18.00000000000000355, 0.000000000000000000 ) ) ;
#53 =( NAMED_UNIT ( * ) PLANE_ANGLE_UNIT ( ) SI_UNIT ( $, .RADIAN. ) );
#54 = COLOUR_RGB ( '',0.7921568627450980005, 0.8196078431372548767, 0.9333333333333333481 ) ;
#55 = CYLINDRICAL_SURFACE ( 'NONE', #198, 6.000000000000000888 ) ;
#56 = EDGE_LOOP ( 'NONE', ( #155, #173 ) ) ;
#57 = DIRECTION ( 'NONE',  ( -2.578203787678638266E-17, 1.000000000000000000, -0.000000000000000000 ) ) ;
#58 = VERTEX_POINT ( 'NONE', #153 ) ;
#59 = AXIS2_PLACEMENT_3D ( 'NONE', #231, #9, #185 ) ;
#60 = MECHANICAL_DESIGN_GEOMETRIC_PRESENTATION_REPRESENTATION (  '', ( #255 ), #128 ) ;
#61 = SURFACE_SIDE_STYLE ('',( #101 ) ) ;
#62 = VERTEX_POINT ( 'NONE', #217 ) ;
#63 = DIRECTION ( 'NONE',  ( -2.578203787678638266E-17, 1.000000000000000000, -0.000000000000000000 ) ) ;
#64 = AXIS2_PLACEMENT_3D ( 'NONE', #94, #2, #273 ) ;
#65 = DIRECTION ( 'NONE',  ( -0.000000000000000000, -1.000000000000000000, -0.000000000000000000 ) ) ;
#66 = ORIENTED_EDGE ( 'NONE', *, *, #40, .T. ) ;
#67 = SURFACE_STYLE_USAGE ( .BOTH. , #61 ) ;
#68 = DIRECTION ( 'NONE',  ( 0.000000000000000000, 0.000000000000000000, -1.000000000000000000 ) ) ;
#69 = CIRCLE ( 'NONE', #142, 6.000000000000000000 ) ;
#70 = DIRECTION ( 'NONE',  ( -2.578203787678638266E-17, 1.000000000000000000, 0.000000000000000000 ) ) ;
#71 = ADVANCED_FACE ( 'NONE', ( #190 ), #106, .F. ) ;
#72 =( NAMED_UNIT ( * ) SI_UNIT ( $, .STERADIAN. ) SOLID_ANGLE_UNIT ( ) );
#73 = SURFACE_STYLE_USAGE ( .BOTH. , #111 ) ;
#74 = DIRECTION ( 'NONE',  ( 0.000000000000000000, 0.000000000000000000, -1.000000000000000000 ) ) ;
#75 = SURFACE_SIDE_STYLE ('',( #135 ) ) ;
#76 = PRODUCT_DEFINITION_CONTEXT ( 'detailed design', #207, 'design' ) ;
#77 = DIRECTION ( 'NONE',  ( 0.000000000000000000, -0.000000000000000000, 1.000000000000000000 ) ) ;
#78 = PRESENTATION_LAYER_ASSIGNMENT (  '', '', ( #203 ) ) ;
#79 = PRODUCT_RELATED_PRODUCT_CATEGORY ( 'part', '', ( #183 ) ) ;
#80 = DIRECTION ( 'NONE',  ( -2.578203787678638266E-17, 1.000000000000000000, -0.000000000000000000 ) ) ;
#81 = VERTEX_POINT ( 'NONE', #131 ) ;
#82 = ORIENTED_EDGE ( 'NONE', *, *, #274, .T. ) ;
#83 =( NAMED_UNIT ( * ) PLANE_ANGLE_UNIT ( ) SI_UNIT ( $, .RADIAN. ) );
#84 = LINE ( 'NONE', #264, #15 ) ;
#85 = COLOUR_RGB ( '',1.000000000000000000, 0.000000000000000000, 0.000000000000000000 ) ;
#86 = CARTESIAN_POINT ( 'NONE',  ( 0.000000000000000000, 0.000000000000000000, 0.000000000000000000 ) ) ;
#87 = COLOUR_RGB ( '',1.000000000000000000, 0.000000000000000000, 0.000000000000000000 ) ;
#88 = CIRCLE ( 'NONE', #276, 6.000000000000000000 ) ;
#89 = EDGE_CURVE ( 'NONE', #58, #210, #84, .T. ) ;
#90 = CARTESIAN_POINT ( 'NONE',  ( 6.000000000000000000, 18.00000000000000355, 7.347880794884120722E-16 ) ) ;
#91 = DIRECTION ( 'NONE',  ( -2.578203787678638266E-17, 1.000000000000000000, -0.000000000000000000 ) ) ;
#92 = AXIS2_PLACEMENT_3D ( 'NONE', #26, #24, #179 ) ;
#93 = CIRCLE ( 'NONE', #256, 6.000000000000000000 ) ;
#94 = CARTESIAN_POINT ( 'NONE',  ( 0.000000000000000000, 18.00000000000000000, 0.000000000000000000 ) ) ;
#95 = PLANE ( 'NONE',  #46 ) ;
#96 = SURFACE_STYLE_FILL_AREA ( #162 ) ;
#97 = PRESENTATION_LAYER_ASSIGNMENT (  '', '', ( #221 ) ) ;
#98 = CARTESIAN_POINT ( 'NONE',  ( 0.000000000000000000, 0.000000000000000000, 0.000000000000000000 ) ) ;
#99 =( NAMED_UNIT ( * ) SI_UNIT ( $, .STERADIAN. ) SOLID_ANGLE_UNIT ( ) );
#100 = ORIENTED_EDGE ( 'NONE', *, *, #239, .T. ) ;
#101 = SURFACE_STYLE_FILL_AREA ( #36 ) ;
#102 = EDGE_LOOP ( 'NONE', ( #278, #21 ) ) ;
#103 = LINE ( 'NONE', #164, #230 ) ;
#104 =( LENGTH_UNIT ( ) NAMED_UNIT ( * ) SI_UNIT ( .MILLI., .METRE. ) );
#105 = SURFACE_SIDE_STYLE ('',( #196 ) ) ;
#106 = PLANE ( 'NONE',  #271 ) ;
#107 = CIRCLE ( 'NONE', #28, 6.000000000000000000 ) ;
#108 = PRODUCT_CONTEXT ( 'NONE', #241, 'mechanical' ) ;
#109 = VERTEX_POINT ( 'NONE', #149 ) ;
#110 = FILL_AREA_STYLE_COLOUR ( '', #156 ) ;
#111 = SURFACE_SIDE_STYLE ('',( #269 ) ) ;
#112 = EDGE_CURVE ( 'NONE', #146, #81, #51, .T. ) ;
#113 = PRESENTATION_STYLE_ASSIGNMENT (( #27 ) ) ;
#114 = AXIS2_PLACEMENT_3D ( 'NONE', #32, #37, #77 ) ;
#115 = PRESENTATION_STYLE_ASSIGNMENT (( #73 ) ) ;
#116 = SURFACE_SIDE_STYLE ('',( #277 ) ) ;
#117 = DIRECTION ( 'NONE',  ( 0.000000000000000000, 0.000000000000000000, -1.000000000000000000 ) ) ;
#118 = UNCERTAINTY_MEASURE_WITH_UNIT (LENGTH_MEASURE( 1.000000000000000082E-05 ), #30, 'distance_accuracy_value', 'NONE');
#119 = PRESENTATION_LAYER_ASSIGNMENT (  '', '', ( #236 ) ) ;
#120 = DIRECTION ( 'NONE',  ( -0.000000000000000000, -1.000000000000000000, -0.000000000000000000 ) ) ;
#121 = ORIENTED_EDGE ( 'NONE', *, *, #274, .F. ) ;
#122 = PRESENTATION_STYLE_ASSIGNMENT (( #14 ) ) ;
#123 = CARTESIAN_POINT ( 'NONE',  ( 6.000000000000000000, 75.00000000000000000, 0.000000000000000000 ) ) ;
#124 = UNCERTAINTY_MEASURE_WITH_UNIT (LENGTH_MEASURE( 1.000000000000000082E-05 ), #186, 'distance_accuracy_value', 'NONE');
#125 = LINE ( 'NONE', #262, #226 ) ;
#126 =( NAMED_UNIT ( * ) SI_UNIT ( $, .STERADIAN. ) SOLID_ANGLE_UNIT ( ) );
#127 = MECHANICAL_DESIGN_GEOMETRIC_PRESENTATION_REPRESENTATION (  '', ( #180 ), #169 ) ;
#128 =( GEOMETRIC_REPRESENTATION_CONTEXT ( 3 ) GLOBAL_UNCERTAINTY_ASSIGNED_CONTEXT ( ( #195 ) ) GLOBAL_UNIT_ASSIGNED_CONTEXT ( ( #4, #53, #72 ) ) REPRESENTATION_CONTEXT ( 'NONE', 'WORKASPACE' ) );
#129 =( NAMED_UNIT ( * ) PLANE_ANGLE_UNIT ( ) SI_UNIT ( $, .RADIAN. ) );
#130 = EDGE_CURVE ( 'NONE', #81, #146, #174, .T. ) ;
#131 = CARTESIAN_POINT ( 'NONE',  ( -6.000000000000003553, 75.00000000000000000, 0.000000000000000000 ) ) ;
#132 = DIRECTION ( 'NONE',  ( -0.000000000000000000, -1.000000000000000000, -0.000000000000000000 ) ) ;
#133 = MECHANICAL_DESIGN_GEOMETRIC_PRESENTATION_REPRESENTATION (  '', ( #203 ), #34 ) ;
#134 = FACE_OUTER_BOUND ( 'NONE', #229, .T. ) ;
#135 = SURFACE_STYLE_FILL_AREA ( #201 ) ;
#136 = CIRCLE ( 'NONE', #250, 6.000000000000000000 ) ;
#137 = FILL_AREA_STYLE ('',( #181 ) ) ;
#138 = UNCERTAINTY_MEASURE_WITH_UNIT (LENGTH_MEASURE( 1.000000000000000082E-05 ), #148, 'distance_accuracy_value', 'NONE');
#139 = DIRECTION ( 'NONE',  ( -0.000000000000000000, -1.000000000000000000, -0.000000000000000000 ) ) ;
#140 = CARTESIAN_POINT ( 'NONE',  ( 0.000000000000000000, 0.000000000000000000, -6.000000000000000000 ) ) ;
#141 = ORIENTED_EDGE ( 'NONE', *, *, #244, .T. ) ;
#142 = AXIS2_PLACEMENT_3D ( 'NONE', #52, #91, #176 ) ;
#143 = CYLINDRICAL_SURFACE ( 'NONE', #59, 6.000000000000000888 ) ;
#144 = EDGE_CURVE ( 'NONE', #109, #58, #263, .T. ) ;
#145 =( NAMED_UNIT ( * ) SI_UNIT ( $, .STERADIAN. ) SOLID_ANGLE_UNIT ( ) );
#146 = VERTEX_POINT ( 'NONE', #202 ) ;
#147 = ORIENTED_EDGE ( 'NONE', *, *, #22, .F. ) ;
#148 =( LENGTH_UNIT ( ) NAMED_UNIT ( * ) SI_UNIT ( .MILLI., .METRE. ) );
#149 = CARTESIAN_POINT ( 'NONE',  ( 0.000000000000000000, 18.00000000000000000, -6.000000000000000000 ) ) ;
#150 = DIRECTION ( 'NONE',  ( 0.000000000000000000, 0.000000000000000000, -1.000000000000000000 ) ) ;
#151 = VERTEX_POINT ( 'NONE', #90 ) ;
#152 = EDGE_CURVE ( 'NONE', #151, #62, #69, .T. ) ;
#153 = CARTESIAN_POINT ( 'NONE',  ( 7.347880794884119736E-16, 18.00000000000000000, 6.000000000000000000 ) ) ;
#154 =( GEOMETRIC_REPRESENTATION_CONTEXT ( 3 ) GLOBAL_UNCERTAINTY_ASSIGNED_CONTEXT ( ( #138 ) ) GLOBAL_UNIT_ASSIGNED_CONTEXT ( ( #148, #20, #126 ) ) REPRESENTATION_CONTEXT ( 'NONE', 'WORKASPACE' ) );
#155 = ORIENTED_EDGE ( 'NONE', *, *, #130, .T. ) ;
#156 = COLOUR_RGB ( '',1.000000000000000000, 0.000000000000000000, 0.000000000000000000 ) ;
#157 = PRODUCT_DEFINITION_SHAPE ( 'NONE', 'NONE',  #251 ) ;
#158 = ADVANCED_BREP_SHAPE_REPRESENTATION ( '59709', ( #279, #178, #6 ), #154 ) ;
#159 = DIRECTION ( 'NONE',  ( -1.000000000000000000, 0.000000000000000000, 0.000000000000000000 ) ) ;
#160 =( NAMED_UNIT ( * ) SI_UNIT ( $, .STERADIAN. ) SOLID_ANGLE_UNIT ( ) );
#161 = COLOUR_RGB ( '',0.7921568627450980005, 0.8196078431372548767, 0.9333333333333333481 ) ;
#162 = FILL_AREA_STYLE ('',( #11 ) ) ;
#163 = ORIENTED_EDGE ( 'NONE', *, *, #152, .T. ) ;
#164 = CARTESIAN_POINT ( 'NONE',  ( 5.999999999999999112, 75.00000000000000000, 7.347880794884120722E-16 ) ) ;
#165 = PRODUCT_DEFINITION_FORMATION_WITH_SPECIFIED_SOURCE ( 'ANY', '', #183, .NOT_KNOWN. ) ;
#166 = DIRECTION ( 'NONE',  ( 0.000000000000000000, 0.000000000000000000, -1.000000000000000000 ) ) ;
#167 = DIRECTION ( 'NONE',  ( -1.000000000000000000, 0.000000000000000000, 0.000000000000000000 ) ) ;
#168 = ORIENTED_EDGE ( 'NONE', *, *, #112, .F. ) ;
#169 =( GEOMETRIC_REPRESENTATION_CONTEXT ( 3 ) GLOBAL_UNCERTAINTY_ASSIGNED_CONTEXT ( ( #17 ) ) GLOBAL_UNIT_ASSIGNED_CONTEXT ( ( #104, #129, #45 ) ) REPRESENTATION_CONTEXT ( 'NONE', 'WORKASPACE' ) );
#170 = DIRECTION ( 'NONE',  ( -0.000000000000000000, -1.000000000000000000, -0.000000000000000000 ) ) ;
#171 = CYLINDRICAL_SURFACE ( 'NONE', #23, 6.000000000000000000 ) ;
#172 = APPLICATION_PROTOCOL_DEFINITION ( 'draft international standard', 'automotive_design', 1998, #241 ) ;
#173 = ORIENTED_EDGE ( 'NONE', *, *, #112, .T. ) ;
#174 = CIRCLE ( 'NONE', #92, 6.000000000000001776 ) ;
#175 = FACE_OUTER_BOUND ( 'NONE', #56, .T. ) ;
#176 = DIRECTION ( 'NONE',  ( -1.000000000000000000, 0.000000000000000000, 0.000000000000000000 ) ) ;
#177 = CARTESIAN_POINT ( 'NONE',  ( 0.000000000000000000, 0.000000000000000000, 0.000000000000000000 ) ) ;
#178 = MANIFOLD_SOLID_BREP ( 'Revolve - Tool Body (Straight Shanked)', #33 ) ;
#179 = DIRECTION ( 'NONE',  ( -1.000000000000000000, 0.000000000000000000, 0.000000000000000000 ) ) ;
#180 = STYLED_ITEM ( 'NONE', ( #287 ), #50 ) ;
#181 = FILL_AREA_STYLE_COLOUR ( '', #54 ) ;
#182 = CARTESIAN_POINT ( 'NONE',  ( 0.000000000000000000, 0.000000000000000000, 0.000000000000000000 ) ) ;
#183 = PRODUCT ( '59709', '59709', '', ( #108 ) ) ;
#184 =( NAMED_UNIT ( * ) PLANE_ANGLE_UNIT ( ) SI_UNIT ( $, .RADIAN. ) );
#185 = DIRECTION ( 'NONE',  ( -1.000000000000000000, 0.000000000000000000, 0.000000000000000000 ) ) ;
#186 =( LENGTH_UNIT ( ) NAMED_UNIT ( * ) SI_UNIT ( .MILLI., .METRE. ) );
#187 = ORIENTED_EDGE ( 'NONE', *, *, #89, .T. ) ;
#188 =( GEOMETRIC_REPRESENTATION_CONTEXT ( 3 ) GLOBAL_UNCERTAINTY_ASSIGNED_CONTEXT ( ( #118 ) ) GLOBAL_UNIT_ASSIGNED_CONTEXT ( ( #30, #184, #145 ) ) REPRESENTATION_CONTEXT ( 'NONE', 'WORKASPACE' ) );
#189 = CARTESIAN_POINT ( 'NONE',  ( 0.000000000000000000, 18.00000000000000000, 0.000000000000000000 ) ) ;
#190 = FACE_OUTER_BOUND ( 'NONE', #258, .T. ) ;
#191 = CARTESIAN_POINT ( 'NONE',  ( 0.000000000000000000, 0.000000000000000000, 0.000000000000000000 ) ) ;
#192 = CLOSED_SHELL ( 'NONE', ( #50, #224, #220, #219 ) ) ;
#193 = MECHANICAL_DESIGN_GEOMETRIC_PRESENTATION_REPRESENTATION (  '', ( #236 ), #188 ) ;
#194 = DIRECTION ( 'NONE',  ( -2.578203787678638266E-17, 1.000000000000000000, -0.000000000000000000 ) ) ;
#195 = UNCERTAINTY_MEASURE_WITH_UNIT (LENGTH_MEASURE( 1.000000000000000082E-05 ), #4, 'distance_accuracy_value', 'NONE');
#196 = SURFACE_STYLE_FILL_AREA ( #218 ) ;
#197 = DIRECTION ( 'NONE',  ( -0.000000000000000000, -1.000000000000000000, -0.000000000000000000 ) ) ;
#198 = AXIS2_PLACEMENT_3D ( 'NONE', #223, #3, #159 ) ;
#199 =( LENGTH_UNIT ( ) NAMED_UNIT ( * ) SI_UNIT ( .MILLI., .METRE. ) );
#200 = EDGE_CURVE ( 'NONE', #210, #245, #136, .T. ) ;
#201 = FILL_AREA_STYLE ('',( #110 ) ) ;
#202 = CARTESIAN_POINT ( 'NONE',  ( 6.000000000000000000, 75.00000000000000000, 7.347880794884120722E-16 ) ) ;
#203 = STYLED_ITEM ( 'NONE', ( #122 ), #220 ) ;
#204 = ADVANCED_FACE ( 'NONE', ( #246 ), #55, .T. ) ;
#205 = CARTESIAN_POINT ( 'NONE',  ( 0.000000000000000000, 0.000000000000000000, 0.000000000000000000 ) ) ;
#206 = FACE_OUTER_BOUND ( 'NONE', #234, .T. ) ;
#207 = APPLICATION_CONTEXT ( 'automotive_design' ) ;
#208 = ORIENTED_EDGE ( 'NONE', *, *, #89, .F. ) ;
#209 = VECTOR ( 'NONE', #19, 1000.000000000000000 ) ;
#210 = VERTEX_POINT ( 'NONE', #49 ) ;
#211 = APPLICATION_PROTOCOL_DEFINITION ( 'draft international standard', 'automotive_design', 1998, #207 ) ;
#212 = LINE ( 'NONE', #213, #209 ) ;
#213 = CARTESIAN_POINT ( 'NONE',  ( 0.000000000000000000, 0.000000000000000000, -6.000000000000000000 ) ) ;
#214 = PRESENTATION_LAYER_ASSIGNMENT (  '', '', ( #255 ) ) ;
#215 =( GEOMETRIC_REPRESENTATION_CONTEXT ( 3 ) GLOBAL_UNCERTAINTY_ASSIGNED_CONTEXT ( ( #284 ) ) GLOBAL_UNIT_ASSIGNED_CONTEXT ( ( #199, #7, #160 ) ) REPRESENTATION_CONTEXT ( 'NONE', 'WORKASPACE' ) );
#216 = SURFACE_STYLE_USAGE ( .BOTH. , #105 ) ;
#217 = CARTESIAN_POINT ( 'NONE',  ( -6.000000000000000000, 18.00000000000000355, 0.000000000000000000 ) ) ;
#218 = FILL_AREA_STYLE ('',( #243 ) ) ;
#219 = ADVANCED_FACE ( 'NONE', ( #248 ), #95, .T. ) ;
#220 = ADVANCED_FACE ( 'NONE', ( #134 ), #222, .T. ) ;
#221 = STYLED_ITEM ( 'NONE', ( #113 ), #219 ) ;
#222 = CYLINDRICAL_SURFACE ( 'NONE', #10, 6.000000000000000000 ) ;
#223 = CARTESIAN_POINT ( 'NONE',  ( -1.469576158976823750E-15, 75.00000000000000000, 0.000000000000000000 ) ) ;
#224 = ADVANCED_FACE ( 'NONE', ( #257 ), #275, .T. ) ;
#225 = DIRECTION ( 'NONE',  ( -1.000000000000000000, 0.000000000000000000, 0.000000000000000000 ) ) ;
#226 = VECTOR ( 'NONE', #63, 1000.000000000000000 ) ;
#227 = COLOUR_RGB ( '',1.000000000000000000, 0.000000000000000000, 0.000000000000000000 ) ;
#228 = PRESENTATION_STYLE_ASSIGNMENT (( #29 ) ) ;
#229 = EDGE_LOOP ( 'NONE', ( #208, #141, #66, #44 ) ) ;
#230 = VECTOR ( 'NONE', #57, 1000.000000000000000 ) ;
#231 = CARTESIAN_POINT ( 'NONE',  ( -1.469576158976823750E-15, 75.00000000000000000, 0.000000000000000000 ) ) ;
#232 = ORIENTED_EDGE ( 'NONE', *, *, #144, .T. ) ;
#233 = FILL_AREA_STYLE_COLOUR ( '', #85 ) ;
#234 = EDGE_LOOP ( 'NONE', ( #82, #100, #237, #147 ) ) ;
#235 = AXIS2_PLACEMENT_3D ( 'NONE', #123, #268, #288 ) ;
#236 = STYLED_ITEM ( 'NONE', ( #228 ), #224 ) ;
#237 = ORIENTED_EDGE ( 'NONE', *, *, #130, .F. ) ;
#238 = CARTESIAN_POINT ( 'NONE',  ( -1.469576158976823750E-15, 75.00000000000000000, 0.000000000000000000 ) ) ;
#239 = EDGE_CURVE ( 'NONE', #151, #146, #103, .T. ) ;
#240 =( NAMED_UNIT ( * ) SI_UNIT ( $, .STERADIAN. ) SOLID_ANGLE_UNIT ( ) );
#241 = APPLICATION_CONTEXT ( 'automotive_design' ) ;
#242 = PRESENTATION_STYLE_ASSIGNMENT (( #67 ) ) ;
#243 = FILL_AREA_STYLE_COLOUR ( '', #87 ) ;
#244 = EDGE_CURVE ( 'NONE', #58, #109, #88, .T. ) ;
#245 = VERTEX_POINT ( 'NONE', #140 ) ;
#246 = FACE_OUTER_BOUND ( 'NONE', #48, .T. ) ;
#247 = DIRECTION ( 'NONE',  ( 0.000000000000000000, 0.000000000000000000, -1.000000000000000000 ) ) ;
#248 = FACE_OUTER_BOUND ( 'NONE', #43, .T. ) ;
#249 = PRESENTATION_LAYER_ASSIGNMENT (  '', '', ( #180 ) ) ;
#250 = AXIS2_PLACEMENT_3D ( 'NONE', #177, #132, #74 ) ;
#251 = PRODUCT_DEFINITION ( 'UNKNOWN', '', #165, #76 ) ;
#252 = FILL_AREA_STYLE_COLOUR ( '', #161 ) ;
#253 = ORIENTED_EDGE ( 'NONE', *, *, #152, .F. ) ;
#254 = SURFACE_SIDE_STYLE ('',( #96 ) ) ;
#255 = STYLED_ITEM ( 'NONE', ( #115 ), #178 ) ;
#256 = AXIS2_PLACEMENT_3D ( 'NONE', #98, #170, #150 ) ;
#257 = FACE_OUTER_BOUND ( 'NONE', #102, .T. ) ;
#258 = EDGE_LOOP ( 'NONE', ( #121, #253 ) ) ;
#259 = ADVANCED_FACE ( 'NONE', ( #206 ), #143, .T. ) ;
#260 = ORIENTED_EDGE ( 'NONE', *, *, #22, .T. ) ;
#261 = SHAPE_DEFINITION_REPRESENTATION ( #157, #158 ) ;
#262 = CARTESIAN_POINT ( 'NONE',  ( -6.000000000000002665, 75.00000000000000000, 0.000000000000000000 ) ) ;
#263 = CIRCLE ( 'NONE', #64, 6.000000000000000000 ) ;
#264 = CARTESIAN_POINT ( 'NONE',  ( 7.347880794884119736E-16, 0.000000000000000000, 6.000000000000000000 ) ) ;
#265 = DIRECTION ( 'NONE',  ( 1.000000000000000000, 0.000000000000000000, 0.000000000000000000 ) ) ;
#266 = PLANE ( 'NONE',  #235 ) ;
#267 = ORIENTED_EDGE ( 'NONE', *, *, #40, .F. ) ;
#268 = DIRECTION ( 'NONE',  ( 2.578203787678638266E-17, -1.000000000000000000, 0.000000000000000000 ) ) ;
#269 = SURFACE_STYLE_FILL_AREA ( #137 ) ;
#270 = DIRECTION ( 'NONE',  ( 0.000000000000000000, -1.000000000000000000, -0.000000000000000000 ) ) ;
#271 = AXIS2_PLACEMENT_3D ( 'NONE', #1, #70, #283 ) ;
#272 = STYLED_ITEM ( 'NONE', ( #242 ), #279 ) ;
#273 = DIRECTION ( 'NONE',  ( 0.000000000000000000, 0.000000000000000000, -1.000000000000000000 ) ) ;
#274 = EDGE_CURVE ( 'NONE', #62, #151, #107, .T. ) ;
#275 = PLANE ( 'NONE',  #114 ) ;
#276 = AXIS2_PLACEMENT_3D ( 'NONE', #189, #139, #117 ) ;
#277 = SURFACE_STYLE_FILL_AREA ( #13 ) ;
#278 = ORIENTED_EDGE ( 'NONE', *, *, #144, .F. ) ;
#279 = MANIFOLD_SOLID_BREP ( 'Revolve - Cutting Edge', #192 ) ;
#280 = EDGE_CURVE ( 'NONE', #245, #210, #93, .T. ) ;
#281 =( NAMED_UNIT ( * ) PLANE_ANGLE_UNIT ( ) SI_UNIT ( $, .RADIAN. ) );
#282 = CARTESIAN_POINT ( 'NONE',  ( 0.000000000000000000, 18.00000000000000355, 0.000000000000000000 ) ) ;
#283 = DIRECTION ( 'NONE',  ( -1.000000000000000000, -2.578203787678638266E-17, 0.000000000000000000 ) ) ;
#284 = UNCERTAINTY_MEASURE_WITH_UNIT (LENGTH_MEASURE( 1.000000000000000082E-05 ), #199, 'distance_accuracy_value', 'NONE');
#285 =( LENGTH_UNIT ( ) NAMED_UNIT ( * ) SI_UNIT ( .MILLI., .METRE. ) );
#286 = AXIS2_PLACEMENT_3D ( 'NONE', #238, #194, #225 ) ;
#287 = PRESENTATION_STYLE_ASSIGNMENT (( #216 ) ) ;
#288 = DIRECTION ( 'NONE',  ( 1.000000000000000000, 2.578203787678638266E-17, 0.000000000000000000 ) ) ;
ENDSEC;
END-ISO-10303-21;
