ISO-10303-21;
HEADER;
FILE_DESCRIPTION (( 'STEP AP214' ),
    '1' );
FILE_NAME ('01155.STEP',
    '2023-06-22T14:20:58',
    ( '' ),
    ( '' ),
    'SwSTEP 2.0',
    'SolidWorks 2023',
    '' );
FILE_SCHEMA (( 'AUTOMOTIVE_DESIGN' ));
ENDSEC;

DATA;
#1 = CARTESIAN_POINT ( 'NONE',  ( -0.1250000000000001110, 2.500000000000000000, 0.000000000000000000 ) ) ;
#2 = SURFACE_STYLE_USAGE ( .BOTH. , #79 ) ;
#3 = DIRECTION ( 'NONE',  ( -0.000000000000000000, -1.000000000000000000, -0.000000000000000000 ) ) ;
#4 = MECHANICAL_DESIGN_GEOMETRIC_PRESENTATION_REPRESENTATION (  '', ( #273 ), #255 ) ;
#5 = PRESENTATION_STYLE_ASSIGNMENT (( #2 ) ) ;
#6 = SURFACE_STYLE_FILL_AREA ( #140 ) ;
#7 = CARTESIAN_POINT ( 'NONE',  ( 0.1249999999999999445, 2.500000000000000000, 1.530808498934191817E-17 ) ) ;
#8 = EDGE_CURVE ( 'NONE', #168, #191, #292, .T. ) ;
#9 = PRESENTATION_LAYER_ASSIGNMENT (  '', '', ( #98 ) ) ;
#10 =( CONVERSION_BASED_UNIT ( 'INCH', #206 ) LENGTH_UNIT ( ) NAMED_UNIT ( #87 ) );
#11 = MECHANICAL_DESIGN_GEOMETRIC_PRESENTATION_REPRESENTATION (  '', ( #155 ), #304 ) ;
#12 = DIRECTION ( 'NONE',  ( -0.000000000000000000, -1.000000000000000000, -0.000000000000000000 ) ) ;
#13 = DIRECTION ( 'NONE',  ( -0.000000000000000000, -1.000000000000000000, -0.000000000000000000 ) ) ;
#14 = ADVANCED_FACE ( 'NONE', ( #127 ), #26, .T. ) ;
#15 = MECHANICAL_DESIGN_GEOMETRIC_PRESENTATION_REPRESENTATION (  '', ( #106 ), #300 ) ;
#16 = CARTESIAN_POINT ( 'NONE',  ( -6.123233995736766036E-17, 2.500000000000000000, 0.000000000000000000 ) ) ;
#17 = FACE_OUTER_BOUND ( 'NONE', #122, .T. ) ;
#18 = ORIENTED_EDGE ( 'NONE', *, *, #8, .T. ) ;
#19 = MANIFOLD_SOLID_BREP ( 'Revolve - Cutting Edge', #162 ) ;
#20 = UNCERTAINTY_MEASURE_WITH_UNIT (LENGTH_MEASURE( 1.000000000000000082E-05 ), #218, 'distance_accuracy_value', 'NONE');
#21 = SURFACE_STYLE_FILL_AREA ( #187 ) ;
#22 = AXIS2_PLACEMENT_3D ( 'NONE', #76, #55, #133 ) ;
#23 =( LENGTH_UNIT ( ) NAMED_UNIT ( * ) SI_UNIT ( $, .METRE. ) );
#24 = EDGE_LOOP ( 'NONE', ( #173, #50, #18, #178 ) ) ;
#25 =( CONVERSION_BASED_UNIT ( 'INCH', #295 ) LENGTH_UNIT ( ) NAMED_UNIT ( #233 ) );
#26 = CYLINDRICAL_SURFACE ( 'NONE', #209, 0.1250000000000000278 ) ;
#27 = MECHANICAL_DESIGN_GEOMETRIC_PRESENTATION_REPRESENTATION (  '', ( #63 ), #36 ) ;
#28 = UNCERTAINTY_MEASURE_WITH_UNIT (LENGTH_MEASURE( 1.000000000000000082E-05 ), #10, 'distance_accuracy_value', 'NONE');
#29 = AXIS2_PLACEMENT_3D ( 'NONE', #236, #208, #67 ) ;
#30 = FILL_AREA_STYLE ('',( #274 ) ) ;
#31 = ORIENTED_EDGE ( 'NONE', *, *, #8, .F. ) ;
#32 = EDGE_CURVE ( 'NONE', #262, #241, #54, .T. ) ;
#33 = CARTESIAN_POINT ( 'NONE',  ( 0.000000000000000000, 0.5000000000000000000, 0.000000000000000000 ) ) ;
#34 = DIRECTION ( 'NONE',  ( -0.000000000000000000, -1.000000000000000000, -0.000000000000000000 ) ) ;
#35 = VECTOR ( 'NONE', #34, 39.37007874015748143 ) ;
#36 =( GEOMETRIC_REPRESENTATION_CONTEXT ( 3 ) GLOBAL_UNCERTAINTY_ASSIGNED_CONTEXT ( ( #20 ) ) GLOBAL_UNIT_ASSIGNED_CONTEXT ( ( #218, #97, #159 ) ) REPRESENTATION_CONTEXT ( 'NONE', 'WORKASPACE' ) );
#37 = APPLICATION_CONTEXT ( 'automotive_design' ) ;
#38 = PRODUCT_DEFINITION_CONTEXT ( 'detailed design', #37, 'design' ) ;
#39 = CIRCLE ( 'NONE', #258, 0.1249999999999999861 ) ;
#40 = DIRECTION ( 'NONE',  ( 0.000000000000000000, 0.000000000000000000, -1.000000000000000000 ) ) ;
#41 = ADVANCED_FACE ( 'NONE', ( #251 ), #153, .T. ) ;
#42 = CARTESIAN_POINT ( 'NONE',  ( 0.000000000000000000, 0.5000000000000000000, -0.1249999999999999861 ) ) ;
#43 =( NAMED_UNIT ( * ) SI_UNIT ( $, .STERADIAN. ) SOLID_ANGLE_UNIT ( ) );
#44 = EDGE_LOOP ( 'NONE', ( #214, #89 ) ) ;
#45 = VECTOR ( 'NONE', #298, 39.37007874015748143 ) ;
#46 = CARTESIAN_POINT ( 'NONE',  ( 1.530808498934191509E-17, 0.000000000000000000, 0.1250000000000000000 ) ) ;
#47 = SURFACE_STYLE_USAGE ( .BOTH. , #148 ) ;
#48 = EDGE_LOOP ( 'NONE', ( #77, #149 ) ) ;
#49 = CARTESIAN_POINT ( 'NONE',  ( -0.1250000000000000833, 2.500000000000000000, 0.000000000000000000 ) ) ;
#50 = ORIENTED_EDGE ( 'NONE', *, *, #189, .T. ) ;
#51 = COLOUR_RGB ( '',1.000000000000000000, 0.000000000000000000, 0.000000000000000000 ) ;
#52 = CARTESIAN_POINT ( 'NONE',  ( -6.123233995736766036E-17, 2.500000000000000000, 0.000000000000000000 ) ) ;
#53 = APPLICATION_PROTOCOL_DEFINITION ( 'draft international standard', 'automotive_design', 1998, #37 ) ;
#54 = LINE ( 'NONE', #56, #57 ) ;
#55 = DIRECTION ( 'NONE',  ( -0.000000000000000000, -1.000000000000000000, -0.000000000000000000 ) ) ;
#56 = CARTESIAN_POINT ( 'NONE',  ( 1.530808498934191509E-17, 0.000000000000000000, 0.1250000000000000000 ) ) ;
#57 = VECTOR ( 'NONE', #204, 39.37007874015748143 ) ;
#58 = DIRECTION ( 'NONE',  ( -3.061616997868383018E-17, 1.000000000000000000, -0.000000000000000000 ) ) ;
#59 = DIRECTION ( 'NONE',  ( -1.000000000000000000, 0.000000000000000000, 0.000000000000000000 ) ) ;
#60 = ORIENTED_EDGE ( 'NONE', *, *, #95, .F. ) ;
#61 = STYLED_ITEM ( 'NONE', ( #235 ), #69 ) ;
#62 = SURFACE_STYLE_FILL_AREA ( #83 ) ;
#63 = STYLED_ITEM ( 'NONE', ( #5 ), #41 ) ;
#64 = PLANE ( 'NONE',  #207 ) ;
#65 = AXIS2_PLACEMENT_3D ( 'NONE', #227, #3, #308 ) ;
#66 =( GEOMETRIC_REPRESENTATION_CONTEXT ( 3 ) GLOBAL_UNCERTAINTY_ASSIGNED_CONTEXT ( ( #285 ) ) GLOBAL_UNIT_ASSIGNED_CONTEXT ( ( #107, #291, #174 ) ) REPRESENTATION_CONTEXT ( 'NONE', 'WORKASPACE' ) );
#67 = DIRECTION ( 'NONE',  ( 0.000000000000000000, 0.000000000000000000, -1.000000000000000000 ) ) ;
#68 = DIRECTION ( 'NONE',  ( 0.000000000000000000, 0.000000000000000000, -1.000000000000000000 ) ) ;
#69 = ADVANCED_FACE ( 'NONE', ( #137 ), #281, .T. ) ;
#70 = DIRECTION ( 'NONE',  ( -3.061616997868383018E-17, 1.000000000000000000, 0.000000000000000000 ) ) ;
#71 = COLOUR_RGB ( '',1.000000000000000000, 0.000000000000000000, 0.000000000000000000 ) ;
#72 = EDGE_LOOP ( 'NONE', ( #60, #93, #90, #144 ) ) ;
#73 = DIRECTION ( 'NONE',  ( -1.000000000000000000, -3.061616997868383018E-17, 0.000000000000000000 ) ) ;
#74 = DIRECTION ( 'NONE',  ( -1.000000000000000000, 0.000000000000000000, 0.000000000000000000 ) ) ;
#75 = SURFACE_STYLE_USAGE ( .BOTH. , #309 ) ;
#76 = CARTESIAN_POINT ( 'NONE',  ( 0.000000000000000000, 0.5000000000000000000, 0.000000000000000000 ) ) ;
#77 = ORIENTED_EDGE ( 'NONE', *, *, #276, .F. ) ;
#78 = AXIS2_PLACEMENT_3D ( 'NONE', #305, #70, #73 ) ;
#79 = SURFACE_SIDE_STYLE ('',( #226 ) ) ;
#80 = DIRECTION ( 'NONE',  ( 0.000000000000000000, -0.000000000000000000, 1.000000000000000000 ) ) ;
#81 = PRESENTATION_LAYER_ASSIGNMENT (  '', '', ( #155 ) ) ;
#82 = PRESENTATION_STYLE_ASSIGNMENT (( #232 ) ) ;
#83 = FILL_AREA_STYLE ('',( #113 ) ) ;
#84 = AXIS2_PLACEMENT_3D ( 'NONE', #184, #12, #40 ) ;
#85 = DIRECTION ( 'NONE',  ( -3.061616997868383018E-17, 1.000000000000000000, -0.000000000000000000 ) ) ;
#86 = ORIENTED_EDGE ( 'NONE', *, *, #287, .T. ) ;
#87 = DIMENSIONAL_EXPONENTS ( 1.000000000000000000, 0.000000000000000000, 0.000000000000000000, 0.000000000000000000, 0.000000000000000000, 0.000000000000000000, 0.000000000000000000 ) ;
#88 = CYLINDRICAL_SURFACE ( 'NONE', #210, 0.1250000000000000278 ) ;
#89 = ORIENTED_EDGE ( 'NONE', *, *, #147, .T. ) ;
#90 = ORIENTED_EDGE ( 'NONE', *, *, #219, .T. ) ;
#91 = MECHANICAL_DESIGN_GEOMETRIC_PRESENTATION_REPRESENTATION (  '', ( #61 ), #264 ) ;
#92 = DIRECTION ( 'NONE',  ( -3.061616997868383018E-17, 1.000000000000000000, -0.000000000000000000 ) ) ;
#93 = ORIENTED_EDGE ( 'NONE', *, *, #160, .T. ) ;
#94 = DIRECTION ( 'NONE',  ( 0.000000000000000000, 0.000000000000000000, -1.000000000000000000 ) ) ;
#95 = EDGE_CURVE ( 'NONE', #302, #269, #185, .T. ) ;
#96 = DIRECTION ( 'NONE',  ( 0.000000000000000000, 0.000000000000000000, 1.000000000000000000 ) ) ;
#97 =( NAMED_UNIT ( * ) PLANE_ANGLE_UNIT ( ) SI_UNIT ( $, .RADIAN. ) );
#98 = STYLED_ITEM ( 'NONE', ( #108 ), #19 ) ;
#99 = AXIS2_PLACEMENT_3D ( 'NONE', #166, #194, #266 ) ;
#100 = LENGTH_MEASURE_WITH_UNIT ( LENGTH_MEASURE( 0.02539999999999999897 ), #268 );
#101 = ORIENTED_EDGE ( 'NONE', *, *, #219, .F. ) ;
#102 = CARTESIAN_POINT ( 'NONE',  ( 0.000000000000000000, 0.5000000000000001110, 0.000000000000000000 ) ) ;
#103 =( CONVERSION_BASED_UNIT ( 'INCH', #249 ) LENGTH_UNIT ( ) NAMED_UNIT ( #237 ) );
#104 = DIRECTION ( 'NONE',  ( 0.000000000000000000, 1.000000000000000000, 0.000000000000000000 ) ) ;
#105 =( LENGTH_UNIT ( ) NAMED_UNIT ( * ) SI_UNIT ( $, .METRE. ) );
#106 = STYLED_ITEM ( 'NONE', ( #82 ), #128 ) ;
#107 =( CONVERSION_BASED_UNIT ( 'INCH', #100 ) LENGTH_UNIT ( ) NAMED_UNIT ( #112 ) );
#108 = PRESENTATION_STYLE_ASSIGNMENT (( #75 ) ) ;
#109 =( CONVERSION_BASED_UNIT ( 'INCH', #114 ) LENGTH_UNIT ( ) NAMED_UNIT ( #301 ) );
#110 = CIRCLE ( 'NONE', #221, 0.1250000000000000555 ) ;
#111 = PLANE ( 'NONE',  #129 ) ;
#112 = DIMENSIONAL_EXPONENTS ( 1.000000000000000000, 0.000000000000000000, 0.000000000000000000, 0.000000000000000000, 0.000000000000000000, 0.000000000000000000, 0.000000000000000000 ) ;
#113 = FILL_AREA_STYLE_COLOUR ( '', #51 ) ;
#114 = LENGTH_MEASURE_WITH_UNIT ( LENGTH_MEASURE( 0.02539999999999999897 ), #280 );
#115 = VECTOR ( 'NONE', #143, 39.37007874015748143 ) ;
#116 = CARTESIAN_POINT ( 'NONE',  ( -0.1249999999999999861, 0.5000000000000001110, 0.000000000000000000 ) ) ;
#117 = SURFACE_STYLE_USAGE ( .BOTH. , #212 ) ;
#118 = DIMENSIONAL_EXPONENTS ( 1.000000000000000000, 0.000000000000000000, 0.000000000000000000, 0.000000000000000000, 0.000000000000000000, 0.000000000000000000, 0.000000000000000000 ) ;
#119 = ORIENTED_EDGE ( 'NONE', *, *, #276, .T. ) ;
#120 = PLANE ( 'NONE',  #245 ) ;
#121 = EDGE_LOOP ( 'NONE', ( #272, #303, #180, #31 ) ) ;
#122 = EDGE_LOOP ( 'NONE', ( #282, #243 ) ) ;
#123 = ADVANCED_FACE ( 'NONE', ( #260 ), #64, .F. ) ;
#124 = CARTESIAN_POINT ( 'NONE',  ( 0.000000000000000000, 0.000000000000000000, 0.000000000000000000 ) ) ;
#125 = UNCERTAINTY_MEASURE_WITH_UNIT (LENGTH_MEASURE( 1.000000000000000082E-05 ), #284, 'distance_accuracy_value', 'NONE');
#126 = PRESENTATION_STYLE_ASSIGNMENT (( #47 ) ) ;
#127 = FACE_OUTER_BOUND ( 'NONE', #72, .T. ) ;
#128 = ADVANCED_FACE ( 'NONE', ( #161 ), #111, .T. ) ;
#129 = AXIS2_PLACEMENT_3D ( 'NONE', #192, #171, #68 ) ;
#130 = SURFACE_STYLE_FILL_AREA ( #30 ) ;
#131 = CARTESIAN_POINT ( 'NONE',  ( -6.123233995736766036E-17, 2.500000000000000000, 0.000000000000000000 ) ) ;
#132 = MANIFOLD_SOLID_BREP ( 'Revolve - Tool Body (Straight Shanked)', #229 ) ;
#133 = DIRECTION ( 'NONE',  ( 0.000000000000000000, 0.000000000000000000, -1.000000000000000000 ) ) ;
#134 = CARTESIAN_POINT ( 'NONE',  ( 0.1249999999999999861, 2.500000000000000000, 0.000000000000000000 ) ) ;
#135 =( NAMED_UNIT ( * ) SI_UNIT ( $, .STERADIAN. ) SOLID_ANGLE_UNIT ( ) );
#136 = COLOUR_RGB ( '',0.7921568627450980005, 0.8196078431372548767, 0.9333333333333333481 ) ;
#137 = FACE_OUTER_BOUND ( 'NONE', #24, .T. ) ;
#138 = UNCERTAINTY_MEASURE_WITH_UNIT (LENGTH_MEASURE( 1.000000000000000082E-05 ), #25, 'distance_accuracy_value', 'NONE');
#139 = DIMENSIONAL_EXPONENTS ( 1.000000000000000000, 0.000000000000000000, 0.000000000000000000, 0.000000000000000000, 0.000000000000000000, 0.000000000000000000, 0.000000000000000000 ) ;
#140 = FILL_AREA_STYLE ('',( #277 ) ) ;
#141 = CARTESIAN_POINT ( 'NONE',  ( -6.123233995736766036E-17, 2.500000000000000000, 0.000000000000000000 ) ) ;
#142 = ORIENTED_EDGE ( 'NONE', *, *, #95, .T. ) ;
#143 = DIRECTION ( 'NONE',  ( -3.061616997868383018E-17, 1.000000000000000000, -0.000000000000000000 ) ) ;
#144 = ORIENTED_EDGE ( 'NONE', *, *, #179, .F. ) ;
#145 = FILL_AREA_STYLE ('',( #215 ) ) ;
#146 = ORIENTED_EDGE ( 'NONE', *, *, #287, .F. ) ;
#147 = EDGE_CURVE ( 'NONE', #241, #191, #240, .T. ) ;
#148 = SURFACE_SIDE_STYLE ('',( #170 ) ) ;
#149 = ORIENTED_EDGE ( 'NONE', *, *, #160, .F. ) ;
#150 = APPLICATION_PROTOCOL_DEFINITION ( 'draft international standard', 'automotive_design', 1998, #151 ) ;
#151 = APPLICATION_CONTEXT ( 'automotive_design' ) ;
#152 = CARTESIAN_POINT ( 'NONE',  ( 1.530808498934191201E-17, 0.5000000000000000000, 0.1249999999999999861 ) ) ;
#153 = CYLINDRICAL_SURFACE ( 'NONE', #29, 0.1250000000000000000 ) ;
#154 = EDGE_LOOP ( 'NONE', ( #119, #142, #146, #101 ) ) ;
#155 = STYLED_ITEM ( 'NONE', ( #126 ), #252 ) ;
#156 =( NAMED_UNIT ( * ) PLANE_ANGLE_UNIT ( ) SI_UNIT ( $, .RADIAN. ) );
#157 =( NAMED_UNIT ( * ) PLANE_ANGLE_UNIT ( ) SI_UNIT ( $, .RADIAN. ) );
#158 = ADVANCED_FACE ( 'NONE', ( #190 ), #88, .T. ) ;
#159 =( NAMED_UNIT ( * ) SI_UNIT ( $, .STERADIAN. ) SOLID_ANGLE_UNIT ( ) );
#160 = EDGE_CURVE ( 'NONE', #302, #202, #182, .T. ) ;
#161 = FACE_OUTER_BOUND ( 'NONE', #44, .T. ) ;
#162 = CLOSED_SHELL ( 'NONE', ( #41, #252, #69, #128 ) ) ;
#163 = AXIS2_PLACEMENT_3D ( 'NONE', #52, #290, #59 ) ;
#164 =( NAMED_UNIT ( * ) SI_UNIT ( $, .STERADIAN. ) SOLID_ANGLE_UNIT ( ) );
#165 = ADVANCED_FACE ( 'NONE', ( #169 ), #283, .F. ) ;
#166 = CARTESIAN_POINT ( 'NONE',  ( 0.000000000000000000, 0.5000000000000001110, 0.000000000000000000 ) ) ;
#167 = CARTESIAN_POINT ( 'NONE',  ( 0.000000000000000000, 0.000000000000000000, -0.1250000000000000000 ) ) ;
#168 = VERTEX_POINT ( 'NONE', #42 ) ;
#169 = FACE_OUTER_BOUND ( 'NONE', #48, .T. ) ;
#170 = SURFACE_STYLE_FILL_AREA ( #145 ) ;
#171 = DIRECTION ( 'NONE',  ( 0.000000000000000000, -1.000000000000000000, -0.000000000000000000 ) ) ;
#172 = CIRCLE ( 'NONE', #234, 0.1249999999999999861 ) ;
#173 = ORIENTED_EDGE ( 'NONE', *, *, #32, .F. ) ;
#174 =( NAMED_UNIT ( * ) SI_UNIT ( $, .STERADIAN. ) SOLID_ANGLE_UNIT ( ) );
#175 = PRODUCT_DEFINITION_SHAPE ( 'NONE', 'NONE',  #197 ) ;
#176 = CIRCLE ( 'NONE', #22, 0.1249999999999999861 ) ;
#177 = CARTESIAN_POINT ( 'NONE',  ( 0.1250000000000000000, 2.500000000000000000, 1.530808498934192125E-17 ) ) ;
#178 = ORIENTED_EDGE ( 'NONE', *, *, #147, .F. ) ;
#179 = EDGE_CURVE ( 'NONE', #269, #306, #110, .T. ) ;
#180 = ORIENTED_EDGE ( 'NONE', *, *, #297, .F. ) ;
#181 = COLOUR_RGB ( '',1.000000000000000000, 0.000000000000000000, 0.000000000000000000 ) ;
#182 = CIRCLE ( 'NONE', #99, 0.1249999999999999861 ) ;
#183 = PRODUCT_RELATED_PRODUCT_CATEGORY ( 'part', '', ( #225 ) ) ;
#184 = CARTESIAN_POINT ( 'NONE',  ( 0.000000000000000000, 0.000000000000000000, 0.000000000000000000 ) ) ;
#185 = LINE ( 'NONE', #7, #45 ) ;
#186 = SURFACE_SIDE_STYLE ('',( #62 ) ) ;
#187 = FILL_AREA_STYLE ('',( #261 ) ) ;
#188 = UNCERTAINTY_MEASURE_WITH_UNIT (LENGTH_MEASURE( 1.000000000000000082E-05 ), #103, 'distance_accuracy_value', 'NONE');
#189 = EDGE_CURVE ( 'NONE', #262, #168, #172, .T. ) ;
#190 = FACE_OUTER_BOUND ( 'NONE', #154, .T. ) ;
#191 = VERTEX_POINT ( 'NONE', #167 ) ;
#192 = CARTESIAN_POINT ( 'NONE',  ( 0.000000000000000000, 0.000000000000000000, 0.000000000000000000 ) ) ;
#193 = EDGE_LOOP ( 'NONE', ( #86, #248 ) ) ;
#194 = DIRECTION ( 'NONE',  ( -3.061616997868383018E-17, 1.000000000000000000, -0.000000000000000000 ) ) ;
#195 = PRODUCT_CONTEXT ( 'NONE', #151, 'mechanical' ) ;
#196 = COLOUR_RGB ( '',0.7921568627450980005, 0.8196078431372548767, 0.9333333333333333481 ) ;
#197 = PRODUCT_DEFINITION ( 'UNKNOWN', '', #278, #38 ) ;
#198 = UNCERTAINTY_MEASURE_WITH_UNIT (LENGTH_MEASURE( 1.000000000000000082E-05 ), #109, 'distance_accuracy_value', 'NONE');
#199 =( NAMED_UNIT ( * ) SI_UNIT ( $, .STERADIAN. ) SOLID_ANGLE_UNIT ( ) );
#200 =( LENGTH_UNIT ( ) NAMED_UNIT ( * ) SI_UNIT ( $, .METRE. ) );
#201 = CARTESIAN_POINT ( 'NONE',  ( 0.1250000000000000000, 0.5000000000000001110, 1.530808498934192125E-17 ) ) ;
#202 = VERTEX_POINT ( 'NONE', #116 ) ;
#203 = CIRCLE ( 'NONE', #65, 0.1250000000000000000 ) ;
#204 = DIRECTION ( 'NONE',  ( -0.000000000000000000, -1.000000000000000000, -0.000000000000000000 ) ) ;
#205 = SURFACE_STYLE_USAGE ( .BOTH. , #186 ) ;
#206 = LENGTH_MEASURE_WITH_UNIT ( LENGTH_MEASURE( 0.02539999999999999897 ), #257 );
#207 = AXIS2_PLACEMENT_3D ( 'NONE', #134, #259, #231 ) ;
#208 = DIRECTION ( 'NONE',  ( -0.000000000000000000, -1.000000000000000000, -0.000000000000000000 ) ) ;
#209 = AXIS2_PLACEMENT_3D ( 'NONE', #131, #58, #254 ) ;
#210 = AXIS2_PLACEMENT_3D ( 'NONE', #16, #85, #286 ) ;
#211 = PRESENTATION_LAYER_ASSIGNMENT (  '', '', ( #273 ) ) ;
#212 = SURFACE_SIDE_STYLE ('',( #21 ) ) ;
#213 = CARTESIAN_POINT ( 'NONE',  ( 0.000000000000000000, 0.000000000000000000, 0.000000000000000000 ) ) ;
#214 = ORIENTED_EDGE ( 'NONE', *, *, #297, .T. ) ;
#215 = FILL_AREA_STYLE_COLOUR ( '', #289 ) ;
#216 = AXIS2_PLACEMENT_3D ( 'NONE', #213, #217, #94 ) ;
#217 = DIRECTION ( 'NONE',  ( -0.000000000000000000, -1.000000000000000000, -0.000000000000000000 ) ) ;
#218 =( CONVERSION_BASED_UNIT ( 'INCH', #253 ) LENGTH_UNIT ( ) NAMED_UNIT ( #139 ) );
#219 = EDGE_CURVE ( 'NONE', #202, #306, #265, .T. ) ;
#220 = ADVANCED_BREP_SHAPE_REPRESENTATION ( '01155', ( #19, #132, #247 ), #66 ) ;
#221 = AXIS2_PLACEMENT_3D ( 'NONE', #141, #92, #238 ) ;
#222 =( NAMED_UNIT ( * ) SI_UNIT ( $, .STERADIAN. ) SOLID_ANGLE_UNIT ( ) );
#223 = DIRECTION ( 'NONE',  ( 1.000000000000000000, 0.000000000000000000, 0.000000000000000000 ) ) ;
#224 = FILL_AREA_STYLE_COLOUR ( '', #181 ) ;
#225 = PRODUCT ( '01155', '01155', '', ( #195 ) ) ;
#226 = SURFACE_STYLE_FILL_AREA ( #275 ) ;
#227 = CARTESIAN_POINT ( 'NONE',  ( 0.000000000000000000, 0.000000000000000000, 0.000000000000000000 ) ) ;
#228 = CARTESIAN_POINT ( 'NONE',  ( 0.000000000000000000, 0.000000000000000000, -0.1250000000000000000 ) ) ;
#229 = CLOSED_SHELL ( 'NONE', ( #158, #165, #14, #123 ) ) ;
#230 = PRESENTATION_LAYER_ASSIGNMENT (  '', '', ( #61 ) ) ;
#231 = DIRECTION ( 'NONE',  ( 1.000000000000000000, 3.061616997868383018E-17, 0.000000000000000000 ) ) ;
#232 = SURFACE_STYLE_USAGE ( .BOTH. , #256 ) ;
#233 = DIMENSIONAL_EXPONENTS ( 1.000000000000000000, 0.000000000000000000, 0.000000000000000000, 0.000000000000000000, 0.000000000000000000, 0.000000000000000000, 0.000000000000000000 ) ;
#234 = AXIS2_PLACEMENT_3D ( 'NONE', #242, #13, #244 ) ;
#235 = PRESENTATION_STYLE_ASSIGNMENT (( #205 ) ) ;
#236 = CARTESIAN_POINT ( 'NONE',  ( 0.000000000000000000, 0.000000000000000000, 0.000000000000000000 ) ) ;
#237 = DIMENSIONAL_EXPONENTS ( 1.000000000000000000, 0.000000000000000000, 0.000000000000000000, 0.000000000000000000, 0.000000000000000000, 0.000000000000000000, 0.000000000000000000 ) ;
#238 = DIRECTION ( 'NONE',  ( -1.000000000000000000, 0.000000000000000000, 0.000000000000000000 ) ) ;
#239 = MECHANICAL_DESIGN_GEOMETRIC_PRESENTATION_REPRESENTATION (  '', ( #98 ), #307 ) ;
#240 = CIRCLE ( 'NONE', #216, 0.1250000000000000000 ) ;
#241 = VERTEX_POINT ( 'NONE', #46 ) ;
#242 = CARTESIAN_POINT ( 'NONE',  ( 0.000000000000000000, 0.5000000000000000000, 0.000000000000000000 ) ) ;
#243 = ORIENTED_EDGE ( 'NONE', *, *, #189, .F. ) ;
#244 = DIRECTION ( 'NONE',  ( 0.000000000000000000, 0.000000000000000000, -1.000000000000000000 ) ) ;
#245 = AXIS2_PLACEMENT_3D ( 'NONE', #33, #104, #80 ) ;
#246 = LENGTH_MEASURE_WITH_UNIT ( LENGTH_MEASURE( 0.02539999999999999897 ), #23 );
#247 = AXIS2_PLACEMENT_3D ( 'NONE', #124, #96, #223 ) ;
#248 = ORIENTED_EDGE ( 'NONE', *, *, #179, .T. ) ;
#249 = LENGTH_MEASURE_WITH_UNIT ( LENGTH_MEASURE( 0.02539999999999999897 ), #200 );
#250 = SHAPE_DEFINITION_REPRESENTATION ( #175, #220 ) ;
#251 = FACE_OUTER_BOUND ( 'NONE', #121, .T. ) ;
#252 = ADVANCED_FACE ( 'NONE', ( #17 ), #120, .T. ) ;
#253 = LENGTH_MEASURE_WITH_UNIT ( LENGTH_MEASURE( 0.02539999999999999897 ), #105 );
#254 = DIRECTION ( 'NONE',  ( -1.000000000000000000, 0.000000000000000000, 0.000000000000000000 ) ) ;
#255 =( GEOMETRIC_REPRESENTATION_CONTEXT ( 3 ) GLOBAL_UNCERTAINTY_ASSIGNED_CONTEXT ( ( #125 ) ) GLOBAL_UNIT_ASSIGNED_CONTEXT ( ( #284, #288, #43 ) ) REPRESENTATION_CONTEXT ( 'NONE', 'WORKASPACE' ) );
#256 = SURFACE_SIDE_STYLE ('',( #6 ) ) ;
#257 =( LENGTH_UNIT ( ) NAMED_UNIT ( * ) SI_UNIT ( $, .METRE. ) );
#258 = AXIS2_PLACEMENT_3D ( 'NONE', #102, #270, #74 ) ;
#259 = DIRECTION ( 'NONE',  ( 3.061616997868383018E-17, -1.000000000000000000, 0.000000000000000000 ) ) ;
#260 = FACE_OUTER_BOUND ( 'NONE', #193, .T. ) ;
#261 = FILL_AREA_STYLE_COLOUR ( '', #196 ) ;
#262 = VERTEX_POINT ( 'NONE', #152 ) ;
#263 = PRESENTATION_LAYER_ASSIGNMENT (  '', '', ( #63 ) ) ;
#264 =( GEOMETRIC_REPRESENTATION_CONTEXT ( 3 ) GLOBAL_UNCERTAINTY_ASSIGNED_CONTEXT ( ( #198 ) ) GLOBAL_UNIT_ASSIGNED_CONTEXT ( ( #109, #299, #164 ) ) REPRESENTATION_CONTEXT ( 'NONE', 'WORKASPACE' ) );
#265 = LINE ( 'NONE', #49, #115 ) ;
#266 = DIRECTION ( 'NONE',  ( -1.000000000000000000, 0.000000000000000000, 0.000000000000000000 ) ) ;
#267 = PRESENTATION_STYLE_ASSIGNMENT (( #117 ) ) ;
#268 =( LENGTH_UNIT ( ) NAMED_UNIT ( * ) SI_UNIT ( $, .METRE. ) );
#269 = VERTEX_POINT ( 'NONE', #177 ) ;
#270 = DIRECTION ( 'NONE',  ( -3.061616997868383018E-17, 1.000000000000000000, -0.000000000000000000 ) ) ;
#271 = EDGE_CURVE ( 'NONE', #168, #262, #176, .T. ) ;
#272 = ORIENTED_EDGE ( 'NONE', *, *, #271, .T. ) ;
#273 = STYLED_ITEM ( 'NONE', ( #267 ), #132 ) ;
#274 = FILL_AREA_STYLE_COLOUR ( '', #136 ) ;
#275 = FILL_AREA_STYLE ('',( #224 ) ) ;
#276 = EDGE_CURVE ( 'NONE', #202, #302, #39, .T. ) ;
#277 = FILL_AREA_STYLE_COLOUR ( '', #71 ) ;
#278 = PRODUCT_DEFINITION_FORMATION_WITH_SPECIFIED_SOURCE ( 'ANY', '', #225, .NOT_KNOWN. ) ;
#279 =( NAMED_UNIT ( * ) PLANE_ANGLE_UNIT ( ) SI_UNIT ( $, .RADIAN. ) );
#280 =( LENGTH_UNIT ( ) NAMED_UNIT ( * ) SI_UNIT ( $, .METRE. ) );
#281 = CYLINDRICAL_SURFACE ( 'NONE', #84, 0.1250000000000000000 ) ;
#282 = ORIENTED_EDGE ( 'NONE', *, *, #271, .F. ) ;
#283 = PLANE ( 'NONE',  #78 ) ;
#284 =( CONVERSION_BASED_UNIT ( 'INCH', #246 ) LENGTH_UNIT ( ) NAMED_UNIT ( #118 ) );
#285 = UNCERTAINTY_MEASURE_WITH_UNIT (LENGTH_MEASURE( 1.000000000000000082E-05 ), #107, 'distance_accuracy_value', 'NONE');
#286 = DIRECTION ( 'NONE',  ( -1.000000000000000000, 0.000000000000000000, 0.000000000000000000 ) ) ;
#287 = EDGE_CURVE ( 'NONE', #306, #269, #294, .T. ) ;
#288 =( NAMED_UNIT ( * ) PLANE_ANGLE_UNIT ( ) SI_UNIT ( $, .RADIAN. ) );
#289 = COLOUR_RGB ( '',1.000000000000000000, 0.000000000000000000, 0.000000000000000000 ) ;
#290 = DIRECTION ( 'NONE',  ( -3.061616997868383018E-17, 1.000000000000000000, -0.000000000000000000 ) ) ;
#291 =( NAMED_UNIT ( * ) PLANE_ANGLE_UNIT ( ) SI_UNIT ( $, .RADIAN. ) );
#292 = LINE ( 'NONE', #228, #35 ) ;
#293 =( LENGTH_UNIT ( ) NAMED_UNIT ( * ) SI_UNIT ( $, .METRE. ) );
#294 = CIRCLE ( 'NONE', #163, 0.1250000000000000555 ) ;
#295 = LENGTH_MEASURE_WITH_UNIT ( LENGTH_MEASURE( 0.02539999999999999897 ), #293 );
#296 = PRESENTATION_LAYER_ASSIGNMENT (  '', '', ( #106 ) ) ;
#297 = EDGE_CURVE ( 'NONE', #191, #241, #203, .T. ) ;
#298 = DIRECTION ( 'NONE',  ( -3.061616997868383018E-17, 1.000000000000000000, -0.000000000000000000 ) ) ;
#299 =( NAMED_UNIT ( * ) PLANE_ANGLE_UNIT ( ) SI_UNIT ( $, .RADIAN. ) );
#300 =( GEOMETRIC_REPRESENTATION_CONTEXT ( 3 ) GLOBAL_UNCERTAINTY_ASSIGNED_CONTEXT ( ( #28 ) ) GLOBAL_UNIT_ASSIGNED_CONTEXT ( ( #10, #279, #135 ) ) REPRESENTATION_CONTEXT ( 'NONE', 'WORKASPACE' ) );
#301 = DIMENSIONAL_EXPONENTS ( 1.000000000000000000, 0.000000000000000000, 0.000000000000000000, 0.000000000000000000, 0.000000000000000000, 0.000000000000000000, 0.000000000000000000 ) ;
#302 = VERTEX_POINT ( 'NONE', #201 ) ;
#303 = ORIENTED_EDGE ( 'NONE', *, *, #32, .T. ) ;
#304 =( GEOMETRIC_REPRESENTATION_CONTEXT ( 3 ) GLOBAL_UNCERTAINTY_ASSIGNED_CONTEXT ( ( #138 ) ) GLOBAL_UNIT_ASSIGNED_CONTEXT ( ( #25, #157, #199 ) ) REPRESENTATION_CONTEXT ( 'NONE', 'WORKASPACE' ) );
#305 = CARTESIAN_POINT ( 'NONE',  ( 5.858436651022881281E-35, 0.5000000000000000000, 0.000000000000000000 ) ) ;
#306 = VERTEX_POINT ( 'NONE', #1 ) ;
#307 =( GEOMETRIC_REPRESENTATION_CONTEXT ( 3 ) GLOBAL_UNCERTAINTY_ASSIGNED_CONTEXT ( ( #188 ) ) GLOBAL_UNIT_ASSIGNED_CONTEXT ( ( #103, #156, #222 ) ) REPRESENTATION_CONTEXT ( 'NONE', 'WORKASPACE' ) );
#308 = DIRECTION ( 'NONE',  ( 0.000000000000000000, 0.000000000000000000, -1.000000000000000000 ) ) ;
#309 = SURFACE_SIDE_STYLE ('',( #130 ) ) ;
ENDSEC;
END-ISO-10303-21;
