ISO-10303-21;
HEADER;
FILE_DESCRIPTION (( 'STEP AP214' ),
    '1' );
FILE_NAME ('83740.STEP',
    '2023-07-05T19:23:20',
    ( '' ),
    ( '' ),
    'SwSTEP 2.0',
    'SolidWorks 2023',
    '' );
FILE_SCHEMA (( 'AUTOMOTIVE_DESIGN' ));
ENDSEC;

DATA;
#1 = DIRECTION ( 'NONE',  ( 0.000000000000000000, 0.000000000000000000, 1.000000000000000000 ) ) ;
#2 = VECTOR ( 'NONE', #139, 39.37007874015748143 ) ;
#3 = DIMENSIONAL_EXPONENTS ( 1.000000000000000000, 0.000000000000000000, 0.000000000000000000, 0.000000000000000000, 0.000000000000000000, 0.000000000000000000, 0.000000000000000000 ) ;
#4 = SURFACE_SIDE_STYLE ('',( #108 ) ) ;
#5 = DIRECTION ( 'NONE',  ( 0.000000000000000000, 0.000000000000000000, 1.000000000000000000 ) ) ;
#6 = CARTESIAN_POINT ( 'NONE',  ( 0.000000000000000000, 0.000000000000000000, 0.000000000000000000 ) ) ;
#7 = CYLINDRICAL_SURFACE ( 'NONE', #79, 0.06249999999999999306 ) ;
#8 = SURFACE_SIDE_STYLE ('',( #242 ) ) ;
#9 = DIRECTION ( 'NONE',  ( -0.000000000000000000, 1.000000000000000000, -0.000000000000000000 ) ) ;
#10 = PRESENTATION_LAYER_ASSIGNMENT (  '', '', ( #95 ) ) ;
#11 = APPLICATION_PROTOCOL_DEFINITION ( 'draft international standard', 'automotive_design', 1998, #189 ) ;
#12 = SURFACE_SIDE_STYLE ('',( #342 ) ) ;
#13 = VERTEX_POINT ( 'NONE', #96 ) ;
#14 = PRODUCT_DEFINITION_CONTEXT ( 'detailed design', #189, 'design' ) ;
#15 = FILL_AREA_STYLE_COLOUR ( '', #52 ) ;
#16 = PRESENTATION_STYLE_ASSIGNMENT (( #150 ) ) ;
#17 = CARTESIAN_POINT ( 'NONE',  ( 0.06249999999999999306, 1.500000000000000222, 0.000000000000000000 ) ) ;
#18 = PRESENTATION_LAYER_ASSIGNMENT (  '', '', ( #307 ) ) ;
#19 = EDGE_LOOP ( 'NONE', ( #46, #284, #280, #146 ) ) ;
#20 = UNCERTAINTY_MEASURE_WITH_UNIT (LENGTH_MEASURE( 1.000000000000000082E-05 ), #21, 'distance_accuracy_value', 'NONE');
#21 =( CONVERSION_BASED_UNIT ( 'INCH', #287 ) LENGTH_UNIT ( ) NAMED_UNIT ( #28 ) );
#22 = CARTESIAN_POINT ( 'NONE',  ( 0.000000000000000000, 1.500000000000000222, 0.000000000000000000 ) ) ;
#23 = MANIFOLD_SOLID_BREP ( 'Revolve - Tool Body (Straight Shanked)', #313 ) ;
#24 =( NAMED_UNIT ( * ) PLANE_ANGLE_UNIT ( ) SI_UNIT ( $, .RADIAN. ) );
#25 = SURFACE_STYLE_FILL_AREA ( #299 ) ;
#26 = FACE_OUTER_BOUND ( 'NONE', #315, .T. ) ;
#27 = CARTESIAN_POINT ( 'NONE',  ( 0.000000000000000000, 0.5000000000000001110, 0.06249999999999999306 ) ) ;
#28 = DIMENSIONAL_EXPONENTS ( 1.000000000000000000, 0.000000000000000000, 0.000000000000000000, 0.000000000000000000, 0.000000000000000000, 0.000000000000000000, 0.000000000000000000 ) ;
#29 = CARTESIAN_POINT ( 'NONE',  ( 0.000000000000000000, 0.5000000000000001110, 0.000000000000000000 ) ) ;
#30 = CIRCLE ( 'NONE', #115, 0.06249999999999999306 ) ;
#31 = CARTESIAN_POINT ( 'NONE',  ( 7.654042494670956004E-18, 1.500000000000000222, -0.06249999999999999306 ) ) ;
#32 = SURFACE_STYLE_USAGE ( .BOTH. , #8 ) ;
#33 = DIRECTION ( 'NONE',  ( -0.000000000000000000, -1.000000000000000000, -0.000000000000000000 ) ) ;
#34 = CARTESIAN_POINT ( 'NONE',  ( 0.000000000000000000, 39.37007874015748143, 0.000000000000000000 ) ) ;
#35 = DIRECTION ( 'NONE',  ( 6.123233995736778362E-17, 0.8660254037844380415, -0.5000000000000009992 ) ) ;
#36 = CARTESIAN_POINT ( 'NONE',  ( 0.000000000000000000, 0.1082531754730545193, 0.000000000000000000 ) ) ;
#37 = LENGTH_MEASURE_WITH_UNIT ( LENGTH_MEASURE( 0.02539999999999999897 ), #227 );
#38 = ORIENTED_EDGE ( 'NONE', *, *, #104, .F. ) ;
#39 = COLOUR_RGB ( '',1.000000000000000000, 0.000000000000000000, 0.000000000000000000 ) ;
#40 = DIRECTION ( 'NONE',  ( -0.000000000000000000, -1.000000000000000000, -0.000000000000000000 ) ) ;
#41 = VERTEX_POINT ( 'NONE', #336 ) ;
#42 = EDGE_LOOP ( 'NONE', ( #258, #338 ) ) ;
#43 = SURFACE_SIDE_STYLE ('',( #226 ) ) ;
#44 =( NAMED_UNIT ( * ) PLANE_ANGLE_UNIT ( ) SI_UNIT ( $, .RADIAN. ) );
#45 = EDGE_CURVE ( 'NONE', #231, #199, #204, .T. ) ;
#46 = ORIENTED_EDGE ( 'NONE', *, *, #214, .T. ) ;
#47 = VECTOR ( 'NONE', #82, 39.37007874015748143 ) ;
#48 = VECTOR ( 'NONE', #9, 39.37007874015748143 ) ;
#49 = DIRECTION ( 'NONE',  ( 0.000000000000000000, 0.000000000000000000, -1.000000000000000000 ) ) ;
#50 =( LENGTH_UNIT ( ) NAMED_UNIT ( * ) SI_UNIT ( $, .METRE. ) );
#51 = PRESENTATION_STYLE_ASSIGNMENT (( #126 ) ) ;
#52 = COLOUR_RGB ( '',0.7921568627450980005, 0.8196078431372548767, 0.9333333333333333481 ) ;
#53 =( GEOMETRIC_REPRESENTATION_CONTEXT ( 3 ) GLOBAL_UNCERTAINTY_ASSIGNED_CONTEXT ( ( #292 ) ) GLOBAL_UNIT_ASSIGNED_CONTEXT ( ( #131, #64, #222 ) ) REPRESENTATION_CONTEXT ( 'NONE', 'WORKASPACE' ) );
#54 = FILL_AREA_STYLE ('',( #206 ) ) ;
#55 = CYLINDRICAL_SURFACE ( 'NONE', #318, 0.06249999999999999306 ) ;
#56 = ADVANCED_FACE ( 'NONE', ( #80 ), #184, .T. ) ;
#57 = DIMENSIONAL_EXPONENTS ( 1.000000000000000000, 0.000000000000000000, 0.000000000000000000, 0.000000000000000000, 0.000000000000000000, 0.000000000000000000, 0.000000000000000000 ) ;
#58 =( NAMED_UNIT ( * ) PLANE_ANGLE_UNIT ( ) SI_UNIT ( $, .RADIAN. ) );
#59 = LENGTH_MEASURE_WITH_UNIT ( LENGTH_MEASURE( 0.02539999999999999897 ), #50 );
#60 =( GEOMETRIC_REPRESENTATION_CONTEXT ( 3 ) GLOBAL_UNCERTAINTY_ASSIGNED_CONTEXT ( ( #252 ) ) GLOBAL_UNIT_ASSIGNED_CONTEXT ( ( #329, #132, #78 ) ) REPRESENTATION_CONTEXT ( 'NONE', 'WORKASPACE' ) );
#61 = CIRCLE ( 'NONE', #268, 0.06249999999999999306 ) ;
#62 = DIRECTION ( 'NONE',  ( 0.000000000000000000, 0.000000000000000000, -1.000000000000000000 ) ) ;
#63 = FILL_AREA_STYLE_COLOUR ( '', #334 ) ;
#64 =( NAMED_UNIT ( * ) PLANE_ANGLE_UNIT ( ) SI_UNIT ( $, .RADIAN. ) );
#65 = DIRECTION ( 'NONE',  ( 0.000000000000000000, 0.000000000000000000, 1.000000000000000000 ) ) ;
#66 =( LENGTH_UNIT ( ) NAMED_UNIT ( * ) SI_UNIT ( $, .METRE. ) );
#67 = VECTOR ( 'NONE', #35, 39.37007874015748143 ) ;
#68 =( GEOMETRIC_REPRESENTATION_CONTEXT ( 3 ) GLOBAL_UNCERTAINTY_ASSIGNED_CONTEXT ( ( #257 ) ) GLOBAL_UNIT_ASSIGNED_CONTEXT ( ( #219, #194, #170 ) ) REPRESENTATION_CONTEXT ( 'NONE', 'WORKASPACE' ) );
#69 = CARTESIAN_POINT ( 'NONE',  ( 0.000000000000000000, 0.5000000000000001110, 0.000000000000000000 ) ) ;
#70 = DIRECTION ( 'NONE',  ( -0.000000000000000000, 1.000000000000000000, -0.000000000000000000 ) ) ;
#71 = UNCERTAINTY_MEASURE_WITH_UNIT (LENGTH_MEASURE( 1.000000000000000082E-05 ), #103, 'distance_accuracy_value', 'NONE');
#72 = EDGE_LOOP ( 'NONE', ( #282, #175, #311, #277 ) ) ;
#73 = EDGE_LOOP ( 'NONE', ( #177, #74, #253 ) ) ;
#74 = ORIENTED_EDGE ( 'NONE', *, *, #83, .T. ) ;
#75 = PRODUCT_CONTEXT ( 'NONE', #306, 'mechanical' ) ;
#76 = VERTEX_POINT ( 'NONE', #27 ) ;
#77 = DIRECTION ( 'NONE',  ( 0.000000000000000000, -0.000000000000000000, 1.000000000000000000 ) ) ;
#78 =( NAMED_UNIT ( * ) SI_UNIT ( $, .STERADIAN. ) SOLID_ANGLE_UNIT ( ) );
#79 = AXIS2_PLACEMENT_3D ( 'NONE', #114, #217, #330 ) ;
#80 = FACE_OUTER_BOUND ( 'NONE', #173, .T. ) ;
#81 = DIRECTION ( 'NONE',  ( -0.000000000000000000, 1.000000000000000000, 0.000000000000000000 ) ) ;
#82 = DIRECTION ( 'NONE',  ( 0.000000000000000000, 0.8660254037844380415, 0.5000000000000009992 ) ) ;
#83 = EDGE_CURVE ( 'NONE', #116, #199, #236, .T. ) ;
#84 = PRESENTATION_STYLE_ASSIGNMENT (( #32 ) ) ;
#85 = DIRECTION ( 'NONE',  ( -0.000000000000000000, 1.000000000000000000, -0.000000000000000000 ) ) ;
#86 = PRESENTATION_LAYER_ASSIGNMENT (  '', '', ( #145 ) ) ;
#87 = FACE_OUTER_BOUND ( 'NONE', #124, .T. ) ;
#88 =( CONVERSION_BASED_UNIT ( 'INCH', #291 ) LENGTH_UNIT ( ) NAMED_UNIT ( #3 ) );
#89 = AXIS2_PLACEMENT_3D ( 'NONE', #118, #93, #154 ) ;
#90 =( LENGTH_UNIT ( ) NAMED_UNIT ( * ) SI_UNIT ( $, .METRE. ) );
#91 = ADVANCED_FACE ( 'NONE', ( #230 ), #261, .T. ) ;
#92 = ORIENTED_EDGE ( 'NONE', *, *, #278, .T. ) ;
#93 = DIRECTION ( 'NONE',  ( 0.000000000000000000, 0.000000000000000000, 1.000000000000000000 ) ) ;
#94 = VERTEX_POINT ( 'NONE', #267 ) ;
#95 = STYLED_ITEM ( 'NONE', ( #16 ), #91 ) ;
#96 = CARTESIAN_POINT ( 'NONE',  ( 7.654042494670956004E-18, 0.5000000000000001110, 0.06249999999999999306 ) ) ;
#97 = AXIS2_PLACEMENT_3D ( 'NONE', #271, #33, #195 ) ;
#98 = PRESENTATION_STYLE_ASSIGNMENT (( #248 ) ) ;
#99 = SHAPE_DEFINITION_REPRESENTATION ( #188, #162 ) ;
#100 =( LENGTH_UNIT ( ) NAMED_UNIT ( * ) SI_UNIT ( $, .METRE. ) );
#101 = AXIS2_PLACEMENT_3D ( 'NONE', #176, #289, #49 ) ;
#102 = AXIS2_PLACEMENT_3D ( 'NONE', #192, #303, #62 ) ;
#103 =( CONVERSION_BASED_UNIT ( 'INCH', #59 ) LENGTH_UNIT ( ) NAMED_UNIT ( #133 ) );
#104 = EDGE_CURVE ( 'NONE', #94, #41, #30, .T. ) ;
#105 = CYLINDRICAL_SURFACE ( 'NONE', #97, 0.06249999999999999306 ) ;
#106 = LINE ( 'NONE', #265, #244 ) ;
#107 = EDGE_CURVE ( 'NONE', #116, #231, #218, .T. ) ;
#108 = SURFACE_STYLE_FILL_AREA ( #54 ) ;
#109 = AXIS2_PLACEMENT_3D ( 'NONE', #112, #85, #328 ) ;
#110 = SURFACE_STYLE_USAGE ( .BOTH. , #4 ) ;
#111 = DIRECTION ( 'NONE',  ( 0.000000000000000000, 0.000000000000000000, 1.000000000000000000 ) ) ;
#112 = CARTESIAN_POINT ( 'NONE',  ( 0.000000000000000000, 0.5000000000000001110, 0.000000000000000000 ) ) ;
#113 = CARTESIAN_POINT ( 'NONE',  ( 7.654042494670956004E-18, 0.000000000000000000, 0.06249999999999999306 ) ) ;
#114 = CARTESIAN_POINT ( 'NONE',  ( 0.000000000000000000, 1.500000000000000222, 0.000000000000000000 ) ) ;
#115 = AXIS2_PLACEMENT_3D ( 'NONE', #304, #169, #111 ) ;
#116 = VERTEX_POINT ( 'NONE', #275 ) ;
#117 = LENGTH_MEASURE_WITH_UNIT ( LENGTH_MEASURE( 0.02539999999999999897 ), #90 );
#118 = CARTESIAN_POINT ( 'NONE',  ( 0.000000000000000000, 0.000000000000000000, 0.000000000000000000 ) ) ;
#119 = ORIENTED_EDGE ( 'NONE', *, *, #107, .T. ) ;
#120 =( CONVERSION_BASED_UNIT ( 'INCH', #37 ) LENGTH_UNIT ( ) NAMED_UNIT ( #216 ) );
#121 = MECHANICAL_DESIGN_GEOMETRIC_PRESENTATION_REPRESENTATION (  '', ( #307 ), #151 ) ;
#122 = FILL_AREA_STYLE ('',( #15 ) ) ;
#123 = AXIS2_PLACEMENT_3D ( 'NONE', #234, #235, #77 ) ;
#124 = EDGE_LOOP ( 'NONE', ( #245, #305 ) ) ;
#125 = DIRECTION ( 'NONE',  ( -0.000000000000000000, -1.000000000000000000, -0.000000000000000000 ) ) ;
#126 = SURFACE_STYLE_USAGE ( .BOTH. , #320 ) ;
#127 = PRODUCT ( '83740', '83740', '', ( #75 ) ) ;
#128 = PRESENTATION_LAYER_ASSIGNMENT (  '', '', ( #238 ) ) ;
#129 = AXIS2_PLACEMENT_3D ( 'NONE', #247, #40, #160 ) ;
#130 = PRESENTATION_LAYER_ASSIGNMENT (  '', '', ( #349 ) ) ;
#131 =( CONVERSION_BASED_UNIT ( 'INCH', #117 ) LENGTH_UNIT ( ) NAMED_UNIT ( #57 ) );
#132 =( NAMED_UNIT ( * ) PLANE_ANGLE_UNIT ( ) SI_UNIT ( $, .RADIAN. ) );
#133 = DIMENSIONAL_EXPONENTS ( 1.000000000000000000, 0.000000000000000000, 0.000000000000000000, 0.000000000000000000, 0.000000000000000000, 0.000000000000000000, 0.000000000000000000 ) ;
#134 = EDGE_CURVE ( 'NONE', #13, #199, #272, .T. ) ;
#135 = SURFACE_STYLE_USAGE ( .BOTH. , #269 ) ;
#136 = FILL_AREA_STYLE ('',( #63 ) ) ;
#137 = DIMENSIONAL_EXPONENTS ( 1.000000000000000000, 0.000000000000000000, 0.000000000000000000, 0.000000000000000000, 0.000000000000000000, 0.000000000000000000, 0.000000000000000000 ) ;
#138 = PRESENTATION_LAYER_ASSIGNMENT (  '', '', ( #335 ) ) ;
#139 = DIRECTION ( 'NONE',  ( -0.000000000000000000, -1.000000000000000000, -0.000000000000000000 ) ) ;
#140 = ORIENTED_EDGE ( 'NONE', *, *, #214, .F. ) ;
#141 = DIRECTION ( 'NONE',  ( -0.000000000000000000, -1.000000000000000000, -0.000000000000000000 ) ) ;
#142 = CARTESIAN_POINT ( 'NONE',  ( 0.000000000000000000, 0.5000000000000001110, -0.06249999999999999306 ) ) ;
#143 =( NAMED_UNIT ( * ) SI_UNIT ( $, .STERADIAN. ) SOLID_ANGLE_UNIT ( ) );
#144 = AXIS2_PLACEMENT_3D ( 'NONE', #29, #81, #210 ) ;
#145 = STYLED_ITEM ( 'NONE', ( #243 ), #259 ) ;
#146 = ORIENTED_EDGE ( 'NONE', *, *, #211, .F. ) ;
#147 = ORIENTED_EDGE ( 'NONE', *, *, #300, .F. ) ;
#148 = EDGE_CURVE ( 'NONE', #251, #94, #326, .T. ) ;
#149 = ORIENTED_EDGE ( 'NONE', *, *, #288, .T. ) ;
#150 = SURFACE_STYLE_USAGE ( .BOTH. , #43 ) ;
#151 =( GEOMETRIC_REPRESENTATION_CONTEXT ( 3 ) GLOBAL_UNCERTAINTY_ASSIGNED_CONTEXT ( ( #20 ) ) GLOBAL_UNIT_ASSIGNED_CONTEXT ( ( #21, #346, #157 ) ) REPRESENTATION_CONTEXT ( 'NONE', 'WORKASPACE' ) );
#152 = ORIENTED_EDGE ( 'NONE', *, *, #45, .T. ) ;
#153 = CIRCLE ( 'NONE', #102, 0.06249999999999999306 ) ;
#154 = DIRECTION ( 'NONE',  ( 1.000000000000000000, 0.000000000000000000, 0.000000000000000000 ) ) ;
#155 = SURFACE_STYLE_USAGE ( .BOTH. , #293 ) ;
#156 = PRODUCT_RELATED_PRODUCT_CATEGORY ( 'part', '', ( #127 ) ) ;
#157 =( NAMED_UNIT ( * ) SI_UNIT ( $, .STERADIAN. ) SOLID_ANGLE_UNIT ( ) );
#158 = CIRCLE ( 'NONE', #296, 0.06249999999999999306 ) ;
#159 = DIRECTION ( 'NONE',  ( 0.000000000000000000, 0.000000000000000000, 1.000000000000000000 ) ) ;
#160 = DIRECTION ( 'NONE',  ( 0.000000000000000000, 0.000000000000000000, -1.000000000000000000 ) ) ;
#161 = PLANE ( 'NONE',  #144 ) ;
#162 = ADVANCED_BREP_SHAPE_REPRESENTATION ( '83740', ( #259, #23, #89 ), #197 ) ;
#163 = PLANE ( 'NONE',  #123 ) ;
#164 = MECHANICAL_DESIGN_GEOMETRIC_PRESENTATION_REPRESENTATION (  '', ( #335 ), #53 ) ;
#165 = ADVANCED_FACE ( 'NONE', ( #215 ), #348, .T. ) ;
#166 = FACE_OUTER_BOUND ( 'NONE', #72, .T. ) ;
#167 =( NAMED_UNIT ( * ) SI_UNIT ( $, .STERADIAN. ) SOLID_ANGLE_UNIT ( ) );
#168 = CARTESIAN_POINT ( 'NONE',  ( 7.654042494670956004E-18, 0.5000000000000001110, -0.06249999999999999306 ) ) ;
#169 = DIRECTION ( 'NONE',  ( -0.000000000000000000, 1.000000000000000000, -0.000000000000000000 ) ) ;
#170 =( NAMED_UNIT ( * ) SI_UNIT ( $, .STERADIAN. ) SOLID_ANGLE_UNIT ( ) );
#171 = FILL_AREA_STYLE ('',( #274 ) ) ;
#172 = PRODUCT_DEFINITION ( 'UNKNOWN', '', #281, #14 ) ;
#173 = EDGE_LOOP ( 'NONE', ( #202, #198, #229, #316 ) ) ;
#174 = MECHANICAL_DESIGN_GEOMETRIC_PRESENTATION_REPRESENTATION (  '', ( #349 ), #256 ) ;
#175 = ORIENTED_EDGE ( 'NONE', *, *, #148, .T. ) ;
#176 = CARTESIAN_POINT ( 'NONE',  ( 0.000000000000000000, 0.1082531754730545193, 0.000000000000000000 ) ) ;
#177 = ORIENTED_EDGE ( 'NONE', *, *, #107, .F. ) ;
#178 = ADVANCED_FACE ( 'NONE', ( #190 ), #161, .F. ) ;
#179 = MECHANICAL_DESIGN_GEOMETRIC_PRESENTATION_REPRESENTATION (  '', ( #238 ), #60 ) ;
#180 = AXIS2_PLACEMENT_3D ( 'NONE', #17, #339, #283 ) ;
#181 = COLOUR_RGB ( '',0.7921568627450980005, 0.8196078431372548767, 0.9333333333333333481 ) ;
#182 = ADVANCED_FACE ( 'NONE', ( #290 ), #55, .T. ) ;
#183 = DIRECTION ( 'NONE',  ( -0.000000000000000000, 1.000000000000000000, -0.000000000000000000 ) ) ;
#184 = CYLINDRICAL_SURFACE ( 'NONE', #129, 0.06249999999999999306 ) ;
#185 = DIRECTION ( 'NONE',  ( 0.000000000000000000, 0.000000000000000000, 1.000000000000000000 ) ) ;
#186 = CIRCLE ( 'NONE', #308, 0.06249999999999999306 ) ;
#187 =( LENGTH_UNIT ( ) NAMED_UNIT ( * ) SI_UNIT ( $, .METRE. ) );
#188 = PRODUCT_DEFINITION_SHAPE ( 'NONE', 'NONE',  #172 ) ;
#189 = APPLICATION_CONTEXT ( 'automotive_design' ) ;
#190 = FACE_OUTER_BOUND ( 'NONE', #42, .T. ) ;
#191 = PRESENTATION_LAYER_ASSIGNMENT (  '', '', ( #295 ) ) ;
#192 = CARTESIAN_POINT ( 'NONE',  ( 0.000000000000000000, 0.5000000000000001110, 0.000000000000000000 ) ) ;
#193 = PLANE ( 'NONE',  #180 ) ;
#194 =( NAMED_UNIT ( * ) PLANE_ANGLE_UNIT ( ) SI_UNIT ( $, .RADIAN. ) );
#195 = DIRECTION ( 'NONE',  ( 0.000000000000000000, 0.000000000000000000, -1.000000000000000000 ) ) ;
#196 = VECTOR ( 'NONE', #270, 39.37007874015748143 ) ;
#197 =( GEOMETRIC_REPRESENTATION_CONTEXT ( 3 ) GLOBAL_UNCERTAINTY_ASSIGNED_CONTEXT ( ( #201 ) ) GLOBAL_UNIT_ASSIGNED_CONTEXT ( ( #120, #44, #203 ) ) REPRESENTATION_CONTEXT ( 'NONE', 'WORKASPACE' ) );
#198 = ORIENTED_EDGE ( 'NONE', *, *, #300, .T. ) ;
#199 = VERTEX_POINT ( 'NONE', #294 ) ;
#200 =( CONVERSION_BASED_UNIT ( 'INCH', #224 ) LENGTH_UNIT ( ) NAMED_UNIT ( #324 ) );
#201 = UNCERTAINTY_MEASURE_WITH_UNIT (LENGTH_MEASURE( 1.000000000000000082E-05 ), #120, 'distance_accuracy_value', 'NONE');
#202 = ORIENTED_EDGE ( 'NONE', *, *, #134, .F. ) ;
#203 =( NAMED_UNIT ( * ) SI_UNIT ( $, .STERADIAN. ) SOLID_ANGLE_UNIT ( ) );
#204 = CIRCLE ( 'NONE', #101, 0.06249999999999999306 ) ;
#205 = AXIS2_PLACEMENT_3D ( 'NONE', #34, #260, #159 ) ;
#206 = FILL_AREA_STYLE_COLOUR ( '', #323 ) ;
#207 = PRESENTATION_STYLE_ASSIGNMENT (( #155 ) ) ;
#208 = CARTESIAN_POINT ( 'NONE',  ( 0.000000000000000000, 0.5000000000000001110, 0.000000000000000000 ) ) ;
#209 = FILL_AREA_STYLE_COLOUR ( '', #321 ) ;
#210 = DIRECTION ( 'NONE',  ( 0.000000000000000000, 0.000000000000000000, 1.000000000000000000 ) ) ;
#211 = EDGE_CURVE ( 'NONE', #254, #231, #106, .T. ) ;
#212 = PRESENTATION_STYLE_ASSIGNMENT (( #110 ) ) ;
#213 = SURFACE_STYLE_FILL_AREA ( #171 ) ;
#214 = EDGE_CURVE ( 'NONE', #254, #13, #186, .T. ) ;
#215 = FACE_OUTER_BOUND ( 'NONE', #73, .T. ) ;
#216 = DIMENSIONAL_EXPONENTS ( 1.000000000000000000, 0.000000000000000000, 0.000000000000000000, 0.000000000000000000, 0.000000000000000000, 0.000000000000000000, 0.000000000000000000 ) ;
#217 = DIRECTION ( 'NONE',  ( -0.000000000000000000, 1.000000000000000000, -0.000000000000000000 ) ) ;
#218 = LINE ( 'NONE', #6, #67 ) ;
#219 =( CONVERSION_BASED_UNIT ( 'INCH', #332 ) LENGTH_UNIT ( ) NAMED_UNIT ( #327 ) );
#220 = ADVANCED_FACE ( 'NONE', ( #26 ), #163, .T. ) ;
#221 = EDGE_LOOP ( 'NONE', ( #337, #149, #92, #38 ) ) ;
#222 =( NAMED_UNIT ( * ) SI_UNIT ( $, .STERADIAN. ) SOLID_ANGLE_UNIT ( ) );
#223 = EDGE_CURVE ( 'NONE', #41, #94, #158, .T. ) ;
#224 = LENGTH_MEASURE_WITH_UNIT ( LENGTH_MEASURE( 0.02539999999999999897 ), #100 );
#225 = ORIENTED_EDGE ( 'NONE', *, *, #83, .F. ) ;
#226 = SURFACE_STYLE_FILL_AREA ( #322 ) ;
#227 =( LENGTH_UNIT ( ) NAMED_UNIT ( * ) SI_UNIT ( $, .METRE. ) );
#228 = COLOUR_RGB ( '',1.000000000000000000, 0.000000000000000000, 0.000000000000000000 ) ;
#229 = ORIENTED_EDGE ( 'NONE', *, *, #211, .T. ) ;
#230 = FACE_OUTER_BOUND ( 'NONE', #285, .T. ) ;
#231 = VERTEX_POINT ( 'NONE', #301 ) ;
#232 = FILL_AREA_STYLE ('',( #319 ) ) ;
#233 = SURFACE_STYLE_FILL_AREA ( #232 ) ;
#234 = CARTESIAN_POINT ( 'NONE',  ( 0.000000000000000000, 0.5000000000000001110, 0.000000000000000000 ) ) ;
#235 = DIRECTION ( 'NONE',  ( 0.000000000000000000, 1.000000000000000000, 0.000000000000000000 ) ) ;
#236 = LINE ( 'NONE', #325, #47 ) ;
#237 = ADVANCED_FACE ( 'NONE', ( #266 ), #105, .T. ) ;
#238 = STYLED_ITEM ( 'NONE', ( #84 ), #165 ) ;
#239 = DIRECTION ( 'NONE',  ( 0.000000000000000000, 0.000000000000000000, -1.000000000000000000 ) ) ;
#240 =( LENGTH_UNIT ( ) NAMED_UNIT ( * ) SI_UNIT ( $, .METRE. ) );
#241 = DIRECTION ( 'NONE',  ( 0.000000000000000000, 0.000000000000000000, -1.000000000000000000 ) ) ;
#242 = SURFACE_STYLE_FILL_AREA ( #136 ) ;
#243 = PRESENTATION_STYLE_ASSIGNMENT (( #135 ) ) ;
#244 = VECTOR ( 'NONE', #263, 39.37007874015748143 ) ;
#245 = ORIENTED_EDGE ( 'NONE', *, *, #223, .T. ) ;
#246 = CARTESIAN_POINT ( 'NONE',  ( 0.000000000000000000, 1.500000000000000222, 0.06249999999999999306 ) ) ;
#247 = CARTESIAN_POINT ( 'NONE',  ( 0.000000000000000000, 0.000000000000000000, 0.000000000000000000 ) ) ;
#248 = SURFACE_STYLE_USAGE ( .BOTH. , #12 ) ;
#249 = CLOSED_SHELL ( 'NONE', ( #91, #237, #220, #56, #165 ) ) ;
#250 = CIRCLE ( 'NONE', #109, 0.06249999999999999306 ) ;
#251 = VERTEX_POINT ( 'NONE', #168 ) ;
#252 = UNCERTAINTY_MEASURE_WITH_UNIT (LENGTH_MEASURE( 1.000000000000000082E-05 ), #329, 'distance_accuracy_value', 'NONE');
#253 = ORIENTED_EDGE ( 'NONE', *, *, #273, .T. ) ;
#254 = VERTEX_POINT ( 'NONE', #142 ) ;
#255 =( GEOMETRIC_REPRESENTATION_CONTEXT ( 3 ) GLOBAL_UNCERTAINTY_ASSIGNED_CONTEXT ( ( #350 ) ) GLOBAL_UNIT_ASSIGNED_CONTEXT ( ( #200, #312, #143 ) ) REPRESENTATION_CONTEXT ( 'NONE', 'WORKASPACE' ) );
#256 =( GEOMETRIC_REPRESENTATION_CONTEXT ( 3 ) GLOBAL_UNCERTAINTY_ASSIGNED_CONTEXT ( ( #71 ) ) GLOBAL_UNIT_ASSIGNED_CONTEXT ( ( #103, #24, #347 ) ) REPRESENTATION_CONTEXT ( 'NONE', 'WORKASPACE' ) );
#257 = UNCERTAINTY_MEASURE_WITH_UNIT (LENGTH_MEASURE( 1.000000000000000082E-05 ), #219, 'distance_accuracy_value', 'NONE');
#258 = ORIENTED_EDGE ( 'NONE', *, *, #279, .F. ) ;
#259 = MANIFOLD_SOLID_BREP ( 'Revolve - Cutting Edge', #249 ) ;
#260 = DIRECTION ( 'NONE',  ( 0.000000000000000000, 1.000000000000000000, 0.000000000000000000 ) ) ;
#261 = CONICAL_SURFACE ( 'NONE', #333, 22.73032555864674364, 0.5235987755983000369 ) ;
#262 = MECHANICAL_DESIGN_GEOMETRIC_PRESENTATION_REPRESENTATION (  '', ( #145 ), #68 ) ;
#263 = DIRECTION ( 'NONE',  ( -0.000000000000000000, -1.000000000000000000, -0.000000000000000000 ) ) ;
#264 = UNCERTAINTY_MEASURE_WITH_UNIT (LENGTH_MEASURE( 1.000000000000000082E-05 ), #88, 'distance_accuracy_value', 'NONE');
#265 = CARTESIAN_POINT ( 'NONE',  ( 0.000000000000000000, 0.000000000000000000, -0.06249999999999999306 ) ) ;
#266 = FACE_OUTER_BOUND ( 'NONE', #19, .T. ) ;
#267 = CARTESIAN_POINT ( 'NONE',  ( 7.654042494670956004E-18, 1.500000000000000222, -0.06249999999999999306 ) ) ;
#268 = AXIS2_PLACEMENT_3D ( 'NONE', #69, #70, #5 ) ;
#269 = SURFACE_SIDE_STYLE ('',( #213 ) ) ;
#270 = DIRECTION ( 'NONE',  ( -0.000000000000000000, 1.000000000000000000, -0.000000000000000000 ) ) ;
#271 = CARTESIAN_POINT ( 'NONE',  ( 0.000000000000000000, 0.000000000000000000, 0.000000000000000000 ) ) ;
#272 = LINE ( 'NONE', #113, #2 ) ;
#273 = EDGE_CURVE ( 'NONE', #199, #231, #341, .T. ) ;
#274 = FILL_AREA_STYLE_COLOUR ( '', #181 ) ;
#275 = CARTESIAN_POINT ( 'NONE',  ( 0.000000000000000000, 0.000000000000000000, 0.000000000000000000 ) ) ;
#276 =( GEOMETRIC_REPRESENTATION_CONTEXT ( 3 ) GLOBAL_UNCERTAINTY_ASSIGNED_CONTEXT ( ( #264 ) ) GLOBAL_UNIT_ASSIGNED_CONTEXT ( ( #88, #58, #167 ) ) REPRESENTATION_CONTEXT ( 'NONE', 'WORKASPACE' ) );
#277 = ORIENTED_EDGE ( 'NONE', *, *, #278, .F. ) ;
#278 = EDGE_CURVE ( 'NONE', #76, #41, #309, .T. ) ;
#279 = EDGE_CURVE ( 'NONE', #76, #251, #61, .T. ) ;
#280 = ORIENTED_EDGE ( 'NONE', *, *, #45, .F. ) ;
#281 = PRODUCT_DEFINITION_FORMATION_WITH_SPECIFIED_SOURCE ( 'ANY', '', #127, .NOT_KNOWN. ) ;
#282 = ORIENTED_EDGE ( 'NONE', *, *, #279, .T. ) ;
#283 = DIRECTION ( 'NONE',  ( 0.000000000000000000, -0.000000000000000000, -1.000000000000000000 ) ) ;
#284 = ORIENTED_EDGE ( 'NONE', *, *, #134, .T. ) ;
#285 = EDGE_LOOP ( 'NONE', ( #225, #119, #152 ) ) ;
#286 = MECHANICAL_DESIGN_GEOMETRIC_PRESENTATION_REPRESENTATION (  '', ( #295 ), #255 ) ;
#287 = LENGTH_MEASURE_WITH_UNIT ( LENGTH_MEASURE( 0.02539999999999999897 ), #187 );
#288 = EDGE_CURVE ( 'NONE', #251, #76, #250, .T. ) ;
#289 = DIRECTION ( 'NONE',  ( -0.000000000000000000, -1.000000000000000000, -0.000000000000000000 ) ) ;
#290 = FACE_OUTER_BOUND ( 'NONE', #221, .T. ) ;
#291 = LENGTH_MEASURE_WITH_UNIT ( LENGTH_MEASURE( 0.02539999999999999897 ), #317 );
#292 = UNCERTAINTY_MEASURE_WITH_UNIT (LENGTH_MEASURE( 1.000000000000000082E-05 ), #131, 'distance_accuracy_value', 'NONE');
#293 = SURFACE_SIDE_STYLE ('',( #25 ) ) ;
#294 = CARTESIAN_POINT ( 'NONE',  ( 7.654042494670956004E-18, 0.1082531754730545193, 0.06249999999999999306 ) ) ;
#295 = STYLED_ITEM ( 'NONE', ( #98 ), #23 ) ;
#296 = AXIS2_PLACEMENT_3D ( 'NONE', #298, #183, #1 ) ;
#297 = FILL_AREA_STYLE_COLOUR ( '', #228 ) ;
#298 = CARTESIAN_POINT ( 'NONE',  ( 0.000000000000000000, 1.500000000000000222, 0.000000000000000000 ) ) ;
#299 = FILL_AREA_STYLE ('',( #297 ) ) ;
#300 = EDGE_CURVE ( 'NONE', #13, #254, #153, .T. ) ;
#301 = CARTESIAN_POINT ( 'NONE',  ( 0.000000000000000000, 0.1082531754730545193, -0.06249999999999999306 ) ) ;
#302 = LENGTH_MEASURE_WITH_UNIT ( LENGTH_MEASURE( 0.02539999999999999897 ), #240 );
#303 = DIRECTION ( 'NONE',  ( -0.000000000000000000, -1.000000000000000000, -0.000000000000000000 ) ) ;
#304 = CARTESIAN_POINT ( 'NONE',  ( 0.000000000000000000, 1.500000000000000222, 0.000000000000000000 ) ) ;
#305 = ORIENTED_EDGE ( 'NONE', *, *, #104, .T. ) ;
#306 = APPLICATION_CONTEXT ( 'automotive_design' ) ;
#307 = STYLED_ITEM ( 'NONE', ( #207 ), #56 ) ;
#308 = AXIS2_PLACEMENT_3D ( 'NONE', #208, #125, #239 ) ;
#309 = LINE ( 'NONE', #246, #48 ) ;
#310 = ADVANCED_FACE ( 'NONE', ( #166 ), #7, .T. ) ;
#311 = ORIENTED_EDGE ( 'NONE', *, *, #223, .F. ) ;
#312 =( NAMED_UNIT ( * ) PLANE_ANGLE_UNIT ( ) SI_UNIT ( $, .RADIAN. ) );
#313 = CLOSED_SHELL ( 'NONE', ( #310, #178, #182, #345 ) ) ;
#314 = AXIS2_PLACEMENT_3D ( 'NONE', #36, #141, #241 ) ;
#315 = EDGE_LOOP ( 'NONE', ( #140, #147 ) ) ;
#316 = ORIENTED_EDGE ( 'NONE', *, *, #273, .F. ) ;
#317 =( LENGTH_UNIT ( ) NAMED_UNIT ( * ) SI_UNIT ( $, .METRE. ) );
#318 = AXIS2_PLACEMENT_3D ( 'NONE', #22, #351, #185 ) ;
#319 = FILL_AREA_STYLE_COLOUR ( '', #39 ) ;
#320 = SURFACE_SIDE_STYLE ('',( #233 ) ) ;
#321 = COLOUR_RGB ( '',1.000000000000000000, 0.000000000000000000, 0.000000000000000000 ) ;
#322 = FILL_AREA_STYLE ('',( #209 ) ) ;
#323 = COLOUR_RGB ( '',1.000000000000000000, 0.000000000000000000, 0.000000000000000000 ) ;
#324 = DIMENSIONAL_EXPONENTS ( 1.000000000000000000, 0.000000000000000000, 0.000000000000000000, 0.000000000000000000, 0.000000000000000000, 0.000000000000000000, 0.000000000000000000 ) ;
#325 = CARTESIAN_POINT ( 'NONE',  ( 0.000000000000000000, 0.000000000000000000, 0.000000000000000000 ) ) ;
#326 = LINE ( 'NONE', #31, #196 ) ;
#327 = DIMENSIONAL_EXPONENTS ( 1.000000000000000000, 0.000000000000000000, 0.000000000000000000, 0.000000000000000000, 0.000000000000000000, 0.000000000000000000, 0.000000000000000000 ) ;
#328 = DIRECTION ( 'NONE',  ( 0.000000000000000000, 0.000000000000000000, 1.000000000000000000 ) ) ;
#329 =( CONVERSION_BASED_UNIT ( 'INCH', #302 ) LENGTH_UNIT ( ) NAMED_UNIT ( #137 ) );
#330 = DIRECTION ( 'NONE',  ( 0.000000000000000000, 0.000000000000000000, 1.000000000000000000 ) ) ;
#331 = DIRECTION ( 'NONE',  ( 0.000000000000000000, 1.000000000000000000, 0.000000000000000000 ) ) ;
#332 = LENGTH_MEASURE_WITH_UNIT ( LENGTH_MEASURE( 0.02539999999999999897 ), #66 );
#333 = AXIS2_PLACEMENT_3D ( 'NONE', #343, #331, #65 ) ;
#334 = COLOUR_RGB ( '',1.000000000000000000, 0.000000000000000000, 0.000000000000000000 ) ;
#335 = STYLED_ITEM ( 'NONE', ( #212 ), #237 ) ;
#336 = CARTESIAN_POINT ( 'NONE',  ( 0.000000000000000000, 1.500000000000000222, 0.06249999999999999306 ) ) ;
#337 = ORIENTED_EDGE ( 'NONE', *, *, #148, .F. ) ;
#338 = ORIENTED_EDGE ( 'NONE', *, *, #288, .F. ) ;
#339 = DIRECTION ( 'NONE',  ( 0.000000000000000000, -1.000000000000000000, 0.000000000000000000 ) ) ;
#340 = MECHANICAL_DESIGN_GEOMETRIC_PRESENTATION_REPRESENTATION (  '', ( #95 ), #276 ) ;
#341 = CIRCLE ( 'NONE', #314, 0.06249999999999999306 ) ;
#342 = SURFACE_STYLE_FILL_AREA ( #122 ) ;
#343 = CARTESIAN_POINT ( 'NONE',  ( 0.000000000000000000, 39.37007874015748143, 0.000000000000000000 ) ) ;
#344 = APPLICATION_PROTOCOL_DEFINITION ( 'draft international standard', 'automotive_design', 1998, #306 ) ;
#345 = ADVANCED_FACE ( 'NONE', ( #87 ), #193, .F. ) ;
#346 =( NAMED_UNIT ( * ) PLANE_ANGLE_UNIT ( ) SI_UNIT ( $, .RADIAN. ) );
#347 =( NAMED_UNIT ( * ) SI_UNIT ( $, .STERADIAN. ) SOLID_ANGLE_UNIT ( ) );
#348 = CONICAL_SURFACE ( 'NONE', #205, 22.73032555864674364, 0.5235987755983000369 ) ;
#349 = STYLED_ITEM ( 'NONE', ( #51 ), #220 ) ;
#350 = UNCERTAINTY_MEASURE_WITH_UNIT (LENGTH_MEASURE( 1.000000000000000082E-05 ), #200, 'distance_accuracy_value', 'NONE');
#351 = DIRECTION ( 'NONE',  ( -0.000000000000000000, 1.000000000000000000, -0.000000000000000000 ) ) ;
ENDSEC;
END-ISO-10303-21;
