ISO-10303-21;
HEADER;
FILE_DESCRIPTION (( 'STEP AP214' ),
    '1' );
FILE_NAME ('07003.STEP',
    '2023-07-12T13:04:49',
    ( '' ),
    ( '' ),
    'SwSTEP 2.0',
    'SolidWorks 2023',
    '' );
FILE_SCHEMA (( 'AUTOMOTIVE_DESIGN' ));
ENDSEC;

DATA;
#1 = ADVANCED_FACE ( 'NONE', ( #257 ), #75, .T. ) ;
#2 =( LENGTH_UNIT ( ) NAMED_UNIT ( * ) SI_UNIT ( $, .METRE. ) );
#3 = FILL_AREA_STYLE ('',( #27 ) ) ;
#4 = DIRECTION ( 'NONE',  ( 0.000000000000000000, 0.000000000000000000, -1.000000000000000000 ) ) ;
#5 = SURFACE_SIDE_STYLE ('',( #35 ) ) ;
#6 = DIRECTION ( 'NONE',  ( -1.236141203724602067E-16, 1.000000000000000000, -0.000000000000000000 ) ) ;
#7 = CARTESIAN_POINT ( 'NONE',  ( 0.000000000000000000, 0.000000000000000000, 0.04000000000000000083 ) ) ;
#8 = DIRECTION ( 'NONE',  ( 0.000000000000000000, 1.000000000000000000, 0.000000000000000000 ) ) ;
#9 = PRODUCT_CONTEXT ( 'NONE', #265, 'mechanical' ) ;
#10 = EDGE_LOOP ( 'NONE', ( #145, #183, #249, #275 ) ) ;
#11 = PRODUCT ( '07003', '07003', '', ( #9 ) ) ;
#12 = ORIENTED_EDGE ( 'NONE', *, *, #197, .T. ) ;
#13 = EDGE_CURVE ( 'NONE', #159, #255, #305, .T. ) ;
#14 = ORIENTED_EDGE ( 'NONE', *, *, #177, .T. ) ;
#15 = CIRCLE ( 'NONE', #34, 0.2499999999999996947 ) ;
#16 = EDGE_CURVE ( 'NONE', #159, #186, #283, .T. ) ;
#17 = DIRECTION ( 'NONE',  ( 0.000000000000000000, 0.000000000000000000, -1.000000000000000000 ) ) ;
#18 = ORIENTED_EDGE ( 'NONE', *, *, #197, .F. ) ;
#19 =( GEOMETRIC_REPRESENTATION_CONTEXT ( 3 ) GLOBAL_UNCERTAINTY_ASSIGNED_CONTEXT ( ( #176 ) ) GLOBAL_UNIT_ASSIGNED_CONTEXT ( ( #22, #142, #224 ) ) REPRESENTATION_CONTEXT ( 'NONE', 'WORKASPACE' ) );
#20 = EDGE_LOOP ( 'NONE', ( #184, #130, #239, #28 ) ) ;
#21 = SURFACE_SIDE_STYLE ('',( #235 ) ) ;
#22 =( CONVERSION_BASED_UNIT ( 'INCH', #71 ) LENGTH_UNIT ( ) NAMED_UNIT ( #287 ) );
#23 = CARTESIAN_POINT ( 'NONE',  ( -0.2500000000000001110, 3.000000000000000444, 0.000000000000000000 ) ) ;
#24 = VECTOR ( 'NONE', #217, 39.37007874015748143 ) ;
#25 = DIMENSIONAL_EXPONENTS ( 1.000000000000000000, 0.000000000000000000, 0.000000000000000000, 0.000000000000000000, 0.000000000000000000, 0.000000000000000000, 0.000000000000000000 ) ;
#26 = DIRECTION ( 'NONE',  ( 0.000000000000000000, 1.000000000000000000, 0.000000000000000000 ) ) ;
#27 = FILL_AREA_STYLE_COLOUR ( '', #155 ) ;
#28 = ORIENTED_EDGE ( 'NONE', *, *, #124, .F. ) ;
#29 = SURFACE_STYLE_USAGE ( .BOTH. , #193 ) ;
#30 = PRODUCT_DEFINITION ( 'UNKNOWN', '', #276, #133 ) ;
#31 = MECHANICAL_DESIGN_GEOMETRIC_PRESENTATION_REPRESENTATION (  '', ( #219 ), #19 ) ;
#32 = LENGTH_MEASURE_WITH_UNIT ( LENGTH_MEASURE( 0.02539999999999999897 ), #101 );
#33 = LENGTH_MEASURE_WITH_UNIT ( LENGTH_MEASURE( 0.02539999999999999897 ), #200 );
#34 = AXIS2_PLACEMENT_3D ( 'NONE', #136, #162, #112 ) ;
#35 = SURFACE_STYLE_FILL_AREA ( #122 ) ;
#36 = FACE_OUTER_BOUND ( 'NONE', #20, .T. ) ;
#37 =( NAMED_UNIT ( * ) SI_UNIT ( $, .STERADIAN. ) SOLID_ANGLE_UNIT ( ) );
#38 = STYLED_ITEM ( 'NONE', ( #123 ), #299 ) ;
#39 = PRESENTATION_LAYER_ASSIGNMENT (  '', '', ( #216 ) ) ;
#40 = EDGE_LOOP ( 'NONE', ( #296, #229 ) ) ;
#41 = AXIS2_PLACEMENT_3D ( 'NONE', #106, #244, #199 ) ;
#42 = DIRECTION ( 'NONE',  ( 0.000000000000000000, 0.000000000000000000, -1.000000000000000000 ) ) ;
#43 = COLOUR_RGB ( '',1.000000000000000000, 0.000000000000000000, 0.000000000000000000 ) ;
#44 = CIRCLE ( 'NONE', #68, 0.2500000000000000555 ) ;
#45 = ORIENTED_EDGE ( 'NONE', *, *, #269, .T. ) ;
#46 = PRESENTATION_STYLE_ASSIGNMENT (( #191 ) ) ;
#47 = PRESENTATION_STYLE_ASSIGNMENT (( #211 ) ) ;
#48 = AXIS2_PLACEMENT_3D ( 'NONE', #113, #233, #208 ) ;
#49 = FILL_AREA_STYLE_COLOUR ( '', #254 ) ;
#50 = ADVANCED_FACE ( 'NONE', ( #51 ), #166, .T. ) ;
#51 = FACE_OUTER_BOUND ( 'NONE', #10, .T. ) ;
#52 = DIMENSIONAL_EXPONENTS ( 1.000000000000000000, 0.000000000000000000, 0.000000000000000000, 0.000000000000000000, 0.000000000000000000, 0.000000000000000000, 0.000000000000000000 ) ;
#53 = CARTESIAN_POINT ( 'NONE',  ( 0.2499999999999999722, 3.000000000000000444, 3.061616997868383018E-17 ) ) ;
#54 = COLOUR_RGB ( '',0.7921568627450980005, 0.8196078431372548767, 0.9333333333333333481 ) ;
#55 = DIRECTION ( 'NONE',  ( 0.000000000000000000, 0.000000000000000000, 1.000000000000000000 ) ) ;
#56 = CLOSED_SHELL ( 'NONE', ( #303, #70, #76, #181 ) ) ;
#57 =( CONVERSION_BASED_UNIT ( 'INCH', #32 ) LENGTH_UNIT ( ) NAMED_UNIT ( #52 ) );
#58 = DIRECTION ( 'NONE',  ( -1.000000000000000000, 0.000000000000000000, 0.000000000000000000 ) ) ;
#59 =( LENGTH_UNIT ( ) NAMED_UNIT ( * ) SI_UNIT ( $, .METRE. ) );
#60 = LENGTH_MEASURE_WITH_UNIT ( LENGTH_MEASURE( 0.02539999999999999897 ), #59 );
#61 = SHAPE_DEFINITION_REPRESENTATION ( #84, #135 ) ;
#62 = STYLED_ITEM ( 'NONE', ( #46 ), #218 ) ;
#63 = EDGE_LOOP ( 'NONE', ( #18, #111, #277, #300 ) ) ;
#64 = VERTEX_POINT ( 'NONE', #152 ) ;
#65 = VERTEX_POINT ( 'NONE', #242 ) ;
#66 = PRESENTATION_LAYER_ASSIGNMENT (  '', '', ( #38 ) ) ;
#67 = LENGTH_MEASURE_WITH_UNIT ( LENGTH_MEASURE( 0.02539999999999999897 ), #282 );
#68 = AXIS2_PLACEMENT_3D ( 'NONE', #99, #144, #58 ) ;
#69 =( NAMED_UNIT ( * ) SI_UNIT ( $, .STERADIAN. ) SOLID_ANGLE_UNIT ( ) );
#70 = ADVANCED_FACE ( 'NONE', ( #246 ), #172, .F. ) ;
#71 = LENGTH_MEASURE_WITH_UNIT ( LENGTH_MEASURE( 0.02539999999999999897 ), #2 );
#72 = PRESENTATION_LAYER_ASSIGNMENT (  '', '', ( #157 ) ) ;
#73 = CARTESIAN_POINT ( 'NONE',  ( 0.000000000000000000, 0.000000000000000000, 0.000000000000000000 ) ) ;
#74 = DIMENSIONAL_EXPONENTS ( 1.000000000000000000, 0.000000000000000000, 0.000000000000000000, 0.000000000000000000, 0.000000000000000000, 0.000000000000000000, 0.000000000000000000 ) ;
#75 = PLANE ( 'NONE',  #267 ) ;
#76 = ADVANCED_FACE ( 'NONE', ( #36 ), #270, .T. ) ;
#77 =( GEOMETRIC_REPRESENTATION_CONTEXT ( 3 ) GLOBAL_UNCERTAINTY_ASSIGNED_CONTEXT ( ( #104 ) ) GLOBAL_UNIT_ASSIGNED_CONTEXT ( ( #179, #107, #37 ) ) REPRESENTATION_CONTEXT ( 'NONE', 'WORKASPACE' ) );
#78 = FACE_OUTER_BOUND ( 'NONE', #180, .T. ) ;
#79 = APPLICATION_PROTOCOL_DEFINITION ( 'draft international standard', 'automotive_design', 1998, #265 ) ;
#80 = AXIS2_PLACEMENT_3D ( 'NONE', #73, #87, #17 ) ;
#81 = PRESENTATION_LAYER_ASSIGNMENT (  '', '', ( #178 ) ) ;
#82 = ORIENTED_EDGE ( 'NONE', *, *, #119, .F. ) ;
#83 = ORIENTED_EDGE ( 'NONE', *, *, #124, .T. ) ;
#84 = PRODUCT_DEFINITION_SHAPE ( 'NONE', 'NONE',  #30 ) ;
#85 = PRODUCT_RELATED_PRODUCT_CATEGORY ( 'part', '', ( #11 ) ) ;
#86 = CARTESIAN_POINT ( 'NONE',  ( 0.000000000000000000, 0.000000000000000000, 0.000000000000000000 ) ) ;
#87 = DIRECTION ( 'NONE',  ( -0.000000000000000000, -1.000000000000000000, -0.000000000000000000 ) ) ;
#88 =( LENGTH_UNIT ( ) NAMED_UNIT ( * ) SI_UNIT ( $, .METRE. ) );
#89 = CARTESIAN_POINT ( 'NONE',  ( 0.000000000000000000, 0.000000000000000000, 0.000000000000000000 ) ) ;
#90 = COLOUR_RGB ( '',1.000000000000000000, 0.000000000000000000, 0.000000000000000000 ) ;
#91 = DIRECTION ( 'NONE',  ( -1.236141203724602067E-16, 1.000000000000000000, -0.000000000000000000 ) ) ;
#92 = FACE_OUTER_BOUND ( 'NONE', #114, .T. ) ;
#93 =( NAMED_UNIT ( * ) SI_UNIT ( $, .STERADIAN. ) SOLID_ANGLE_UNIT ( ) );
#94 =( GEOMETRIC_REPRESENTATION_CONTEXT ( 3 ) GLOBAL_UNCERTAINTY_ASSIGNED_CONTEXT ( ( #110 ) ) GLOBAL_UNIT_ASSIGNED_CONTEXT ( ( #220, #141, #117 ) ) REPRESENTATION_CONTEXT ( 'NONE', 'WORKASPACE' ) );
#95 = FILL_AREA_STYLE ('',( #116 ) ) ;
#96 = DIMENSIONAL_EXPONENTS ( 1.000000000000000000, 0.000000000000000000, 0.000000000000000000, 0.000000000000000000, 0.000000000000000000, 0.000000000000000000, 0.000000000000000000 ) ;
#97 = CARTESIAN_POINT ( 'NONE',  ( 0.2499999999999999722, 0.3637306695894629294, 3.061616997868383018E-17 ) ) ;
#98 = CIRCLE ( 'NONE', #292, 0.2499999999999999722 ) ;
#99 = CARTESIAN_POINT ( 'NONE',  ( -6.123233995736770966E-17, 3.000000000000000444, 0.000000000000000000 ) ) ;
#100 = PRESENTATION_STYLE_ASSIGNMENT (( #173 ) ) ;
#101 =( LENGTH_UNIT ( ) NAMED_UNIT ( * ) SI_UNIT ( $, .METRE. ) );
#102 = AXIS2_PLACEMENT_3D ( 'NONE', #204, #227, #182 ) ;
#103 = CARTESIAN_POINT ( 'NONE',  ( -6.123233995736772199E-17, 3.000000000000000444, 0.000000000000000000 ) ) ;
#104 = UNCERTAINTY_MEASURE_WITH_UNIT (LENGTH_MEASURE( 1.000000000000000082E-05 ), #179, 'distance_accuracy_value', 'NONE');
#105 = CIRCLE ( 'NONE', #80, 0.04000000000000000083 ) ;
#106 = CARTESIAN_POINT ( 'NONE',  ( 2.646477743862255178E-16, 0.3637306695894631514, 0.000000000000000000 ) ) ;
#107 =( NAMED_UNIT ( * ) PLANE_ANGLE_UNIT ( ) SI_UNIT ( $, .RADIAN. ) );
#108 = CLOSED_SHELL ( 'NONE', ( #248, #1, #50, #299 ) ) ;
#109 = MANIFOLD_SOLID_BREP ( 'Revolve - Cutting Edge', #108 ) ;
#110 = UNCERTAINTY_MEASURE_WITH_UNIT (LENGTH_MEASURE( 1.000000000000000082E-05 ), #220, 'distance_accuracy_value', 'NONE');
#111 = ORIENTED_EDGE ( 'NONE', *, *, #280, .T. ) ;
#112 = DIRECTION ( 'NONE',  ( -1.000000000000000000, 0.000000000000000000, 0.000000000000000000 ) ) ;
#113 = CARTESIAN_POINT ( 'NONE',  ( 0.2499999999999999722, 3.000000000000000444, 0.000000000000000000 ) ) ;
#114 = EDGE_LOOP ( 'NONE', ( #45, #83 ) ) ;
#115 = SURFACE_STYLE_USAGE ( .BOTH. , #21 ) ;
#116 = FILL_AREA_STYLE_COLOUR ( '', #43 ) ;
#117 =( NAMED_UNIT ( * ) SI_UNIT ( $, .STERADIAN. ) SOLID_ANGLE_UNIT ( ) );
#118 =( CONVERSION_BASED_UNIT ( 'INCH', #139 ) LENGTH_UNIT ( ) NAMED_UNIT ( #25 ) );
#119 = EDGE_CURVE ( 'NONE', #255, #159, #15, .T. ) ;
#120 = SURFACE_STYLE_FILL_AREA ( #213 ) ;
#121 = CARTESIAN_POINT ( 'NONE',  ( -6.123233995736772199E-17, 3.000000000000000444, 0.000000000000000000 ) ) ;
#122 = FILL_AREA_STYLE ('',( #206 ) ) ;
#123 = PRESENTATION_STYLE_ASSIGNMENT (( #29 ) ) ;
#124 = EDGE_CURVE ( 'NONE', #297, #186, #272, .T. ) ;
#125 =( GEOMETRIC_REPRESENTATION_CONTEXT ( 3 ) GLOBAL_UNCERTAINTY_ASSIGNED_CONTEXT ( ( #256 ) ) GLOBAL_UNIT_ASSIGNED_CONTEXT ( ( #160, #185, #69 ) ) REPRESENTATION_CONTEXT ( 'NONE', 'WORKASPACE' ) );
#126 =( LENGTH_UNIT ( ) NAMED_UNIT ( * ) SI_UNIT ( $, .METRE. ) );
#127 =( NAMED_UNIT ( * ) SI_UNIT ( $, .STERADIAN. ) SOLID_ANGLE_UNIT ( ) );
#128 = AXIS2_PLACEMENT_3D ( 'NONE', #121, #6, #171 ) ;
#129 = UNCERTAINTY_MEASURE_WITH_UNIT (LENGTH_MEASURE( 1.000000000000000082E-05 ), #57, 'distance_accuracy_value', 'NONE');
#130 = ORIENTED_EDGE ( 'NONE', *, *, #119, .T. ) ;
#131 = CONICAL_SURFACE ( 'NONE', #194, 0.04000000000000000083, 0.5235987755983000369 ) ;
#132 = AXIS2_PLACEMENT_3D ( 'NONE', #231, #278, #214 ) ;
#133 = PRODUCT_DEFINITION_CONTEXT ( 'detailed design', #158, 'design' ) ;
#134 = SURFACE_SIDE_STYLE ('',( #302 ) ) ;
#135 = ADVANCED_BREP_SHAPE_REPRESENTATION ( '07003', ( #109, #218, #102 ), #77 ) ;
#136 = CARTESIAN_POINT ( 'NONE',  ( 2.646477743862255178E-16, 0.3637306695894629294, 0.000000000000000000 ) ) ;
#137 = AXIS2_PLACEMENT_3D ( 'NONE', #307, #91, #192 ) ;
#138 = MECHANICAL_DESIGN_GEOMETRIC_PRESENTATION_REPRESENTATION (  '', ( #62 ), #125 ) ;
#139 = LENGTH_MEASURE_WITH_UNIT ( LENGTH_MEASURE( 0.02539999999999999897 ), #88 );
#140 = LINE ( 'NONE', #210, #223 ) ;
#141 =( NAMED_UNIT ( * ) PLANE_ANGLE_UNIT ( ) SI_UNIT ( $, .RADIAN. ) );
#142 =( NAMED_UNIT ( * ) PLANE_ANGLE_UNIT ( ) SI_UNIT ( $, .RADIAN. ) );
#143 = CARTESIAN_POINT ( 'NONE',  ( 0.000000000000000000, 0.000000000000000000, 0.000000000000000000 ) ) ;
#144 = DIRECTION ( 'NONE',  ( -1.236141203724602067E-16, 1.000000000000000000, -0.000000000000000000 ) ) ;
#145 = ORIENTED_EDGE ( 'NONE', *, *, #280, .F. ) ;
#146 = DIRECTION ( 'NONE',  ( 0.000000000000000000, 0.8660254037844380415, 0.5000000000000009992 ) ) ;
#147 = AXIS2_PLACEMENT_3D ( 'NONE', #143, #203, #55 ) ;
#148 = LINE ( 'NONE', #243, #24 ) ;
#149 = MECHANICAL_DESIGN_GEOMETRIC_PRESENTATION_REPRESENTATION (  '', ( #178 ), #187 ) ;
#150 = DIRECTION ( 'NONE',  ( -1.236141203724602067E-16, 1.000000000000000000, -0.000000000000000000 ) ) ;
#151 =( CONVERSION_BASED_UNIT ( 'INCH', #33 ) LENGTH_UNIT ( ) NAMED_UNIT ( #288 ) );
#152 = CARTESIAN_POINT ( 'NONE',  ( 3.061616997868382402E-17, 0.3637306695894631514, -0.2499999999999999167 ) ) ;
#153 = CIRCLE ( 'NONE', #309, 0.04000000000000000083 ) ;
#154 = EDGE_LOOP ( 'NONE', ( #251, #82 ) ) ;
#155 = COLOUR_RGB ( '',1.000000000000000000, 0.000000000000000000, 0.000000000000000000 ) ;
#156 = ORIENTED_EDGE ( 'NONE', *, *, #16, .F. ) ;
#157 = STYLED_ITEM ( 'NONE', ( #260 ), #248 ) ;
#158 = APPLICATION_CONTEXT ( 'automotive_design' ) ;
#159 = VERTEX_POINT ( 'NONE', #215 ) ;
#160 =( CONVERSION_BASED_UNIT ( 'INCH', #67 ) LENGTH_UNIT ( ) NAMED_UNIT ( #96 ) );
#161 = VERTEX_POINT ( 'NONE', #286 ) ;
#162 = DIRECTION ( 'NONE',  ( -1.236141203724602067E-16, 1.000000000000000000, -0.000000000000000000 ) ) ;
#163 = PRESENTATION_LAYER_ASSIGNMENT (  '', '', ( #219 ) ) ;
#164 = FILL_AREA_STYLE_COLOUR ( '', #90 ) ;
#165 = FILL_AREA_STYLE_COLOUR ( '', #298 ) ;
#166 = CONICAL_SURFACE ( 'NONE', #147, 0.04000000000000000083, 0.5235987755983000369 ) ;
#167 = EDGE_LOOP ( 'NONE', ( #207, #234, #301, #156 ) ) ;
#168 = DIRECTION ( 'NONE',  ( -1.236141203724602067E-16, 1.000000000000000000, -0.000000000000000000 ) ) ;
#169 = EDGE_CURVE ( 'NONE', #64, #65, #98, .T. ) ;
#170 = CARTESIAN_POINT ( 'NONE',  ( 0.000000000000000000, 0.3637306695894631514, 0.000000000000000000 ) ) ;
#171 = DIRECTION ( 'NONE',  ( -1.000000000000000000, 0.000000000000000000, 0.000000000000000000 ) ) ;
#172 = PLANE ( 'NONE',  #41 ) ;
#173 = SURFACE_STYLE_USAGE ( .BOTH. , #5 ) ;
#174 = MECHANICAL_DESIGN_GEOMETRIC_PRESENTATION_REPRESENTATION (  '', ( #216 ), #94 ) ;
#175 = DIRECTION ( 'NONE',  ( -1.000000000000000000, 0.000000000000000000, 0.000000000000000000 ) ) ;
#176 = UNCERTAINTY_MEASURE_WITH_UNIT (LENGTH_MEASURE( 1.000000000000000082E-05 ), #22, 'distance_accuracy_value', 'NONE');
#177 = EDGE_CURVE ( 'NONE', #161, #230, #105, .T. ) ;
#178 = STYLED_ITEM ( 'NONE', ( #47 ), #1 ) ;
#179 =( CONVERSION_BASED_UNIT ( 'INCH', #60 ) LENGTH_UNIT ( ) NAMED_UNIT ( #74 ) );
#180 = EDGE_LOOP ( 'NONE', ( #14, #12 ) ) ;
#181 = ADVANCED_FACE ( 'NONE', ( #92 ), #189, .F. ) ;
#182 = DIRECTION ( 'NONE',  ( 1.000000000000000000, 0.000000000000000000, 0.000000000000000000 ) ) ;
#183 = ORIENTED_EDGE ( 'NONE', *, *, #177, .F. ) ;
#184 = ORIENTED_EDGE ( 'NONE', *, *, #202, .F. ) ;
#185 =( NAMED_UNIT ( * ) PLANE_ANGLE_UNIT ( ) SI_UNIT ( $, .RADIAN. ) );
#186 = VERTEX_POINT ( 'NONE', #23 ) ;
#187 =( GEOMETRIC_REPRESENTATION_CONTEXT ( 3 ) GLOBAL_UNCERTAINTY_ASSIGNED_CONTEXT ( ( #294 ) ) GLOBAL_UNIT_ASSIGNED_CONTEXT ( ( #118, #281, #93 ) ) REPRESENTATION_CONTEXT ( 'NONE', 'WORKASPACE' ) );
#188 = CARTESIAN_POINT ( 'NONE',  ( 0.000000000000000000, 0.3637306695894631514, 0.000000000000000000 ) ) ;
#189 = PLANE ( 'NONE',  #48 ) ;
#190 = SURFACE_SIDE_STYLE ('',( #195 ) ) ;
#191 = SURFACE_STYLE_USAGE ( .BOTH. , #134 ) ;
#192 = DIRECTION ( 'NONE',  ( -1.000000000000000000, 0.000000000000000000, 0.000000000000000000 ) ) ;
#193 = SURFACE_SIDE_STYLE ('',( #221 ) ) ;
#194 = AXIS2_PLACEMENT_3D ( 'NONE', #89, #8, #271 ) ;
#195 = SURFACE_STYLE_FILL_AREA ( #95 ) ;
#196 = DIRECTION ( 'NONE',  ( 0.000000000000000000, -1.000000000000000000, -0.000000000000000000 ) ) ;
#197 = EDGE_CURVE ( 'NONE', #230, #161, #153, .T. ) ;
#198 = AXIS2_PLACEMENT_3D ( 'NONE', #103, #150, #175 ) ;
#199 = DIRECTION ( 'NONE',  ( -1.000000000000000000, -1.236141203724602067E-16, 0.000000000000000000 ) ) ;
#200 =( LENGTH_UNIT ( ) NAMED_UNIT ( * ) SI_UNIT ( $, .METRE. ) );
#201 = LENGTH_MEASURE_WITH_UNIT ( LENGTH_MEASURE( 0.02539999999999999897 ), #126 );
#202 = EDGE_CURVE ( 'NONE', #255, #297, #140, .T. ) ;
#203 = DIRECTION ( 'NONE',  ( 0.000000000000000000, 1.000000000000000000, 0.000000000000000000 ) ) ;
#204 = CARTESIAN_POINT ( 'NONE',  ( 0.000000000000000000, 0.000000000000000000, 0.000000000000000000 ) ) ;
#205 = MECHANICAL_DESIGN_GEOMETRIC_PRESENTATION_REPRESENTATION (  '', ( #157 ), #241 ) ;
#206 = FILL_AREA_STYLE_COLOUR ( '', #54 ) ;
#207 = ORIENTED_EDGE ( 'NONE', *, *, #13, .T. ) ;
#208 = DIRECTION ( 'NONE',  ( 1.000000000000000000, 1.236141203724602067E-16, 0.000000000000000000 ) ) ;
#209 = AXIS2_PLACEMENT_3D ( 'NONE', #225, #196, #4 ) ;
#210 = CARTESIAN_POINT ( 'NONE',  ( 0.2499999999999998057, 3.000000000000000444, 3.061616997868381785E-17 ) ) ;
#211 = SURFACE_STYLE_USAGE ( .BOTH. , #259 ) ;
#212 = CARTESIAN_POINT ( 'NONE',  ( 1.775737858763661608E-17, 0.000000000000000000, -0.04000000000000000083 ) ) ;
#213 = FILL_AREA_STYLE ('',( #164 ) ) ;
#214 = DIRECTION ( 'NONE',  ( -1.000000000000000000, 0.000000000000000000, 0.000000000000000000 ) ) ;
#215 = CARTESIAN_POINT ( 'NONE',  ( -0.2499999999999994171, 0.3637306695894629294, 0.000000000000000000 ) ) ;
#216 = STYLED_ITEM ( 'NONE', ( #100 ), #109 ) ;
#217 = DIRECTION ( 'NONE',  ( 6.123233995736778362E-17, 0.8660254037844380415, -0.5000000000000009992 ) ) ;
#218 = MANIFOLD_SOLID_BREP ( 'Revolve - Tool Body (Tipped Off)', #56 ) ;
#219 = STYLED_ITEM ( 'NONE', ( #237 ), #50 ) ;
#220 =( CONVERSION_BASED_UNIT ( 'INCH', #201 ) LENGTH_UNIT ( ) NAMED_UNIT ( #264 ) );
#221 = SURFACE_STYLE_FILL_AREA ( #3 ) ;
#222 = LINE ( 'NONE', #7, #247 ) ;
#223 = VECTOR ( 'NONE', #308, 39.37007874015748143 ) ;
#224 =( NAMED_UNIT ( * ) SI_UNIT ( $, .STERADIAN. ) SOLID_ANGLE_UNIT ( ) );
#225 = CARTESIAN_POINT ( 'NONE',  ( 0.000000000000000000, 0.000000000000000000, 0.000000000000000000 ) ) ;
#226 = APPLICATION_PROTOCOL_DEFINITION ( 'draft international standard', 'automotive_design', 1998, #158 ) ;
#227 = DIRECTION ( 'NONE',  ( 0.000000000000000000, 0.000000000000000000, 1.000000000000000000 ) ) ;
#228 = CIRCLE ( 'NONE', #268, 0.2499999999999999722 ) ;
#229 = ORIENTED_EDGE ( 'NONE', *, *, #169, .F. ) ;
#230 = VERTEX_POINT ( 'NONE', #212 ) ;
#231 = CARTESIAN_POINT ( 'NONE',  ( -6.123233995736770966E-17, 3.000000000000000444, 0.000000000000000000 ) ) ;
#232 = DIRECTION ( 'NONE',  ( 0.000000000000000000, 0.000000000000000000, -1.000000000000000000 ) ) ;
#233 = DIRECTION ( 'NONE',  ( 1.236141203724602067E-16, -1.000000000000000000, 0.000000000000000000 ) ) ;
#234 = ORIENTED_EDGE ( 'NONE', *, *, #202, .T. ) ;
#235 = SURFACE_STYLE_FILL_AREA ( #258 ) ;
#236 = CARTESIAN_POINT ( 'NONE',  ( 0.000000000000000000, 0.3637306695894631514, 0.000000000000000000 ) ) ;
#237 = PRESENTATION_STYLE_ASSIGNMENT (( #289 ) ) ;
#238 = DIRECTION ( 'NONE',  ( -0.000000000000000000, -1.000000000000000000, -0.000000000000000000 ) ) ;
#239 = ORIENTED_EDGE ( 'NONE', *, *, #16, .T. ) ;
#240 = CYLINDRICAL_SURFACE ( 'NONE', #128, 0.2499999999999998612 ) ;
#241 =( GEOMETRIC_REPRESENTATION_CONTEXT ( 3 ) GLOBAL_UNCERTAINTY_ASSIGNED_CONTEXT ( ( #129 ) ) GLOBAL_UNIT_ASSIGNED_CONTEXT ( ( #57, #290, #266 ) ) REPRESENTATION_CONTEXT ( 'NONE', 'WORKASPACE' ) );
#242 = CARTESIAN_POINT ( 'NONE',  ( 0.000000000000000000, 0.3637306695894631514, 0.2499999999999999167 ) ) ;
#243 = CARTESIAN_POINT ( 'NONE',  ( 4.898587196589413537E-18, 0.000000000000000000, -0.04000000000000000083 ) ) ;
#244 = DIRECTION ( 'NONE',  ( -1.236141203724602067E-16, 1.000000000000000000, 0.000000000000000000 ) ) ;
#245 = PLANE ( 'NONE',  #209 ) ;
#246 = FACE_OUTER_BOUND ( 'NONE', #154, .T. ) ;
#247 = VECTOR ( 'NONE', #146, 39.37007874015748143 ) ;
#248 = ADVANCED_FACE ( 'NONE', ( #304 ), #131, .T. ) ;
#249 = ORIENTED_EDGE ( 'NONE', *, *, #253, .T. ) ;
#250 =( GEOMETRIC_REPRESENTATION_CONTEXT ( 3 ) GLOBAL_UNCERTAINTY_ASSIGNED_CONTEXT ( ( #306 ) ) GLOBAL_UNIT_ASSIGNED_CONTEXT ( ( #151, #263, #127 ) ) REPRESENTATION_CONTEXT ( 'NONE', 'WORKASPACE' ) );
#251 = ORIENTED_EDGE ( 'NONE', *, *, #13, .F. ) ;
#252 = FILL_AREA_STYLE ('',( #49 ) ) ;
#253 = EDGE_CURVE ( 'NONE', #161, #65, #222, .T. ) ;
#254 = COLOUR_RGB ( '',0.7921568627450980005, 0.8196078431372548767, 0.9333333333333333481 ) ;
#255 = VERTEX_POINT ( 'NONE', #97 ) ;
#256 = UNCERTAINTY_MEASURE_WITH_UNIT (LENGTH_MEASURE( 1.000000000000000082E-05 ), #160, 'distance_accuracy_value', 'NONE');
#257 = FACE_OUTER_BOUND ( 'NONE', #40, .T. ) ;
#258 = FILL_AREA_STYLE ('',( #165 ) ) ;
#259 = SURFACE_SIDE_STYLE ('',( #120 ) ) ;
#260 = PRESENTATION_STYLE_ASSIGNMENT (( #115 ) ) ;
#261 = CARTESIAN_POINT ( 'NONE',  ( -0.2499999999999999167, 3.000000000000000444, 0.000000000000000000 ) ) ;
#262 = FACE_OUTER_BOUND ( 'NONE', #167, .T. ) ;
#263 =( NAMED_UNIT ( * ) PLANE_ANGLE_UNIT ( ) SI_UNIT ( $, .RADIAN. ) );
#264 = DIMENSIONAL_EXPONENTS ( 1.000000000000000000, 0.000000000000000000, 0.000000000000000000, 0.000000000000000000, 0.000000000000000000, 0.000000000000000000, 0.000000000000000000 ) ;
#265 = APPLICATION_CONTEXT ( 'automotive_design' ) ;
#266 =( NAMED_UNIT ( * ) SI_UNIT ( $, .STERADIAN. ) SOLID_ANGLE_UNIT ( ) );
#267 = AXIS2_PLACEMENT_3D ( 'NONE', #188, #26, #285 ) ;
#268 = AXIS2_PLACEMENT_3D ( 'NONE', #170, #238, #293 ) ;
#269 = EDGE_CURVE ( 'NONE', #186, #297, #44, .T. ) ;
#270 = CYLINDRICAL_SURFACE ( 'NONE', #198, 0.2499999999999998612 ) ;
#271 = DIRECTION ( 'NONE',  ( 0.000000000000000000, 0.000000000000000000, 1.000000000000000000 ) ) ;
#272 = CIRCLE ( 'NONE', #132, 0.2500000000000000555 ) ;
#273 = EDGE_CURVE ( 'NONE', #65, #64, #228, .T. ) ;
#274 = PRESENTATION_LAYER_ASSIGNMENT (  '', '', ( #62 ) ) ;
#275 = ORIENTED_EDGE ( 'NONE', *, *, #273, .T. ) ;
#276 = PRODUCT_DEFINITION_FORMATION_WITH_SPECIFIED_SOURCE ( 'ANY', '', #11, .NOT_KNOWN. ) ;
#277 = ORIENTED_EDGE ( 'NONE', *, *, #169, .T. ) ;
#278 = DIRECTION ( 'NONE',  ( -1.236141203724602067E-16, 1.000000000000000000, -0.000000000000000000 ) ) ;
#279 = DIRECTION ( 'NONE',  ( -0.000000000000000000, -1.000000000000000000, -0.000000000000000000 ) ) ;
#280 = EDGE_CURVE ( 'NONE', #230, #64, #148, .T. ) ;
#281 =( NAMED_UNIT ( * ) PLANE_ANGLE_UNIT ( ) SI_UNIT ( $, .RADIAN. ) );
#282 =( LENGTH_UNIT ( ) NAMED_UNIT ( * ) SI_UNIT ( $, .METRE. ) );
#283 = LINE ( 'NONE', #261, #295 ) ;
#284 = DIRECTION ( 'NONE',  ( -0.000000000000000000, -1.000000000000000000, -0.000000000000000000 ) ) ;
#285 = DIRECTION ( 'NONE',  ( 0.000000000000000000, -0.000000000000000000, 1.000000000000000000 ) ) ;
#286 = CARTESIAN_POINT ( 'NONE',  ( 0.000000000000000000, 0.000000000000000000, 0.04000000000000000083 ) ) ;
#287 = DIMENSIONAL_EXPONENTS ( 1.000000000000000000, 0.000000000000000000, 0.000000000000000000, 0.000000000000000000, 0.000000000000000000, 0.000000000000000000, 0.000000000000000000 ) ;
#288 = DIMENSIONAL_EXPONENTS ( 1.000000000000000000, 0.000000000000000000, 0.000000000000000000, 0.000000000000000000, 0.000000000000000000, 0.000000000000000000, 0.000000000000000000 ) ;
#289 = SURFACE_STYLE_USAGE ( .BOTH. , #190 ) ;
#290 =( NAMED_UNIT ( * ) PLANE_ANGLE_UNIT ( ) SI_UNIT ( $, .RADIAN. ) );
#291 = MECHANICAL_DESIGN_GEOMETRIC_PRESENTATION_REPRESENTATION (  '', ( #38 ), #250 ) ;
#292 = AXIS2_PLACEMENT_3D ( 'NONE', #236, #279, #232 ) ;
#293 = DIRECTION ( 'NONE',  ( 0.000000000000000000, 0.000000000000000000, -1.000000000000000000 ) ) ;
#294 = UNCERTAINTY_MEASURE_WITH_UNIT (LENGTH_MEASURE( 1.000000000000000082E-05 ), #118, 'distance_accuracy_value', 'NONE');
#295 = VECTOR ( 'NONE', #168, 39.37007874015748143 ) ;
#296 = ORIENTED_EDGE ( 'NONE', *, *, #273, .F. ) ;
#297 = VERTEX_POINT ( 'NONE', #53 ) ;
#298 = COLOUR_RGB ( '',1.000000000000000000, 0.000000000000000000, 0.000000000000000000 ) ;
#299 = ADVANCED_FACE ( 'NONE', ( #78 ), #245, .T. ) ;
#300 = ORIENTED_EDGE ( 'NONE', *, *, #253, .F. ) ;
#301 = ORIENTED_EDGE ( 'NONE', *, *, #269, .F. ) ;
#302 = SURFACE_STYLE_FILL_AREA ( #252 ) ;
#303 = ADVANCED_FACE ( 'NONE', ( #262 ), #240, .T. ) ;
#304 = FACE_OUTER_BOUND ( 'NONE', #63, .T. ) ;
#305 = CIRCLE ( 'NONE', #137, 0.2499999999999996947 ) ;
#306 = UNCERTAINTY_MEASURE_WITH_UNIT (LENGTH_MEASURE( 1.000000000000000082E-05 ), #151, 'distance_accuracy_value', 'NONE');
#307 = CARTESIAN_POINT ( 'NONE',  ( 2.646477743862255178E-16, 0.3637306695894629294, 0.000000000000000000 ) ) ;
#308 = DIRECTION ( 'NONE',  ( -1.236141203724602067E-16, 1.000000000000000000, -0.000000000000000000 ) ) ;
#309 = AXIS2_PLACEMENT_3D ( 'NONE', #86, #284, #42 ) ;
ENDSEC;
END-ISO-10303-21;
