ISO-10303-21;
HEADER;
FILE_DESCRIPTION (( 'STEP AP214' ),
    '1' );
FILE_NAME ('49050.STEP',
    '2023-06-30T21:56:10',
    ( '' ),
    ( '' ),
    'SwSTEP 2.0',
    'SolidWorks 2023',
    '' );
FILE_SCHEMA (( 'AUTOMOTIVE_DESIGN' ));
ENDSEC;

DATA;
#1 = DIRECTION ( 'NONE',  ( 0.000000000000000000, 0.000000000000000000, -1.000000000000000000 ) ) ;
#2 =( NAMED_UNIT ( * ) SI_UNIT ( $, .STERADIAN. ) SOLID_ANGLE_UNIT ( ) );
#3 = DIRECTION ( 'NONE',  ( -0.000000000000000000, -1.000000000000000000, -0.000000000000000000 ) ) ;
#4 = MECHANICAL_DESIGN_GEOMETRIC_PRESENTATION_REPRESENTATION (  '', ( #283 ), #120 ) ;
#5 = ORIENTED_EDGE ( 'NONE', *, *, #369, .T. ) ;
#6 = MECHANICAL_DESIGN_GEOMETRIC_PRESENTATION_REPRESENTATION (  '', ( #172 ), #103 ) ;
#7 = SURFACE_SIDE_STYLE ('',( #10 ) ) ;
#8 = FACE_OUTER_BOUND ( 'NONE', #153, .T. ) ;
#9 = FILL_AREA_STYLE ('',( #139 ) ) ;
#10 = SURFACE_STYLE_FILL_AREA ( #314 ) ;
#11 = CARTESIAN_POINT ( 'NONE',  ( 0.000000000000000000, 0.3750000000000000555, 0.000000000000000000 ) ) ;
#12 =( NAMED_UNIT ( * ) PLANE_ANGLE_UNIT ( ) SI_UNIT ( $, .RADIAN. ) );
#13 = VERTEX_POINT ( 'NONE', #333 ) ;
#14 = AXIS2_PLACEMENT_3D ( 'NONE', #209, #317, #123 ) ;
#15 = LENGTH_MEASURE_WITH_UNIT ( LENGTH_MEASURE( 0.02539999999999999897 ), #150 );
#16 =( CONVERSION_BASED_UNIT ( 'INCH', #268 ) LENGTH_UNIT ( ) NAMED_UNIT ( #232 ) );
#17 = CARTESIAN_POINT ( 'NONE',  ( -0.09374999999999983347, 2.000000000000000000, 0.000000000000000000 ) ) ;
#18 = CARTESIAN_POINT ( 'NONE',  ( 0.000000000000000000, 0.3750000000000000555, 0.000000000000000000 ) ) ;
#19 = UNCERTAINTY_MEASURE_WITH_UNIT (LENGTH_MEASURE( 1.000000000000000082E-05 ), #39, 'distance_accuracy_value', 'NONE');
#20 = DIRECTION ( 'NONE',  ( -1.000000000000000000, 0.000000000000000000, 0.000000000000000000 ) ) ;
#21 = AXIS2_PLACEMENT_3D ( 'NONE', #311, #175, #288 ) ;
#22 = ORIENTED_EDGE ( 'NONE', *, *, #347, .T. ) ;
#23 = DIRECTION ( 'NONE',  ( 1.000000000000000000, 0.000000000000000000, 0.000000000000000000 ) ) ;
#24 = EDGE_LOOP ( 'NONE', ( #324, #276, #258, #22 ) ) ;
#25 = SHAPE_DEFINITION_REPRESENTATION ( #371, #305 ) ;
#26 = ADVANCED_FACE ( 'NONE', ( #76 ), #289, .T. ) ;
#27 = CIRCLE ( 'NONE', #135, 0.09374999999999969469 ) ;
#28 = AXIS2_PLACEMENT_3D ( 'NONE', #64, #149, #354 ) ;
#29 = PRODUCT_RELATED_PRODUCT_CATEGORY ( 'part', '', ( #152 ) ) ;
#30 = FILL_AREA_STYLE_COLOUR ( '', #249 ) ;
#31 = DIMENSIONAL_EXPONENTS ( 1.000000000000000000, 0.000000000000000000, 0.000000000000000000, 0.000000000000000000, 0.000000000000000000, 0.000000000000000000, 0.000000000000000000 ) ;
#32 =( CONVERSION_BASED_UNIT ( 'INCH', #84 ) LENGTH_UNIT ( ) NAMED_UNIT ( #265 ) );
#33 = CARTESIAN_POINT ( 'NONE',  ( 6.123233995736766036E-17, 2.000000000000000000, 0.000000000000000000 ) ) ;
#34 = EDGE_CURVE ( 'NONE', #325, #132, #137, .T. ) ;
#35 =( NAMED_UNIT ( * ) PLANE_ANGLE_UNIT ( ) SI_UNIT ( $, .RADIAN. ) );
#36 =( GEOMETRIC_REPRESENTATION_CONTEXT ( 3 ) GLOBAL_UNCERTAINTY_ASSIGNED_CONTEXT ( ( #158 ) ) GLOBAL_UNIT_ASSIGNED_CONTEXT ( ( #52, #247, #168 ) ) REPRESENTATION_CONTEXT ( 'NONE', 'WORKASPACE' ) );
#37 = DIRECTION ( 'NONE',  ( -0.000000000000000000, -1.000000000000000000, -0.000000000000000000 ) ) ;
#38 = DIRECTION ( 'NONE',  ( -1.000000000000000000, 0.000000000000000000, 0.000000000000000000 ) ) ;
#39 =( CONVERSION_BASED_UNIT ( 'INCH', #273 ) LENGTH_UNIT ( ) NAMED_UNIT ( #112 ) );
#40 = CIRCLE ( 'NONE', #300, 0.09374999999999990286 ) ;
#41 = AXIS2_PLACEMENT_3D ( 'NONE', #18, #278, #294 ) ;
#42 =( NAMED_UNIT ( * ) PLANE_ANGLE_UNIT ( ) SI_UNIT ( $, .RADIAN. ) );
#43 = CARTESIAN_POINT ( 'NONE',  ( -1.148106374200644017E-17, 0.09375000000000002776, 0.000000000000000000 ) ) ;
#44 = SURFACE_SIDE_STYLE ('',( #129 ) ) ;
#45 = DIRECTION ( 'NONE',  ( 0.000000000000000000, 0.000000000000000000, -1.000000000000000000 ) ) ;
#46 = ADVANCED_FACE ( 'NONE', ( #95 ), #81, .T. ) ;
#47 =( NAMED_UNIT ( * ) SI_UNIT ( $, .STERADIAN. ) SOLID_ANGLE_UNIT ( ) );
#48 = ORIENTED_EDGE ( 'NONE', *, *, #58, .F. ) ;
#49 = PRESENTATION_STYLE_ASSIGNMENT (( #191 ) ) ;
#50 = AXIS2_PLACEMENT_3D ( 'NONE', #253, #55, #338 ) ;
#51 = ORIENTED_EDGE ( 'NONE', *, *, #79, .T. ) ;
#52 =( CONVERSION_BASED_UNIT ( 'INCH', #321 ) LENGTH_UNIT ( ) NAMED_UNIT ( #174 ) );
#53 = DIRECTION ( 'NONE',  ( -1.226448644532570418E-16, 1.000000000000000000, 0.000000000000000000 ) ) ;
#54 =( NAMED_UNIT ( * ) PLANE_ANGLE_UNIT ( ) SI_UNIT ( $, .RADIAN. ) );
#55 = DIRECTION ( 'NONE',  ( 0.000000000000000000, 0.000000000000000000, 1.000000000000000000 ) ) ;
#56 = CIRCLE ( 'NONE', #279, 0.09374999999999998612 ) ;
#57 = MECHANICAL_DESIGN_GEOMETRIC_PRESENTATION_REPRESENTATION (  '', ( #281 ), #70 ) ;
#58 = EDGE_CURVE ( 'NONE', #301, #159, #40, .T. ) ;
#59 = AXIS2_PLACEMENT_3D ( 'NONE', #187, #100, #296 ) ;
#60 = DIRECTION ( 'NONE',  ( -1.000000000000000000, -1.226448644532570418E-16, 0.000000000000000000 ) ) ;
#61 = SURFACE_SIDE_STYLE ('',( #176 ) ) ;
#62 = PRESENTATION_STYLE_ASSIGNMENT (( #121 ) ) ;
#63 = PRESENTATION_STYLE_ASSIGNMENT (( #118 ) ) ;
#64 = CARTESIAN_POINT ( 'NONE',  ( -1.148106374200644017E-17, 0.09375000000000002776, 0.000000000000000000 ) ) ;
#65 = SURFACE_SIDE_STYLE ('',( #110 ) ) ;
#66 = ORIENTED_EDGE ( 'NONE', *, *, #263, .T. ) ;
#67 = PLANE ( 'NONE',  #41 ) ;
#68 =( LENGTH_UNIT ( ) NAMED_UNIT ( * ) SI_UNIT ( $, .METRE. ) );
#69 = DIRECTION ( 'NONE',  ( 0.000000000000000000, 0.000000000000000000, -1.000000000000000000 ) ) ;
#70 =( GEOMETRIC_REPRESENTATION_CONTEXT ( 3 ) GLOBAL_UNCERTAINTY_ASSIGNED_CONTEXT ( ( #221 ) ) GLOBAL_UNIT_ASSIGNED_CONTEXT ( ( #184, #35, #2 ) ) REPRESENTATION_CONTEXT ( 'NONE', 'WORKASPACE' ) );
#71 = MECHANICAL_DESIGN_GEOMETRIC_PRESENTATION_REPRESENTATION (  '', ( #322 ), #36 ) ;
#72 = SURFACE_SIDE_STYLE ('',( #267 ) ) ;
#73 = ORIENTED_EDGE ( 'NONE', *, *, #292, .T. ) ;
#74 = COLOUR_RGB ( '',0.7921568627450980005, 0.8196078431372548767, 0.9333333333333333481 ) ;
#75 = DIRECTION ( 'NONE',  ( 1.226448644532570418E-16, -1.000000000000000000, 0.000000000000000000 ) ) ;
#76 = FACE_OUTER_BOUND ( 'NONE', #185, .T. ) ;
#77 = DIRECTION ( 'NONE',  ( 0.000000000000000000, 0.000000000000000000, -1.000000000000000000 ) ) ;
#78 = STYLED_ITEM ( 'NONE', ( #62 ), #364 ) ;
#79 = EDGE_CURVE ( 'NONE', #194, #106, #248, .T. ) ;
#80 = DIRECTION ( 'NONE',  ( 1.224646799147353207E-16, -0.000000000000000000, 1.000000000000000000 ) ) ;
#81 = CYLINDRICAL_SURFACE ( 'NONE', #197, 0.09374999999999998612 ) ;
#82 = MECHANICAL_DESIGN_GEOMETRIC_PRESENTATION_REPRESENTATION (  '', ( #161 ), #342 ) ;
#83 = DIRECTION ( 'NONE',  ( -1.000000000000000000, 0.000000000000000000, 0.000000000000000000 ) ) ;
#84 = LENGTH_MEASURE_WITH_UNIT ( LENGTH_MEASURE( 0.02539999999999999897 ), #373 );
#85 = LENGTH_MEASURE_WITH_UNIT ( LENGTH_MEASURE( 0.02539999999999999897 ), #228 );
#86 = ORIENTED_EDGE ( 'NONE', *, *, #99, .F. ) ;
#87 = CARTESIAN_POINT ( 'NONE',  ( 0.000000000000000000, 0.000000000000000000, 0.000000000000000000 ) ) ;
#88 = DIRECTION ( 'NONE',  ( -1.226448644532570418E-16, 1.000000000000000000, -0.000000000000000000 ) ) ;
#89 = DIRECTION ( 'NONE',  ( -1.226448644532570418E-16, 1.000000000000000000, -0.000000000000000000 ) ) ;
#90 = DIMENSIONAL_EXPONENTS ( 1.000000000000000000, 0.000000000000000000, 0.000000000000000000, 0.000000000000000000, 0.000000000000000000, 0.000000000000000000, 0.000000000000000000 ) ;
#91 = VECTOR ( 'NONE', #88, 39.37007874015748143 ) ;
#92 = ORIENTED_EDGE ( 'NONE', *, *, #347, .F. ) ;
#93 = PRODUCT_DEFINITION ( 'UNKNOWN', '', #163, #165 ) ;
#94 =( LENGTH_UNIT ( ) NAMED_UNIT ( * ) SI_UNIT ( $, .METRE. ) );
#95 = FACE_OUTER_BOUND ( 'NONE', #259, .T. ) ;
#96 = CYLINDRICAL_SURFACE ( 'NONE', #14, 0.09374999999999981959 ) ;
#97 = VERTEX_POINT ( 'NONE', #140 ) ;
#98 = CARTESIAN_POINT ( 'NONE',  ( 0.000000000000000000, 0.000000000000000000, -0.09374999999999998612 ) ) ;
#99 = EDGE_CURVE ( 'NONE', #13, #361, #27, .T. ) ;
#100 = DIRECTION ( 'NONE',  ( -1.226448644532570418E-16, 1.000000000000000000, -0.000000000000000000 ) ) ;
#101 = CIRCLE ( 'NONE', #21, 0.09374999999999990286 ) ;
#102 = ORIENTED_EDGE ( 'NONE', *, *, #107, .F. ) ;
#103 =( GEOMETRIC_REPRESENTATION_CONTEXT ( 3 ) GLOBAL_UNCERTAINTY_ASSIGNED_CONTEXT ( ( #134 ) ) GLOBAL_UNIT_ASSIGNED_CONTEXT ( ( #32, #116, #230 ) ) REPRESENTATION_CONTEXT ( 'NONE', 'WORKASPACE' ) );
#104 = EDGE_LOOP ( 'NONE', ( #349, #328 ) ) ;
#105 = DIRECTION ( 'NONE',  ( 1.000000000000000000, 1.226448644532570418E-16, 0.000000000000000000 ) ) ;
#106 = VERTEX_POINT ( 'NONE', #205 ) ;
#107 = EDGE_CURVE ( 'NONE', #132, #212, #236, .T. ) ;
#108 =( GEOMETRIC_REPRESENTATION_CONTEXT ( 3 ) GLOBAL_UNCERTAINTY_ASSIGNED_CONTEXT ( ( #242 ) ) GLOBAL_UNIT_ASSIGNED_CONTEXT ( ( #359, #12, #47 ) ) REPRESENTATION_CONTEXT ( 'NONE', 'WORKASPACE' ) );
#109 = MANIFOLD_SOLID_BREP ( 'Revolve - Tool Body (Straight Shanked)', #323 ) ;
#110 = SURFACE_STYLE_FILL_AREA ( #203 ) ;
#111 =( LENGTH_UNIT ( ) NAMED_UNIT ( * ) SI_UNIT ( $, .METRE. ) );
#112 = DIMENSIONAL_EXPONENTS ( 1.000000000000000000, 0.000000000000000000, 0.000000000000000000, 0.000000000000000000, 0.000000000000000000, 0.000000000000000000, 0.000000000000000000 ) ;
#113 = AXIS2_PLACEMENT_3D ( 'NONE', #262, #355, #20 ) ;
#114 = FILL_AREA_STYLE ('',( #30 ) ) ;
#115 = AXIS2_PLACEMENT_3D ( 'NONE', #339, #206, #316 ) ;
#116 =( NAMED_UNIT ( * ) PLANE_ANGLE_UNIT ( ) SI_UNIT ( $, .RADIAN. ) );
#117 = CARTESIAN_POINT ( 'NONE',  ( 0.000000000000000000, 0.3750000000000000555, -0.09374999999999997224 ) ) ;
#118 = SURFACE_STYLE_USAGE ( .BOTH. , #61 ) ;
#119 = DIRECTION ( 'NONE',  ( -0.000000000000000000, -1.000000000000000000, -0.000000000000000000 ) ) ;
#120 =( GEOMETRIC_REPRESENTATION_CONTEXT ( 3 ) GLOBAL_UNCERTAINTY_ASSIGNED_CONTEXT ( ( #196 ) ) GLOBAL_UNIT_ASSIGNED_CONTEXT ( ( #201, #310, #287 ) ) REPRESENTATION_CONTEXT ( 'NONE', 'WORKASPACE' ) );
#121 = SURFACE_STYLE_USAGE ( .BOTH. , #72 ) ;
#122 = STYLED_ITEM ( 'NONE', ( #224 ), #109 ) ;
#123 = DIRECTION ( 'NONE',  ( -1.000000000000000000, 0.000000000000000000, 0.000000000000000000 ) ) ;
#124 = LINE ( 'NONE', #298, #91 ) ;
#125 = ORIENTED_EDGE ( 'NONE', *, *, #292, .F. ) ;
#126 = CARTESIAN_POINT ( 'NONE',  ( 0.09374999999999995837, 2.000000000000000000, 1.148106374200641860E-17 ) ) ;
#127 = PRODUCT_CONTEXT ( 'NONE', #226, 'mechanical' ) ;
#128 = ORIENTED_EDGE ( 'NONE', *, *, #271, .F. ) ;
#129 = SURFACE_STYLE_FILL_AREA ( #189 ) ;
#130 = DIRECTION ( 'NONE',  ( -0.000000000000000000, -1.000000000000000000, -0.000000000000000000 ) ) ;
#131 = ORIENTED_EDGE ( 'NONE', *, *, #178, .F. ) ;
#132 = VERTEX_POINT ( 'NONE', #353 ) ;
#133 = CARTESIAN_POINT ( 'NONE',  ( -1.148106374200644017E-17, 0.09375000000000002776, 0.000000000000000000 ) ) ;
#134 = UNCERTAINTY_MEASURE_WITH_UNIT (LENGTH_MEASURE( 1.000000000000000082E-05 ), #32, 'distance_accuracy_value', 'NONE');
#135 = AXIS2_PLACEMENT_3D ( 'NONE', #147, #89, #83 ) ;
#136 = SURFACE_SIDE_STYLE ('',( #169 ) ) ;
#137 = CIRCLE ( 'NONE', #115, 0.09374999999999998612 ) ;
#138 = AXIS2_PLACEMENT_3D ( 'NONE', #133, #80, #177 ) ;
#139 = FILL_AREA_STYLE_COLOUR ( '', #200 ) ;
#140 = CARTESIAN_POINT ( 'NONE',  ( -5.740531871003220085E-18, 0.000000000000000000, 0.000000000000000000 ) ) ;
#141 = CARTESIAN_POINT ( 'NONE',  ( 0.09374999999999995837, 0.3749999999999999445, 1.148106374200641860E-17 ) ) ;
#142 = SURFACE_STYLE_USAGE ( .BOTH. , #65 ) ;
#143 = COLOUR_RGB ( '',0.7921568627450980005, 0.8196078431372548767, 0.9333333333333333481 ) ;
#144 = SPHERICAL_SURFACE ( 'NONE', #50, 0.09375000000000002776 ) ;
#145 = DIRECTION ( 'NONE',  ( 0.000000000000000000, 0.000000000000000000, -1.000000000000000000 ) ) ;
#146 = ADVANCED_FACE ( 'NONE', ( #217 ), #67, .T. ) ;
#147 = CARTESIAN_POINT ( 'NONE',  ( 2.605302446939103533E-16, 0.3749999999999999445, 0.000000000000000000 ) ) ;
#148 = CARTESIAN_POINT ( 'NONE',  ( 0.000000000000000000, 0.000000000000000000, 0.000000000000000000 ) ) ;
#149 = DIRECTION ( 'NONE',  ( 0.000000000000000000, 0.000000000000000000, 1.000000000000000000 ) ) ;
#150 =( LENGTH_UNIT ( ) NAMED_UNIT ( * ) SI_UNIT ( $, .METRE. ) );
#151 = AXIS2_PLACEMENT_3D ( 'NONE', #237, #320, #69 ) ;
#152 = PRODUCT ( '49050', '49050', '', ( #127 ) ) ;
#153 = EDGE_LOOP ( 'NONE', ( #86, #125 ) ) ;
#154 = FILL_AREA_STYLE ('',( #302 ) ) ;
#155 = FILL_AREA_STYLE_COLOUR ( '', #207 ) ;
#156 = ORIENTED_EDGE ( 'NONE', *, *, #309, .T. ) ;
#157 = DIRECTION ( 'NONE',  ( 0.000000000000000000, 0.000000000000000000, 1.000000000000000000 ) ) ;
#158 = UNCERTAINTY_MEASURE_WITH_UNIT (LENGTH_MEASURE( 1.000000000000000082E-05 ), #52, 'distance_accuracy_value', 'NONE');
#159 = VERTEX_POINT ( 'NONE', #126 ) ;
#160 = LINE ( 'NONE', #275, #222 ) ;
#161 = STYLED_ITEM ( 'NONE', ( #250 ), #215 ) ;
#162 = EDGE_LOOP ( 'NONE', ( #131, #182, #208, #240 ) ) ;
#163 = PRODUCT_DEFINITION_FORMATION_WITH_SPECIFIED_SOURCE ( 'ANY', '', #152, .NOT_KNOWN. ) ;
#164 =( NAMED_UNIT ( * ) SI_UNIT ( $, .STERADIAN. ) SOLID_ANGLE_UNIT ( ) );
#165 = PRODUCT_DEFINITION_CONTEXT ( 'detailed design', #261, 'design' ) ;
#166 = ADVANCED_FACE ( 'NONE', ( #326 ), #144, .T. ) ;
#167 = ORIENTED_EDGE ( 'NONE', *, *, #329, .T. ) ;
#168 =( NAMED_UNIT ( * ) SI_UNIT ( $, .STERADIAN. ) SOLID_ANGLE_UNIT ( ) );
#169 = SURFACE_STYLE_FILL_AREA ( #114 ) ;
#170 = FACE_OUTER_BOUND ( 'NONE', #291, .T. ) ;
#171 = COLOUR_RGB ( '',1.000000000000000000, 0.000000000000000000, 0.000000000000000000 ) ;
#172 = STYLED_ITEM ( 'NONE', ( #252 ), #46 ) ;
#173 =( GEOMETRIC_REPRESENTATION_CONTEXT ( 3 ) GLOBAL_UNCERTAINTY_ASSIGNED_CONTEXT ( ( #282 ) ) GLOBAL_UNIT_ASSIGNED_CONTEXT ( ( #16, #54, #214 ) ) REPRESENTATION_CONTEXT ( 'NONE', 'WORKASPACE' ) );
#174 = DIMENSIONAL_EXPONENTS ( 1.000000000000000000, 0.000000000000000000, 0.000000000000000000, 0.000000000000000000, 0.000000000000000000, 0.000000000000000000, 0.000000000000000000 ) ;
#175 = DIRECTION ( 'NONE',  ( -1.226448644532570418E-16, 1.000000000000000000, -0.000000000000000000 ) ) ;
#176 = SURFACE_STYLE_FILL_AREA ( #9 ) ;
#177 = DIRECTION ( 'NONE',  ( 1.000000000000000000, 0.000000000000000000, -1.224646799147353207E-16 ) ) ;
#178 = EDGE_CURVE ( 'NONE', #132, #97, #180, .T. ) ;
#179 = DIMENSIONAL_EXPONENTS ( 1.000000000000000000, 0.000000000000000000, 0.000000000000000000, 0.000000000000000000, 0.000000000000000000, 0.000000000000000000, 0.000000000000000000 ) ;
#180 = CIRCLE ( 'NONE', #138, 0.09375000000000002776 ) ;
#181 =( NAMED_UNIT ( * ) SI_UNIT ( $, .STERADIAN. ) SOLID_ANGLE_UNIT ( ) );
#182 = ORIENTED_EDGE ( 'NONE', *, *, #107, .T. ) ;
#183 = CYLINDRICAL_SURFACE ( 'NONE', #113, 0.09374999999999981959 ) ;
#184 =( CONVERSION_BASED_UNIT ( 'INCH', #225 ) LENGTH_UNIT ( ) NAMED_UNIT ( #31 ) );
#185 = EDGE_LOOP ( 'NONE', ( #51, #167, #92, #219, #216 ) ) ;
#186 = CLOSED_SHELL ( 'NONE', ( #215, #26, #146, #46, #166 ) ) ;
#187 = CARTESIAN_POINT ( 'NONE',  ( 2.605302446939103533E-16, 0.3749999999999999445, 0.000000000000000000 ) ) ;
#188 = PRESENTATION_LAYER_ASSIGNMENT (  '', '', ( #283 ) ) ;
#189 = FILL_AREA_STYLE ('',( #270 ) ) ;
#190 = ORIENTED_EDGE ( 'NONE', *, *, #329, .F. ) ;
#191 = SURFACE_STYLE_USAGE ( .BOTH. , #356 ) ;
#192 = EDGE_CURVE ( 'NONE', #212, #348, #56, .T. ) ;
#193 = AXIS2_PLACEMENT_3D ( 'NONE', #43, #45, #269 ) ;
#194 = VERTEX_POINT ( 'NONE', #117 ) ;
#195 = ADVANCED_FACE ( 'NONE', ( #8 ), #198, .F. ) ;
#196 = UNCERTAINTY_MEASURE_WITH_UNIT (LENGTH_MEASURE( 1.000000000000000082E-05 ), #201, 'distance_accuracy_value', 'NONE');
#197 = AXIS2_PLACEMENT_3D ( 'NONE', #87, #308, #145 ) ;
#198 = PLANE ( 'NONE',  #199 ) ;
#199 = AXIS2_PLACEMENT_3D ( 'NONE', #334, #53, #60 ) ;
#200 = COLOUR_RGB ( '',1.000000000000000000, 0.000000000000000000, 0.000000000000000000 ) ;
#201 =( CONVERSION_BASED_UNIT ( 'INCH', #85 ) LENGTH_UNIT ( ) NAMED_UNIT ( #90 ) );
#202 = DIMENSIONAL_EXPONENTS ( 1.000000000000000000, 0.000000000000000000, 0.000000000000000000, 0.000000000000000000, 0.000000000000000000, 0.000000000000000000, 0.000000000000000000 ) ;
#203 = FILL_AREA_STYLE ('',( #286 ) ) ;
#204 = FACE_OUTER_BOUND ( 'NONE', #266, .T. ) ;
#205 = CARTESIAN_POINT ( 'NONE',  ( 1.148106374200643247E-17, 0.3750000000000000555, 0.09374999999999997224 ) ) ;
#206 = DIRECTION ( 'NONE',  ( -0.000000000000000000, -1.000000000000000000, -0.000000000000000000 ) ) ;
#207 = COLOUR_RGB ( '',1.000000000000000000, 0.000000000000000000, 0.000000000000000000 ) ;
#208 = ORIENTED_EDGE ( 'NONE', *, *, #192, .T. ) ;
#209 = CARTESIAN_POINT ( 'NONE',  ( 6.123233995736766036E-17, 2.000000000000000000, 0.000000000000000000 ) ) ;
#210 = ORIENTED_EDGE ( 'NONE', *, *, #271, .T. ) ;
#211 = DIRECTION ( 'NONE',  ( -1.226448644532570418E-16, 1.000000000000000000, -0.000000000000000000 ) ) ;
#212 = VERTEX_POINT ( 'NONE', #280 ) ;
#213 = SURFACE_STYLE_FILL_AREA ( #241 ) ;
#214 =( NAMED_UNIT ( * ) SI_UNIT ( $, .STERADIAN. ) SOLID_ANGLE_UNIT ( ) );
#215 = ADVANCED_FACE ( 'NONE', ( #340 ), #315, .T. ) ;
#216 = ORIENTED_EDGE ( 'NONE', *, *, #369, .F. ) ;
#217 = FACE_OUTER_BOUND ( 'NONE', #104, .T. ) ;
#218 = CIRCLE ( 'NONE', #243, 0.09374999999999998612 ) ;
#219 = ORIENTED_EDGE ( 'NONE', *, *, #192, .F. ) ;
#220 = CARTESIAN_POINT ( 'NONE',  ( 1.148106374200643401E-17, 0.09375000000000004163, 0.09374999999999998612 ) ) ;
#221 = UNCERTAINTY_MEASURE_WITH_UNIT (LENGTH_MEASURE( 1.000000000000000082E-05 ), #184, 'distance_accuracy_value', 'NONE');
#222 = VECTOR ( 'NONE', #304, 39.37007874015748143 ) ;
#223 = PRESENTATION_LAYER_ASSIGNMENT (  '', '', ( #122 ) ) ;
#224 = PRESENTATION_STYLE_ASSIGNMENT (( #285 ) ) ;
#225 = LENGTH_MEASURE_WITH_UNIT ( LENGTH_MEASURE( 0.02539999999999999897 ), #111 );
#226 = APPLICATION_CONTEXT ( 'automotive_design' ) ;
#227 = COLOUR_RGB ( '',1.000000000000000000, 0.000000000000000000, 0.000000000000000000 ) ;
#228 =( LENGTH_UNIT ( ) NAMED_UNIT ( * ) SI_UNIT ( $, .METRE. ) );
#229 = LENGTH_MEASURE_WITH_UNIT ( LENGTH_MEASURE( 0.02539999999999999897 ), #94 );
#230 =( NAMED_UNIT ( * ) SI_UNIT ( $, .STERADIAN. ) SOLID_ANGLE_UNIT ( ) );
#231 = LINE ( 'NONE', #346, #350 ) ;
#232 = DIMENSIONAL_EXPONENTS ( 1.000000000000000000, 0.000000000000000000, 0.000000000000000000, 0.000000000000000000, 0.000000000000000000, 0.000000000000000000, 0.000000000000000000 ) ;
#233 = EDGE_LOOP ( 'NONE', ( #352, #73, #210, #277 ) ) ;
#234 = CARTESIAN_POINT ( 'NONE',  ( 0.000000000000000000, 0.09375000000000004163, 0.000000000000000000 ) ) ;
#235 = DIRECTION ( 'NONE',  ( 0.000000000000000000, 0.000000000000000000, -1.000000000000000000 ) ) ;
#236 = CIRCLE ( 'NONE', #341, 0.09374999999999998612 ) ;
#237 = CARTESIAN_POINT ( 'NONE',  ( 0.000000000000000000, 0.3750000000000000555, 0.000000000000000000 ) ) ;
#238 = ORIENTED_EDGE ( 'NONE', *, *, #58, .T. ) ;
#239 =( LENGTH_UNIT ( ) NAMED_UNIT ( * ) SI_UNIT ( $, .METRE. ) );
#240 = ORIENTED_EDGE ( 'NONE', *, *, #307, .T. ) ;
#241 = FILL_AREA_STYLE ('',( #155 ) ) ;
#242 = UNCERTAINTY_MEASURE_WITH_UNIT (LENGTH_MEASURE( 1.000000000000000082E-05 ), #359, 'distance_accuracy_value', 'NONE');
#243 = AXIS2_PLACEMENT_3D ( 'NONE', #363, #336, #1 ) ;
#244 = ADVANCED_FACE ( 'NONE', ( #170 ), #183, .T. ) ;
#245 = SURFACE_STYLE_USAGE ( .BOTH. , #44 ) ;
#246 = ORIENTED_EDGE ( 'NONE', *, *, #360, .T. ) ;
#247 =( NAMED_UNIT ( * ) PLANE_ANGLE_UNIT ( ) SI_UNIT ( $, .RADIAN. ) );
#248 = CIRCLE ( 'NONE', #295, 0.09374999999999997224 ) ;
#249 = COLOUR_RGB ( '',1.000000000000000000, 0.000000000000000000, 0.000000000000000000 ) ;
#250 = PRESENTATION_STYLE_ASSIGNMENT (( #345 ) ) ;
#251 = PRESENTATION_LAYER_ASSIGNMENT (  '', '', ( #161 ) ) ;
#252 = PRESENTATION_STYLE_ASSIGNMENT (( #142 ) ) ;
#253 = CARTESIAN_POINT ( 'NONE',  ( -1.148106374200644017E-17, 0.09375000000000002776, 0.000000000000000000 ) ) ;
#254 = ADVANCED_FACE ( 'NONE', ( #351 ), #96, .T. ) ;
#255 = DIRECTION ( 'NONE',  ( 0.000000000000000000, 0.000000000000000000, -1.000000000000000000 ) ) ;
#256 = CIRCLE ( 'NONE', #151, 0.09374999999999997224 ) ;
#257 = CARTESIAN_POINT ( 'NONE',  ( 0.000000000000000000, 0.09375000000000004163, 0.000000000000000000 ) ) ;
#258 = ORIENTED_EDGE ( 'NONE', *, *, #307, .F. ) ;
#259 = EDGE_LOOP ( 'NONE', ( #190, #66, #5, #102, #274 ) ) ;
#260 = DIRECTION ( 'NONE',  ( 0.000000000000000000, 0.000000000000000000, -1.000000000000000000 ) ) ;
#261 = APPLICATION_CONTEXT ( 'automotive_design' ) ;
#262 = CARTESIAN_POINT ( 'NONE',  ( 6.123233995736766036E-17, 2.000000000000000000, 0.000000000000000000 ) ) ;
#263 = EDGE_CURVE ( 'NONE', #106, #194, #256, .T. ) ;
#264 =( NAMED_UNIT ( * ) PLANE_ANGLE_UNIT ( ) SI_UNIT ( $, .RADIAN. ) );
#265 = DIMENSIONAL_EXPONENTS ( 1.000000000000000000, 0.000000000000000000, 0.000000000000000000, 0.000000000000000000, 0.000000000000000000, 0.000000000000000000, 0.000000000000000000 ) ;
#266 = EDGE_LOOP ( 'NONE', ( #238, #246 ) ) ;
#267 = SURFACE_STYLE_FILL_AREA ( #154 ) ;
#268 = LENGTH_MEASURE_WITH_UNIT ( LENGTH_MEASURE( 0.02539999999999999897 ), #68 );
#269 = DIRECTION ( 'NONE',  ( -1.000000000000000000, 0.000000000000000000, 0.000000000000000000 ) ) ;
#270 = FILL_AREA_STYLE_COLOUR ( '', #171 ) ;
#271 = EDGE_CURVE ( 'NONE', #13, #301, #231, .T. ) ;
#272 = APPLICATION_PROTOCOL_DEFINITION ( 'draft international standard', 'automotive_design', 1998, #226 ) ;
#273 = LENGTH_MEASURE_WITH_UNIT ( LENGTH_MEASURE( 0.02539999999999999897 ), #335 );
#274 = ORIENTED_EDGE ( 'NONE', *, *, #34, .F. ) ;
#275 = CARTESIAN_POINT ( 'NONE',  ( 1.148106374200643401E-17, 0.000000000000000000, 0.09374999999999998612 ) ) ;
#276 = ORIENTED_EDGE ( 'NONE', *, *, #178, .T. ) ;
#277 = ORIENTED_EDGE ( 'NONE', *, *, #360, .F. ) ;
#278 = DIRECTION ( 'NONE',  ( 0.000000000000000000, 1.000000000000000000, 0.000000000000000000 ) ) ;
#279 = AXIS2_PLACEMENT_3D ( 'NONE', #257, #3, #77 ) ;
#280 = CARTESIAN_POINT ( 'NONE',  ( 0.000000000000000000, 0.09375000000000004163, -0.09374999999999998612 ) ) ;
#281 = STYLED_ITEM ( 'NONE', ( #63 ), #26 ) ;
#282 = UNCERTAINTY_MEASURE_WITH_UNIT (LENGTH_MEASURE( 1.000000000000000082E-05 ), #16, 'distance_accuracy_value', 'NONE');
#283 = STYLED_ITEM ( 'NONE', ( #49 ), #166 ) ;
#284 = PRESENTATION_LAYER_ASSIGNMENT (  '', '', ( #281 ) ) ;
#285 = SURFACE_STYLE_USAGE ( .BOTH. , #7 ) ;
#286 = FILL_AREA_STYLE_COLOUR ( '', #227 ) ;
#287 =( NAMED_UNIT ( * ) SI_UNIT ( $, .STERADIAN. ) SOLID_ANGLE_UNIT ( ) );
#288 = DIRECTION ( 'NONE',  ( -1.000000000000000000, 0.000000000000000000, 0.000000000000000000 ) ) ;
#289 = CYLINDRICAL_SURFACE ( 'NONE', #297, 0.09374999999999998612 ) ;
#290 = MECHANICAL_DESIGN_GEOMETRIC_PRESENTATION_REPRESENTATION (  '', ( #78 ), #108 ) ;
#291 = EDGE_LOOP ( 'NONE', ( #365, #156, #48, #128 ) ) ;
#292 = EDGE_CURVE ( 'NONE', #361, #13, #372, .T. ) ;
#293 =( CONVERSION_BASED_UNIT ( 'INCH', #229 ) LENGTH_UNIT ( ) NAMED_UNIT ( #179 ) );
#294 = DIRECTION ( 'NONE',  ( 0.000000000000000000, -0.000000000000000000, 1.000000000000000000 ) ) ;
#295 = AXIS2_PLACEMENT_3D ( 'NONE', #11, #119, #235 ) ;
#296 = DIRECTION ( 'NONE',  ( -1.000000000000000000, 0.000000000000000000, 0.000000000000000000 ) ) ;
#297 = AXIS2_PLACEMENT_3D ( 'NONE', #148, #37, #260 ) ;
#298 = CARTESIAN_POINT ( 'NONE',  ( 0.09374999999999988898, 2.000000000000000000, 1.148106374200641398E-17 ) ) ;
#299 = VECTOR ( 'NONE', #130, 39.37007874015748143 ) ;
#300 = AXIS2_PLACEMENT_3D ( 'NONE', #33, #313, #38 ) ;
#301 = VERTEX_POINT ( 'NONE', #17 ) ;
#302 = FILL_AREA_STYLE_COLOUR ( '', #143 ) ;
#303 = CARTESIAN_POINT ( 'NONE',  ( 0.000000000000000000, 0.000000000000000000, 0.000000000000000000 ) ) ;
#304 = DIRECTION ( 'NONE',  ( -0.000000000000000000, -1.000000000000000000, -0.000000000000000000 ) ) ;
#305 = ADVANCED_BREP_SHAPE_REPRESENTATION ( '49050', ( #364, #109, #368 ), #173 ) ;
#306 = CIRCLE ( 'NONE', #193, 0.09375000000000002776 ) ;
#307 = EDGE_CURVE ( 'NONE', #348, #97, #306, .T. ) ;
#308 = DIRECTION ( 'NONE',  ( -0.000000000000000000, -1.000000000000000000, -0.000000000000000000 ) ) ;
#309 = EDGE_CURVE ( 'NONE', #361, #159, #124, .T. ) ;
#310 =( NAMED_UNIT ( * ) PLANE_ANGLE_UNIT ( ) SI_UNIT ( $, .RADIAN. ) );
#311 = CARTESIAN_POINT ( 'NONE',  ( 6.123233995736766036E-17, 2.000000000000000000, 0.000000000000000000 ) ) ;
#312 = FILL_AREA_STYLE_COLOUR ( '', #74 ) ;
#313 = DIRECTION ( 'NONE',  ( -1.226448644532570418E-16, 1.000000000000000000, -0.000000000000000000 ) ) ;
#314 = FILL_AREA_STYLE ('',( #312 ) ) ;
#315 = SPHERICAL_SURFACE ( 'NONE', #28, 0.09375000000000002776 ) ;
#316 = DIRECTION ( 'NONE',  ( 0.000000000000000000, 0.000000000000000000, -1.000000000000000000 ) ) ;
#317 = DIRECTION ( 'NONE',  ( -1.226448644532570418E-16, 1.000000000000000000, -0.000000000000000000 ) ) ;
#318 = DIRECTION ( 'NONE',  ( -0.000000000000000000, -1.000000000000000000, -0.000000000000000000 ) ) ;
#319 = ADVANCED_FACE ( 'NONE', ( #204 ), #370, .F. ) ;
#320 = DIRECTION ( 'NONE',  ( -0.000000000000000000, -1.000000000000000000, -0.000000000000000000 ) ) ;
#321 = LENGTH_MEASURE_WITH_UNIT ( LENGTH_MEASURE( 0.02539999999999999897 ), #239 );
#322 = STYLED_ITEM ( 'NONE', ( #366 ), #146 ) ;
#323 = CLOSED_SHELL ( 'NONE', ( #244, #195, #254, #319 ) ) ;
#324 = ORIENTED_EDGE ( 'NONE', *, *, #34, .T. ) ;
#325 = VERTEX_POINT ( 'NONE', #220 ) ;
#326 = FACE_OUTER_BOUND ( 'NONE', #162, .T. ) ;
#327 = CARTESIAN_POINT ( 'NONE',  ( 0.09374999999999997224, 2.000000000000000000, 0.000000000000000000 ) ) ;
#328 = ORIENTED_EDGE ( 'NONE', *, *, #263, .F. ) ;
#329 = EDGE_CURVE ( 'NONE', #106, #325, #160, .T. ) ;
#330 = UNCERTAINTY_MEASURE_WITH_UNIT (LENGTH_MEASURE( 1.000000000000000082E-05 ), #293, 'distance_accuracy_value', 'NONE');
#331 = PRESENTATION_LAYER_ASSIGNMENT (  '', '', ( #322 ) ) ;
#332 = MECHANICAL_DESIGN_GEOMETRIC_PRESENTATION_REPRESENTATION (  '', ( #122 ), #337 ) ;
#333 = CARTESIAN_POINT ( 'NONE',  ( -0.09374999999999944489, 0.3749999999999999445, 0.000000000000000000 ) ) ;
#334 = CARTESIAN_POINT ( 'NONE',  ( 2.605302446939103533E-16, 0.3750000000000000555, 0.000000000000000000 ) ) ;
#335 =( LENGTH_UNIT ( ) NAMED_UNIT ( * ) SI_UNIT ( $, .METRE. ) );
#336 = DIRECTION ( 'NONE',  ( -0.000000000000000000, -1.000000000000000000, -0.000000000000000000 ) ) ;
#337 =( GEOMETRIC_REPRESENTATION_CONTEXT ( 3 ) GLOBAL_UNCERTAINTY_ASSIGNED_CONTEXT ( ( #330 ) ) GLOBAL_UNIT_ASSIGNED_CONTEXT ( ( #293, #42, #164 ) ) REPRESENTATION_CONTEXT ( 'NONE', 'WORKASPACE' ) );
#338 = DIRECTION ( 'NONE',  ( 1.000000000000000000, 0.000000000000000000, 0.000000000000000000 ) ) ;
#339 = CARTESIAN_POINT ( 'NONE',  ( 0.000000000000000000, 0.09375000000000004163, 0.000000000000000000 ) ) ;
#340 = FACE_OUTER_BOUND ( 'NONE', #24, .T. ) ;
#341 = AXIS2_PLACEMENT_3D ( 'NONE', #234, #318, #255 ) ;
#342 =( GEOMETRIC_REPRESENTATION_CONTEXT ( 3 ) GLOBAL_UNCERTAINTY_ASSIGNED_CONTEXT ( ( #19 ) ) GLOBAL_UNIT_ASSIGNED_CONTEXT ( ( #39, #264, #181 ) ) REPRESENTATION_CONTEXT ( 'NONE', 'WORKASPACE' ) );
#343 = CARTESIAN_POINT ( 'NONE',  ( 0.09374999999999998612, 0.09375000000000004163, 0.000000000000000000 ) ) ;
#344 = PRESENTATION_LAYER_ASSIGNMENT (  '', '', ( #172 ) ) ;
#345 = SURFACE_STYLE_USAGE ( .BOTH. , #136 ) ;
#346 = CARTESIAN_POINT ( 'NONE',  ( -0.09374999999999975020, 2.000000000000000000, 0.000000000000000000 ) ) ;
#347 = EDGE_CURVE ( 'NONE', #348, #325, #218, .T. ) ;
#348 = VERTEX_POINT ( 'NONE', #343 ) ;
#349 = ORIENTED_EDGE ( 'NONE', *, *, #79, .F. ) ;
#350 = VECTOR ( 'NONE', #211, 39.37007874015748143 ) ;
#351 = FACE_OUTER_BOUND ( 'NONE', #233, .T. ) ;
#352 = ORIENTED_EDGE ( 'NONE', *, *, #309, .F. ) ;
#353 = CARTESIAN_POINT ( 'NONE',  ( -0.09375000000000002776, 0.09375000000000004163, 1.148106374200643555E-17 ) ) ;
#354 = DIRECTION ( 'NONE',  ( 1.000000000000000000, 0.000000000000000000, 0.000000000000000000 ) ) ;
#355 = DIRECTION ( 'NONE',  ( -1.226448644532570418E-16, 1.000000000000000000, -0.000000000000000000 ) ) ;
#356 = SURFACE_SIDE_STYLE ('',( #213 ) ) ;
#357 = AXIS2_PLACEMENT_3D ( 'NONE', #327, #75, #105 ) ;
#358 = APPLICATION_PROTOCOL_DEFINITION ( 'draft international standard', 'automotive_design', 1998, #261 ) ;
#359 =( CONVERSION_BASED_UNIT ( 'INCH', #15 ) LENGTH_UNIT ( ) NAMED_UNIT ( #202 ) );
#360 = EDGE_CURVE ( 'NONE', #159, #301, #101, .T. ) ;
#361 = VERTEX_POINT ( 'NONE', #141 ) ;
#362 = LINE ( 'NONE', #98, #299 ) ;
#363 = CARTESIAN_POINT ( 'NONE',  ( 0.000000000000000000, 0.09375000000000004163, 0.000000000000000000 ) ) ;
#364 = MANIFOLD_SOLID_BREP ( 'Revolve - Cutting Edge', #186 ) ;
#365 = ORIENTED_EDGE ( 'NONE', *, *, #99, .T. ) ;
#366 = PRESENTATION_STYLE_ASSIGNMENT (( #245 ) ) ;
#367 = PRESENTATION_LAYER_ASSIGNMENT (  '', '', ( #78 ) ) ;
#368 = AXIS2_PLACEMENT_3D ( 'NONE', #303, #157, #23 ) ;
#369 = EDGE_CURVE ( 'NONE', #194, #212, #362, .T. ) ;
#370 = PLANE ( 'NONE',  #357 ) ;
#371 = PRODUCT_DEFINITION_SHAPE ( 'NONE', 'NONE',  #93 ) ;
#372 = CIRCLE ( 'NONE', #59, 0.09374999999999969469 ) ;
#373 =( LENGTH_UNIT ( ) NAMED_UNIT ( * ) SI_UNIT ( $, .METRE. ) );
ENDSEC;
END-ISO-10303-21;
