ISO-10303-21;
HEADER;
FILE_DESCRIPTION (( 'STEP AP214' ),
    '1' );
FILE_NAME ('81679.STEP',
    '2023-06-30T22:32:00',
    ( '' ),
    ( '' ),
    'SwSTEP 2.0',
    'SolidWorks 2023',
    '' );
FILE_SCHEMA (( 'AUTOMOTIVE_DESIGN' ));
ENDSEC;

DATA;
#1 =( NAMED_UNIT ( * ) SI_UNIT ( $, .STERADIAN. ) SOLID_ANGLE_UNIT ( ) );
#2 = UNCERTAINTY_MEASURE_WITH_UNIT (LENGTH_MEASURE( 1.000000000000000082E-05 ), #196, 'distance_accuracy_value', 'NONE');
#3 = APPLICATION_CONTEXT ( 'automotive_design' ) ;
#4 = SURFACE_STYLE_USAGE ( .BOTH. , #240 ) ;
#5 = VECTOR ( 'NONE', #337, 39.37007874015748143 ) ;
#6 = STYLED_ITEM ( 'NONE', ( #61 ), #326 ) ;
#7 = SURFACE_STYLE_FILL_AREA ( #141 ) ;
#8 = UNCERTAINTY_MEASURE_WITH_UNIT (LENGTH_MEASURE( 1.000000000000000082E-05 ), #208, 'distance_accuracy_value', 'NONE');
#9 = DIMENSIONAL_EXPONENTS ( 1.000000000000000000, 0.000000000000000000, 0.000000000000000000, 0.000000000000000000, 0.000000000000000000, 0.000000000000000000, 0.000000000000000000 ) ;
#10 = CARTESIAN_POINT ( 'NONE',  ( -0.2500000000000000000, 0.2500000000000000555, 3.061616997868382402E-17 ) ) ;
#11 =( NAMED_UNIT ( * ) PLANE_ANGLE_UNIT ( ) SI_UNIT ( $, .RADIAN. ) );
#12 =( GEOMETRIC_REPRESENTATION_CONTEXT ( 3 ) GLOBAL_UNCERTAINTY_ASSIGNED_CONTEXT ( ( #347 ) ) GLOBAL_UNIT_ASSIGNED_CONTEXT ( ( #343, #110, #253 ) ) REPRESENTATION_CONTEXT ( 'NONE', 'WORKASPACE' ) );
#13 = AXIS2_PLACEMENT_3D ( 'NONE', #80, #171, #370 ) ;
#14 = ORIENTED_EDGE ( 'NONE', *, *, #123, .F. ) ;
#15 = ADVANCED_FACE ( 'NONE', ( #156 ), #103, .T. ) ;
#16 = PRODUCT_DEFINITION_SHAPE ( 'NONE', 'NONE',  #87 ) ;
#17 = ORIENTED_EDGE ( 'NONE', *, *, #55, .F. ) ;
#18 = ORIENTED_EDGE ( 'NONE', *, *, #272, .T. ) ;
#19 = AXIS2_PLACEMENT_3D ( 'NONE', #342, #134, #73 ) ;
#20 = ORIENTED_EDGE ( 'NONE', *, *, #118, .T. ) ;
#21 = CARTESIAN_POINT ( 'NONE',  ( 3.061616997868381785E-17, 0.000000000000000000, 0.2499999999999998612 ) ) ;
#22 = SURFACE_STYLE_FILL_AREA ( #313 ) ;
#23 = PLANE ( 'NONE',  #19 ) ;
#24 = CARTESIAN_POINT ( 'NONE',  ( -1.836970198721029688E-16, 4.000000000000000000, 0.000000000000000000 ) ) ;
#25 = FILL_AREA_STYLE ('',( #173 ) ) ;
#26 = LENGTH_MEASURE_WITH_UNIT ( LENGTH_MEASURE( 0.02539999999999999897 ), #174 );
#27 = DIRECTION ( 'NONE',  ( -1.000000000000000000, 0.000000000000000000, 0.000000000000000000 ) ) ;
#28 = DIRECTION ( 'NONE',  ( 0.000000000000000000, 1.000000000000000000, 0.000000000000000000 ) ) ;
#29 = ADVANCED_FACE ( 'NONE', ( #159 ), #236, .T. ) ;
#30 = STYLED_ITEM ( 'NONE', ( #151 ), #201 ) ;
#31 = CARTESIAN_POINT ( 'NONE',  ( -3.061616997868383018E-17, 0.2500000000000000000, 0.000000000000000000 ) ) ;
#32 = DIRECTION ( 'NONE',  ( 0.000000000000000000, 0.000000000000000000, -1.000000000000000000 ) ) ;
#33 =( LENGTH_UNIT ( ) NAMED_UNIT ( * ) SI_UNIT ( $, .METRE. ) );
#34 = CARTESIAN_POINT ( 'NONE',  ( -1.530808498934191509E-17, 0.000000000000000000, 0.000000000000000000 ) ) ;
#35 = STYLED_ITEM ( 'NONE', ( #317 ), #104 ) ;
#36 = DIRECTION ( 'NONE',  ( -1.290893399863275010E-16, 1.000000000000000000, -0.000000000000000000 ) ) ;
#37 = FACE_OUTER_BOUND ( 'NONE', #152, .T. ) ;
#38 = DIRECTION ( 'NONE',  ( 0.000000000000000000, 0.000000000000000000, 1.000000000000000000 ) ) ;
#39 = ORIENTED_EDGE ( 'NONE', *, *, #162, .F. ) ;
#40 =( GEOMETRIC_REPRESENTATION_CONTEXT ( 3 ) GLOBAL_UNCERTAINTY_ASSIGNED_CONTEXT ( ( #320 ) ) GLOBAL_UNIT_ASSIGNED_CONTEXT ( ( #51, #364, #166 ) ) REPRESENTATION_CONTEXT ( 'NONE', 'WORKASPACE' ) );
#41 = CIRCLE ( 'NONE', #315, 0.2500000000000000000 ) ;
#42 = ADVANCED_FACE ( 'NONE', ( #280 ), #295, .T. ) ;
#43 = EDGE_LOOP ( 'NONE', ( #189, #74, #311, #17 ) ) ;
#44 = ORIENTED_EDGE ( 'NONE', *, *, #303, .T. ) ;
#45 = PRESENTATION_STYLE_ASSIGNMENT (( #157 ) ) ;
#46 = VERTEX_POINT ( 'NONE', #349 ) ;
#47 = AXIS2_PLACEMENT_3D ( 'NONE', #260, #229, #222 ) ;
#48 = VERTEX_POINT ( 'NONE', #49 ) ;
#49 = CARTESIAN_POINT ( 'NONE',  ( -0.2500000000000000555, 4.000000000000000000, 0.000000000000000000 ) ) ;
#50 = FILL_AREA_STYLE_COLOUR ( '', #289 ) ;
#51 =( CONVERSION_BASED_UNIT ( 'INCH', #368 ) LENGTH_UNIT ( ) NAMED_UNIT ( #243 ) );
#52 = COLOUR_RGB ( '',1.000000000000000000, 0.000000000000000000, 0.000000000000000000 ) ;
#53 = CARTESIAN_POINT ( 'NONE',  ( 0.2499999999999997224, 4.000000000000000000, 3.061616997868381169E-17 ) ) ;
#54 = CARTESIAN_POINT ( 'NONE',  ( 0.000000000000000000, 0.2500000000000000555, 0.000000000000000000 ) ) ;
#55 = EDGE_CURVE ( 'NONE', #192, #48, #333, .T. ) ;
#56 = DIRECTION ( 'NONE',  ( 0.000000000000000000, 0.000000000000000000, 1.000000000000000000 ) ) ;
#57 = CARTESIAN_POINT ( 'NONE',  ( 0.000000000000000000, 0.2500000000000000555, 0.000000000000000000 ) ) ;
#58 = MECHANICAL_DESIGN_GEOMETRIC_PRESENTATION_REPRESENTATION (  '', ( #97 ), #40 ) ;
#59 =( NAMED_UNIT ( * ) PLANE_ANGLE_UNIT ( ) SI_UNIT ( $, .RADIAN. ) );
#60 = CARTESIAN_POINT ( 'NONE',  ( 3.061616997868383018E-17, 0.2500000000000000555, 0.2499999999999999722 ) ) ;
#61 = PRESENTATION_STYLE_ASSIGNMENT (( #238 ) ) ;
#62 = DIRECTION ( 'NONE',  ( 0.000000000000000000, -0.000000000000000000, 1.000000000000000000 ) ) ;
#63 =( CONVERSION_BASED_UNIT ( 'INCH', #142 ) LENGTH_UNIT ( ) NAMED_UNIT ( #190 ) );
#64 = SPHERICAL_SURFACE ( 'NONE', #184, 0.2500000000000000000 ) ;
#65 = CARTESIAN_POINT ( 'NONE',  ( 0.000000000000000000, 0.000000000000000000, 0.000000000000000000 ) ) ;
#66 = SURFACE_STYLE_USAGE ( .BOTH. , #119 ) ;
#67 = DIMENSIONAL_EXPONENTS ( 1.000000000000000000, 0.000000000000000000, 0.000000000000000000, 0.000000000000000000, 0.000000000000000000, 0.000000000000000000, 0.000000000000000000 ) ;
#68 = EDGE_CURVE ( 'NONE', #252, #72, #84, .T. ) ;
#69 = EDGE_LOOP ( 'NONE', ( #70, #308, #247, #357 ) ) ;
#70 = ORIENTED_EDGE ( 'NONE', *, *, #288, .T. ) ;
#71 = CYLINDRICAL_SURFACE ( 'NONE', #47, 0.2499999999999998612 ) ;
#72 = VERTEX_POINT ( 'NONE', #372 ) ;
#73 = DIRECTION ( 'NONE',  ( 1.000000000000000000, 1.290893399863275010E-16, 0.000000000000000000 ) ) ;
#74 = ORIENTED_EDGE ( 'NONE', *, *, #262, .T. ) ;
#75 = PRODUCT_RELATED_PRODUCT_CATEGORY ( 'part', '', ( #115 ) ) ;
#76 = ORIENTED_EDGE ( 'NONE', *, *, #288, .F. ) ;
#77 = DIRECTION ( 'NONE',  ( 1.000000000000000000, 0.000000000000000000, -1.224646799147353207E-16 ) ) ;
#78 = PRESENTATION_STYLE_ASSIGNMENT (( #109 ) ) ;
#79 = SURFACE_STYLE_FILL_AREA ( #232 ) ;
#80 = CARTESIAN_POINT ( 'NONE',  ( 7.448166010055203326E-17, 2.000000000000000000, 0.000000000000000000 ) ) ;
#81 =( LENGTH_UNIT ( ) NAMED_UNIT ( * ) SI_UNIT ( $, .METRE. ) );
#82 = UNCERTAINTY_MEASURE_WITH_UNIT (LENGTH_MEASURE( 1.000000000000000082E-05 ), #143, 'distance_accuracy_value', 'NONE');
#83 = MECHANICAL_DESIGN_GEOMETRIC_PRESENTATION_REPRESENTATION (  '', ( #30 ), #329 ) ;
#84 = LINE ( 'NONE', #369, #339 ) ;
#85 = DIRECTION ( 'NONE',  ( 0.000000000000000000, 0.000000000000000000, -1.000000000000000000 ) ) ;
#86 = SURFACE_STYLE_FILL_AREA ( #175 ) ;
#87 = PRODUCT_DEFINITION ( 'UNKNOWN', '', #198, #300 ) ;
#88 = MECHANICAL_DESIGN_GEOMETRIC_PRESENTATION_REPRESENTATION (  '', ( #250 ), #12 ) ;
#89 = PRESENTATION_STYLE_ASSIGNMENT (( #360 ) ) ;
#90 = DIRECTION ( 'NONE',  ( 0.000000000000000000, 0.000000000000000000, 1.000000000000000000 ) ) ;
#91 = DIRECTION ( 'NONE',  ( -0.000000000000000000, -1.000000000000000000, -0.000000000000000000 ) ) ;
#92 = PRESENTATION_LAYER_ASSIGNMENT (  '', '', ( #6 ) ) ;
#93 = DIRECTION ( 'NONE',  ( -1.290893399863275010E-16, 1.000000000000000000, 0.000000000000000000 ) ) ;
#94 = SHAPE_DEFINITION_REPRESENTATION ( #16, #126 ) ;
#95 = VERTEX_POINT ( 'NONE', #34 ) ;
#96 = VERTEX_POINT ( 'NONE', #60 ) ;
#97 = STYLED_ITEM ( 'NONE', ( #112 ), #140 ) ;
#98 = CIRCLE ( 'NONE', #239, 0.2499999999999999722 ) ;
#99 = EDGE_LOOP ( 'NONE', ( #20, #216 ) ) ;
#100 = SURFACE_SIDE_STYLE ('',( #256 ) ) ;
#101 = ORIENTED_EDGE ( 'NONE', *, *, #328, .T. ) ;
#102 = SURFACE_STYLE_USAGE ( .BOTH. , #100 ) ;
#103 = CYLINDRICAL_SURFACE ( 'NONE', #361, 0.2499999999999998057 ) ;
#104 = ADVANCED_FACE ( 'NONE', ( #322 ), #195, .T. ) ;
#105 = AXIS2_PLACEMENT_3D ( 'NONE', #122, #91, #209 ) ;
#106 =( GEOMETRIC_REPRESENTATION_CONTEXT ( 3 ) GLOBAL_UNCERTAINTY_ASSIGNED_CONTEXT ( ( #2 ) ) GLOBAL_UNIT_ASSIGNED_CONTEXT ( ( #196, #367, #203 ) ) REPRESENTATION_CONTEXT ( 'NONE', 'WORKASPACE' ) );
#107 = DIRECTION ( 'NONE',  ( 0.000000000000000000, 0.000000000000000000, -1.000000000000000000 ) ) ;
#108 = FILL_AREA_STYLE ('',( #251 ) ) ;
#109 = SURFACE_STYLE_USAGE ( .BOTH. , #133 ) ;
#110 =( NAMED_UNIT ( * ) PLANE_ANGLE_UNIT ( ) SI_UNIT ( $, .RADIAN. ) );
#111 = DIRECTION ( 'NONE',  ( -0.000000000000000000, -1.000000000000000000, -0.000000000000000000 ) ) ;
#112 = PRESENTATION_STYLE_ASSIGNMENT (( #102 ) ) ;
#113 =( LENGTH_UNIT ( ) NAMED_UNIT ( * ) SI_UNIT ( $, .METRE. ) );
#114 = CARTESIAN_POINT ( 'NONE',  ( 0.000000000000000000, 2.000000000000000000, -0.2499999999999997224 ) ) ;
#115 = PRODUCT ( '81679', '81679', '', ( #309 ) ) ;
#116 = MECHANICAL_DESIGN_GEOMETRIC_PRESENTATION_REPRESENTATION (  '', ( #193 ), #106 ) ;
#117 = CARTESIAN_POINT ( 'NONE',  ( 0.000000000000000000, 0.2500000000000000555, 0.000000000000000000 ) ) ;
#118 = EDGE_CURVE ( 'NONE', #48, #192, #120, .T. ) ;
#119 = SURFACE_SIDE_STYLE ('',( #86 ) ) ;
#120 = CIRCLE ( 'NONE', #227, 0.2499999999999998890 ) ;
#121 =( GEOMETRIC_REPRESENTATION_CONTEXT ( 3 ) GLOBAL_UNCERTAINTY_ASSIGNED_CONTEXT ( ( #8 ) ) GLOBAL_UNIT_ASSIGNED_CONTEXT ( ( #208, #180, #1 ) ) REPRESENTATION_CONTEXT ( 'NONE', 'WORKASPACE' ) );
#122 = CARTESIAN_POINT ( 'NONE',  ( 0.000000000000000000, 2.000000000000000000, 0.000000000000000000 ) ) ;
#123 = EDGE_CURVE ( 'NONE', #332, #96, #323, .T. ) ;
#124 = AXIS2_PLACEMENT_3D ( 'NONE', #168, #373, #27 ) ;
#125 = ORIENTED_EDGE ( 'NONE', *, *, #230, .T. ) ;
#126 = ADVANCED_BREP_SHAPE_REPRESENTATION ( '81679', ( #165, #292, #330 ), #282 ) ;
#127 = EDGE_LOOP ( 'NONE', ( #39, #284, #278, #356, #76 ) ) ;
#128 = EDGE_LOOP ( 'NONE', ( #18, #306, #14, #276, #225 ) ) ;
#129 = CLOSED_SHELL ( 'NONE', ( #15, #348, #42, #155 ) ) ;
#130 = VERTEX_POINT ( 'NONE', #10 ) ;
#131 = CARTESIAN_POINT ( 'NONE',  ( -1.836970198721029688E-16, 4.000000000000000000, 0.000000000000000000 ) ) ;
#132 = EDGE_CURVE ( 'NONE', #188, #252, #169, .T. ) ;
#133 = SURFACE_SIDE_STYLE ('',( #290 ) ) ;
#134 = DIRECTION ( 'NONE',  ( 1.290893399863275010E-16, -1.000000000000000000, 0.000000000000000000 ) ) ;
#135 = AXIS2_PLACEMENT_3D ( 'NONE', #242, #268, #301 ) ;
#136 = EDGE_CURVE ( 'NONE', #46, #192, #327, .T. ) ;
#137 =( CONVERSION_BASED_UNIT ( 'INCH', #139 ) LENGTH_UNIT ( ) NAMED_UNIT ( #147 ) );
#138 = AXIS2_PLACEMENT_3D ( 'NONE', #200, #28, #62 ) ;
#139 = LENGTH_MEASURE_WITH_UNIT ( LENGTH_MEASURE( 0.02539999999999999897 ), #321 );
#140 = ADVANCED_FACE ( 'NONE', ( #224 ), #71, .T. ) ;
#141 = FILL_AREA_STYLE ('',( #291 ) ) ;
#142 = LENGTH_MEASURE_WITH_UNIT ( LENGTH_MEASURE( 0.02539999999999999897 ), #33 );
#143 =( CONVERSION_BASED_UNIT ( 'INCH', #297 ) LENGTH_UNIT ( ) NAMED_UNIT ( #158 ) );
#144 = DIRECTION ( 'NONE',  ( -0.000000000000000000, -1.000000000000000000, -0.000000000000000000 ) ) ;
#145 = CIRCLE ( 'NONE', #13, 0.2499999999999996114 ) ;
#146 = DIRECTION ( 'NONE',  ( -1.000000000000000000, 0.000000000000000000, 0.000000000000000000 ) ) ;
#147 = DIMENSIONAL_EXPONENTS ( 1.000000000000000000, 0.000000000000000000, 0.000000000000000000, 0.000000000000000000, 0.000000000000000000, 0.000000000000000000, 0.000000000000000000 ) ;
#148 = PLANE ( 'NONE',  #334 ) ;
#149 = DIRECTION ( 'NONE',  ( 1.000000000000000000, 0.000000000000000000, 0.000000000000000000 ) ) ;
#150 = APPLICATION_PROTOCOL_DEFINITION ( 'draft international standard', 'automotive_design', 1998, #3 ) ;
#151 = PRESENTATION_STYLE_ASSIGNMENT (( #66 ) ) ;
#152 = EDGE_LOOP ( 'NONE', ( #277, #359 ) ) ;
#153 = PRESENTATION_LAYER_ASSIGNMENT (  '', '', ( #35 ) ) ;
#154 = ORIENTED_EDGE ( 'NONE', *, *, #272, .F. ) ;
#155 = ADVANCED_FACE ( 'NONE', ( #286 ), #23, .F. ) ;
#156 = FACE_OUTER_BOUND ( 'NONE', #336, .T. ) ;
#157 = SURFACE_STYLE_USAGE ( .BOTH. , #191 ) ;
#158 = DIMENSIONAL_EXPONENTS ( 1.000000000000000000, 0.000000000000000000, 0.000000000000000000, 0.000000000000000000, 0.000000000000000000, 0.000000000000000000, 0.000000000000000000 ) ;
#159 = FACE_OUTER_BOUND ( 'NONE', #335, .T. ) ;
#160 =( GEOMETRIC_REPRESENTATION_CONTEXT ( 3 ) GLOBAL_UNCERTAINTY_ASSIGNED_CONTEXT ( ( #176 ) ) GLOBAL_UNIT_ASSIGNED_CONTEXT ( ( #137, #298, #287 ) ) REPRESENTATION_CONTEXT ( 'NONE', 'WORKASPACE' ) );
#161 = CIRCLE ( 'NONE', #294, 0.2499999999999997224 ) ;
#162 = EDGE_CURVE ( 'NONE', #188, #96, #279, .T. ) ;
#163 = APPLICATION_CONTEXT ( 'automotive_design' ) ;
#164 = ORIENTED_EDGE ( 'NONE', *, *, #258, .T. ) ;
#165 = MANIFOLD_SOLID_BREP ( 'Revolve - Cutting Edge', #218 ) ;
#166 =( NAMED_UNIT ( * ) SI_UNIT ( $, .STERADIAN. ) SOLID_ANGLE_UNIT ( ) );
#167 = UNCERTAINTY_MEASURE_WITH_UNIT (LENGTH_MEASURE( 1.000000000000000082E-05 ), #244, 'distance_accuracy_value', 'NONE');
#168 = CARTESIAN_POINT ( 'NONE',  ( 7.448166010055203326E-17, 2.000000000000000000, 0.000000000000000000 ) ) ;
#169 = CIRCLE ( 'NONE', #105, 0.2499999999999997224 ) ;
#170 = AXIS2_PLACEMENT_3D ( 'NONE', #65, #144, #211 ) ;
#171 = DIRECTION ( 'NONE',  ( -1.290893399863275010E-16, 1.000000000000000000, -0.000000000000000000 ) ) ;
#172 = FACE_OUTER_BOUND ( 'NONE', #69, .T. ) ;
#173 = FILL_AREA_STYLE_COLOUR ( '', #275 ) ;
#174 =( LENGTH_UNIT ( ) NAMED_UNIT ( * ) SI_UNIT ( $, .METRE. ) );
#175 = FILL_AREA_STYLE ('',( #265 ) ) ;
#176 = UNCERTAINTY_MEASURE_WITH_UNIT (LENGTH_MEASURE( 1.000000000000000082E-05 ), #137, 'distance_accuracy_value', 'NONE');
#177 = PRESENTATION_LAYER_ASSIGNMENT (  '', '', ( #250 ) ) ;
#178 = PRESENTATION_LAYER_ASSIGNMENT (  '', '', ( #193 ) ) ;
#179 = DIRECTION ( 'NONE',  ( -1.000000000000000000, 0.000000000000000000, 0.000000000000000000 ) ) ;
#180 =( NAMED_UNIT ( * ) PLANE_ANGLE_UNIT ( ) SI_UNIT ( $, .RADIAN. ) );
#181 = CARTESIAN_POINT ( 'NONE',  ( -1.836970198721029688E-16, 4.000000000000000000, 0.000000000000000000 ) ) ;
#182 =( NAMED_UNIT ( * ) SI_UNIT ( $, .STERADIAN. ) SOLID_ANGLE_UNIT ( ) );
#183 = CARTESIAN_POINT ( 'NONE',  ( -3.061616997868383018E-17, 0.2500000000000000000, 0.000000000000000000 ) ) ;
#184 = AXIS2_PLACEMENT_3D ( 'NONE', #183, #38, #149 ) ;
#185 = ORIENTED_EDGE ( 'NONE', *, *, #234, .F. ) ;
#186 = MECHANICAL_DESIGN_GEOMETRIC_PRESENTATION_REPRESENTATION (  '', ( #312 ), #363 ) ;
#187 = MECHANICAL_DESIGN_GEOMETRIC_PRESENTATION_REPRESENTATION (  '', ( #6 ), #121 ) ;
#188 = VERTEX_POINT ( 'NONE', #194 ) ;
#189 = ORIENTED_EDGE ( 'NONE', *, *, #136, .F. ) ;
#190 = DIMENSIONAL_EXPONENTS ( 1.000000000000000000, 0.000000000000000000, 0.000000000000000000, 0.000000000000000000, 0.000000000000000000, 0.000000000000000000, 0.000000000000000000 ) ;
#191 = SURFACE_SIDE_STYLE ('',( #79 ) ) ;
#192 = VERTEX_POINT ( 'NONE', #53 ) ;
#193 = STYLED_ITEM ( 'NONE', ( #78 ), #292 ) ;
#194 = CARTESIAN_POINT ( 'NONE',  ( 3.061616997868380553E-17, 2.000000000000000000, 0.2499999999999997224 ) ) ;
#195 = PLANE ( 'NONE',  #138 ) ;
#196 =( CONVERSION_BASED_UNIT ( 'INCH', #26 ) LENGTH_UNIT ( ) NAMED_UNIT ( #9 ) );
#197 = PRESENTATION_LAYER_ASSIGNMENT (  '', '', ( #30 ) ) ;
#198 = PRODUCT_DEFINITION_FORMATION_WITH_SPECIFIED_SOURCE ( 'ANY', '', #115, .NOT_KNOWN. ) ;
#199 = CARTESIAN_POINT ( 'NONE',  ( 0.000000000000000000, 2.000000000000000000, 0.000000000000000000 ) ) ;
#200 = CARTESIAN_POINT ( 'NONE',  ( 0.000000000000000000, 2.000000000000000000, 0.000000000000000000 ) ) ;
#201 = ADVANCED_FACE ( 'NONE', ( #172 ), #64, .T. ) ;
#202 = DIRECTION ( 'NONE',  ( -1.000000000000000000, 0.000000000000000000, 0.000000000000000000 ) ) ;
#203 =( NAMED_UNIT ( * ) SI_UNIT ( $, .STERADIAN. ) SOLID_ANGLE_UNIT ( ) );
#204 = COLOUR_RGB ( '',1.000000000000000000, 0.000000000000000000, 0.000000000000000000 ) ;
#205 = DIRECTION ( 'NONE',  ( -1.290893399863275010E-16, 1.000000000000000000, -0.000000000000000000 ) ) ;
#206 = VECTOR ( 'NONE', #310, 39.37007874015748143 ) ;
#207 = DIRECTION ( 'NONE',  ( 1.000000000000000000, 0.000000000000000000, 0.000000000000000000 ) ) ;
#208 =( CONVERSION_BASED_UNIT ( 'INCH', #266 ) LENGTH_UNIT ( ) NAMED_UNIT ( #248 ) );
#209 = DIRECTION ( 'NONE',  ( 0.000000000000000000, 0.000000000000000000, -1.000000000000000000 ) ) ;
#210 =( LENGTH_UNIT ( ) NAMED_UNIT ( * ) SI_UNIT ( $, .METRE. ) );
#211 = DIRECTION ( 'NONE',  ( 0.000000000000000000, 0.000000000000000000, -1.000000000000000000 ) ) ;
#212 = VECTOR ( 'NONE', #346, 39.37007874015748143 ) ;
#213 = DIRECTION ( 'NONE',  ( -1.000000000000000000, -1.290893399863275010E-16, 0.000000000000000000 ) ) ;
#214 = EDGE_CURVE ( 'NONE', #130, #95, #245, .T. ) ;
#215 = DIMENSIONAL_EXPONENTS ( 1.000000000000000000, 0.000000000000000000, 0.000000000000000000, 0.000000000000000000, 0.000000000000000000, 0.000000000000000000, 0.000000000000000000 ) ;
#216 = ORIENTED_EDGE ( 'NONE', *, *, #55, .T. ) ;
#217 =( NAMED_UNIT ( * ) PLANE_ANGLE_UNIT ( ) SI_UNIT ( $, .RADIAN. ) );
#218 = CLOSED_SHELL ( 'NONE', ( #201, #140, #104, #326, #29 ) ) ;
#219 = ORIENTED_EDGE ( 'NONE', *, *, #214, .F. ) ;
#220 = COLOUR_RGB ( '',0.7921568627450980005, 0.8196078431372548767, 0.9333333333333333481 ) ;
#221 = VERTEX_POINT ( 'NONE', #261 ) ;
#222 = DIRECTION ( 'NONE',  ( 0.000000000000000000, 0.000000000000000000, -1.000000000000000000 ) ) ;
#223 = DIRECTION ( 'NONE',  ( -1.000000000000000000, 0.000000000000000000, 0.000000000000000000 ) ) ;
#224 = FACE_OUTER_BOUND ( 'NONE', #128, .T. ) ;
#225 = ORIENTED_EDGE ( 'NONE', *, *, #68, .F. ) ;
#226 = UNCERTAINTY_MEASURE_WITH_UNIT (LENGTH_MEASURE( 1.000000000000000082E-05 ), #63, 'distance_accuracy_value', 'NONE');
#227 = AXIS2_PLACEMENT_3D ( 'NONE', #181, #36, #146 ) ;
#228 = FACE_OUTER_BOUND ( 'NONE', #127, .T. ) ;
#229 = DIRECTION ( 'NONE',  ( -0.000000000000000000, -1.000000000000000000, -0.000000000000000000 ) ) ;
#230 = EDGE_CURVE ( 'NONE', #72, #332, #263, .T. ) ;
#231 = CARTESIAN_POINT ( 'NONE',  ( -0.2499999999999999722, 4.000000000000000000, 0.000000000000000000 ) ) ;
#232 = FILL_AREA_STYLE ('',( #366 ) ) ;
#233 = AXIS2_PLACEMENT_3D ( 'NONE', #316, #270, #77 ) ;
#234 = EDGE_CURVE ( 'NONE', #221, #48, #344, .T. ) ;
#235 =( NAMED_UNIT ( * ) SI_UNIT ( $, .STERADIAN. ) SOLID_ANGLE_UNIT ( ) );
#236 = SPHERICAL_SURFACE ( 'NONE', #237, 0.2500000000000000000 ) ;
#237 = AXIS2_PLACEMENT_3D ( 'NONE', #31, #56, #207 ) ;
#238 = SURFACE_STYLE_USAGE ( .BOTH. , #331 ) ;
#239 = AXIS2_PLACEMENT_3D ( 'NONE', #54, #111, #259 ) ;
#240 = SURFACE_SIDE_STYLE ('',( #7 ) ) ;
#241 = DIRECTION ( 'NONE',  ( -1.000000000000000000, 0.000000000000000000, 0.000000000000000000 ) ) ;
#242 = CARTESIAN_POINT ( 'NONE',  ( 0.000000000000000000, 0.2500000000000000555, 0.000000000000000000 ) ) ;
#243 = DIMENSIONAL_EXPONENTS ( 1.000000000000000000, 0.000000000000000000, 0.000000000000000000, 0.000000000000000000, 0.000000000000000000, 0.000000000000000000, 0.000000000000000000 ) ;
#244 =( CONVERSION_BASED_UNIT ( 'INCH', #355 ) LENGTH_UNIT ( ) NAMED_UNIT ( #215 ) );
#245 = CIRCLE ( 'NONE', #233, 0.2500000000000000000 ) ;
#246 = ORIENTED_EDGE ( 'NONE', *, *, #136, .T. ) ;
#247 = ORIENTED_EDGE ( 'NONE', *, *, #328, .F. ) ;
#248 = DIMENSIONAL_EXPONENTS ( 1.000000000000000000, 0.000000000000000000, 0.000000000000000000, 0.000000000000000000, 0.000000000000000000, 0.000000000000000000, 0.000000000000000000 ) ;
#249 = EDGE_LOOP ( 'NONE', ( #154, #354 ) ) ;
#250 = STYLED_ITEM ( 'NONE', ( #45 ), #165 ) ;
#251 = FILL_AREA_STYLE_COLOUR ( '', #52 ) ;
#252 = VERTEX_POINT ( 'NONE', #114 ) ;
#253 =( NAMED_UNIT ( * ) SI_UNIT ( $, .STERADIAN. ) SOLID_ANGLE_UNIT ( ) );
#254 = SURFACE_SIDE_STYLE ('',( #22 ) ) ;
#255 = DIRECTION ( 'NONE',  ( -0.000000000000000000, -1.000000000000000000, -0.000000000000000000 ) ) ;
#256 = SURFACE_STYLE_FILL_AREA ( #108 ) ;
#257 = AXIS2_PLACEMENT_3D ( 'NONE', #24, #205, #202 ) ;
#258 = EDGE_CURVE ( 'NONE', #221, #46, #314, .T. ) ;
#259 = DIRECTION ( 'NONE',  ( 0.000000000000000000, 0.000000000000000000, -1.000000000000000000 ) ) ;
#260 = CARTESIAN_POINT ( 'NONE',  ( 0.000000000000000000, 0.000000000000000000, 0.000000000000000000 ) ) ;
#261 = CARTESIAN_POINT ( 'NONE',  ( -0.2499999999999995559, 2.000000000000000000, 0.000000000000000000 ) ) ;
#262 = EDGE_CURVE ( 'NONE', #46, #221, #145, .T. ) ;
#263 = CIRCLE ( 'NONE', #371, 0.2499999999999999722 ) ;
#264 = CARTESIAN_POINT ( 'NONE',  ( -1.836970198721029688E-16, 4.000000000000000000, 0.000000000000000000 ) ) ;
#265 = FILL_AREA_STYLE_COLOUR ( '', #305 ) ;
#266 = LENGTH_MEASURE_WITH_UNIT ( LENGTH_MEASURE( 0.02539999999999999897 ), #210 );
#267 = SURFACE_STYLE_FILL_AREA ( #365 ) ;
#268 = DIRECTION ( 'NONE',  ( -0.000000000000000000, -1.000000000000000000, -0.000000000000000000 ) ) ;
#269 = CARTESIAN_POINT ( 'NONE',  ( 7.448166010055199628E-17, 2.000000000000000000, 0.000000000000000000 ) ) ;
#270 = DIRECTION ( 'NONE',  ( 1.224646799147353207E-16, -0.000000000000000000, 1.000000000000000000 ) ) ;
#271 = CARTESIAN_POINT ( 'NONE',  ( 0.000000000000000000, 0.000000000000000000, 0.000000000000000000 ) ) ;
#272 = EDGE_CURVE ( 'NONE', #252, #188, #161, .T. ) ;
#273 =( LENGTH_UNIT ( ) NAMED_UNIT ( * ) SI_UNIT ( $, .METRE. ) );
#274 = MECHANICAL_DESIGN_GEOMETRIC_PRESENTATION_REPRESENTATION (  '', ( #35 ), #160 ) ;
#275 = COLOUR_RGB ( '',0.7921568627450980005, 0.8196078431372548767, 0.9333333333333333481 ) ;
#276 = ORIENTED_EDGE ( 'NONE', *, *, #230, .F. ) ;
#277 = ORIENTED_EDGE ( 'NONE', *, *, #258, .F. ) ;
#278 = ORIENTED_EDGE ( 'NONE', *, *, #68, .T. ) ;
#279 = LINE ( 'NONE', #21, #5 ) ;
#280 = FACE_OUTER_BOUND ( 'NONE', #43, .T. ) ;
#281 = PRESENTATION_LAYER_ASSIGNMENT (  '', '', ( #97 ) ) ;
#282 =( GEOMETRIC_REPRESENTATION_CONTEXT ( 3 ) GLOBAL_UNCERTAINTY_ASSIGNED_CONTEXT ( ( #226 ) ) GLOBAL_UNIT_ASSIGNED_CONTEXT ( ( #63, #11, #182 ) ) REPRESENTATION_CONTEXT ( 'NONE', 'WORKASPACE' ) );
#283 =( LENGTH_UNIT ( ) NAMED_UNIT ( * ) SI_UNIT ( $, .METRE. ) );
#284 = ORIENTED_EDGE ( 'NONE', *, *, #132, .T. ) ;
#285 = DIRECTION ( 'NONE',  ( -0.000000000000000000, -1.000000000000000000, -0.000000000000000000 ) ) ;
#286 = FACE_OUTER_BOUND ( 'NONE', #99, .T. ) ;
#287 =( NAMED_UNIT ( * ) SI_UNIT ( $, .STERADIAN. ) SOLID_ANGLE_UNIT ( ) );
#288 = EDGE_CURVE ( 'NONE', #96, #130, #98, .T. ) ;
#289 = COLOUR_RGB ( '',1.000000000000000000, 0.000000000000000000, 0.000000000000000000 ) ;
#290 = SURFACE_STYLE_FILL_AREA ( #25 ) ;
#291 = FILL_AREA_STYLE_COLOUR ( '', #352 ) ;
#292 = MANIFOLD_SOLID_BREP ( 'Revolve - Tool Body (Straight Shanked)', #129 ) ;
#293 = DIRECTION ( 'NONE',  ( -0.000000000000000000, -1.000000000000000000, -0.000000000000000000 ) ) ;
#294 = AXIS2_PLACEMENT_3D ( 'NONE', #199, #285, #85 ) ;
#295 = CYLINDRICAL_SURFACE ( 'NONE', #341, 0.2499999999999998057 ) ;
#296 = DIRECTION ( 'NONE',  ( 1.000000000000000000, 0.000000000000000000, 0.000000000000000000 ) ) ;
#297 = LENGTH_MEASURE_WITH_UNIT ( LENGTH_MEASURE( 0.02539999999999999897 ), #113 );
#298 =( NAMED_UNIT ( * ) PLANE_ANGLE_UNIT ( ) SI_UNIT ( $, .RADIAN. ) );
#299 = CARTESIAN_POINT ( 'NONE',  ( 0.2499999999999999722, 0.2500000000000000555, 0.000000000000000000 ) ) ;
#300 = PRODUCT_DEFINITION_CONTEXT ( 'detailed design', #163, 'design' ) ;
#301 = DIRECTION ( 'NONE',  ( 0.000000000000000000, 0.000000000000000000, -1.000000000000000000 ) ) ;
#302 = CIRCLE ( 'NONE', #351, 0.2499999999999999722 ) ;
#303 = EDGE_CURVE ( 'NONE', #130, #72, #302, .T. ) ;
#304 = ORIENTED_EDGE ( 'NONE', *, *, #118, .F. ) ;
#305 = COLOUR_RGB ( '',1.000000000000000000, 0.000000000000000000, 0.000000000000000000 ) ;
#306 = ORIENTED_EDGE ( 'NONE', *, *, #162, .T. ) ;
#307 =( NAMED_UNIT ( * ) SI_UNIT ( $, .STERADIAN. ) SOLID_ANGLE_UNIT ( ) );
#308 = ORIENTED_EDGE ( 'NONE', *, *, #214, .T. ) ;
#309 = PRODUCT_CONTEXT ( 'NONE', #3, 'mechanical' ) ;
#310 = DIRECTION ( 'NONE',  ( -1.290893399863275010E-16, 1.000000000000000000, -0.000000000000000000 ) ) ;
#311 = ORIENTED_EDGE ( 'NONE', *, *, #234, .T. ) ;
#312 = STYLED_ITEM ( 'NONE', ( #89 ), #29 ) ;
#313 = FILL_AREA_STYLE ('',( #338 ) ) ;
#314 = CIRCLE ( 'NONE', #124, 0.2499999999999996114 ) ;
#315 = AXIS2_PLACEMENT_3D ( 'NONE', #325, #32, #241 ) ;
#316 = CARTESIAN_POINT ( 'NONE',  ( -3.061616997868383018E-17, 0.2500000000000000000, 0.000000000000000000 ) ) ;
#317 = PRESENTATION_STYLE_ASSIGNMENT (( #4 ) ) ;
#318 = CYLINDRICAL_SURFACE ( 'NONE', #170, 0.2499999999999998612 ) ;
#319 = LENGTH_MEASURE_WITH_UNIT ( LENGTH_MEASURE( 0.02539999999999999897 ), #283 );
#320 = UNCERTAINTY_MEASURE_WITH_UNIT (LENGTH_MEASURE( 1.000000000000000082E-05 ), #51, 'distance_accuracy_value', 'NONE');
#321 =( LENGTH_UNIT ( ) NAMED_UNIT ( * ) SI_UNIT ( $, .METRE. ) );
#322 = FACE_OUTER_BOUND ( 'NONE', #249, .T. ) ;
#323 = CIRCLE ( 'NONE', #135, 0.2499999999999999722 ) ;
#324 = DIRECTION ( 'NONE',  ( -0.000000000000000000, -1.000000000000000000, -0.000000000000000000 ) ) ;
#325 = CARTESIAN_POINT ( 'NONE',  ( -3.061616997868383018E-17, 0.2500000000000000000, 0.000000000000000000 ) ) ;
#326 = ADVANCED_FACE ( 'NONE', ( #228 ), #318, .T. ) ;
#327 = LINE ( 'NONE', #358, #206 ) ;
#328 = EDGE_CURVE ( 'NONE', #332, #95, #41, .T. ) ;
#329 =( GEOMETRIC_REPRESENTATION_CONTEXT ( 3 ) GLOBAL_UNCERTAINTY_ASSIGNED_CONTEXT ( ( #167 ) ) GLOBAL_UNIT_ASSIGNED_CONTEXT ( ( #244, #217, #307 ) ) REPRESENTATION_CONTEXT ( 'NONE', 'WORKASPACE' ) );
#330 = AXIS2_PLACEMENT_3D ( 'NONE', #271, #90, #296 ) ;
#331 = SURFACE_SIDE_STYLE ('',( #267 ) ) ;
#332 = VERTEX_POINT ( 'NONE', #299 ) ;
#333 = CIRCLE ( 'NONE', #257, 0.2499999999999998890 ) ;
#334 = AXIS2_PLACEMENT_3D ( 'NONE', #269, #93, #213 ) ;
#335 = EDGE_LOOP ( 'NONE', ( #219, #44, #125, #101 ) ) ;
#336 = EDGE_LOOP ( 'NONE', ( #164, #246, #304, #185 ) ) ;
#337 = DIRECTION ( 'NONE',  ( -0.000000000000000000, -1.000000000000000000, -0.000000000000000000 ) ) ;
#338 = FILL_AREA_STYLE_COLOUR ( '', #204 ) ;
#339 = VECTOR ( 'NONE', #324, 39.37007874015748143 ) ;
#340 = DIRECTION ( 'NONE',  ( -1.290893399863275010E-16, 1.000000000000000000, -0.000000000000000000 ) ) ;
#341 = AXIS2_PLACEMENT_3D ( 'NONE', #264, #345, #179 ) ;
#342 = CARTESIAN_POINT ( 'NONE',  ( 0.2499999999999997224, 4.000000000000000000, 0.000000000000000000 ) ) ;
#343 =( CONVERSION_BASED_UNIT ( 'INCH', #319 ) LENGTH_UNIT ( ) NAMED_UNIT ( #67 ) );
#344 = LINE ( 'NONE', #231, #212 ) ;
#345 = DIRECTION ( 'NONE',  ( -1.290893399863275010E-16, 1.000000000000000000, -0.000000000000000000 ) ) ;
#346 = DIRECTION ( 'NONE',  ( -1.290893399863275010E-16, 1.000000000000000000, -0.000000000000000000 ) ) ;
#347 = UNCERTAINTY_MEASURE_WITH_UNIT (LENGTH_MEASURE( 1.000000000000000082E-05 ), #343, 'distance_accuracy_value', 'NONE');
#348 = ADVANCED_FACE ( 'NONE', ( #37 ), #148, .F. ) ;
#349 = CARTESIAN_POINT ( 'NONE',  ( 0.2499999999999997224, 2.000000000000000000, 3.061616997868381169E-17 ) ) ;
#350 = PRESENTATION_LAYER_ASSIGNMENT (  '', '', ( #312 ) ) ;
#351 = AXIS2_PLACEMENT_3D ( 'NONE', #57, #255, #107 ) ;
#352 = COLOUR_RGB ( '',1.000000000000000000, 0.000000000000000000, 0.000000000000000000 ) ;
#353 = APPLICATION_PROTOCOL_DEFINITION ( 'draft international standard', 'automotive_design', 1998, #163 ) ;
#354 = ORIENTED_EDGE ( 'NONE', *, *, #132, .F. ) ;
#355 = LENGTH_MEASURE_WITH_UNIT ( LENGTH_MEASURE( 0.02539999999999999897 ), #273 );
#356 = ORIENTED_EDGE ( 'NONE', *, *, #303, .F. ) ;
#357 = ORIENTED_EDGE ( 'NONE', *, *, #123, .T. ) ;
#358 = CARTESIAN_POINT ( 'NONE',  ( 0.2499999999999996114, 4.000000000000000000, 3.061616997868380553E-17 ) ) ;
#359 = ORIENTED_EDGE ( 'NONE', *, *, #262, .F. ) ;
#360 = SURFACE_STYLE_USAGE ( .BOTH. , #254 ) ;
#361 = AXIS2_PLACEMENT_3D ( 'NONE', #131, #340, #223 ) ;
#362 = DIRECTION ( 'NONE',  ( 0.000000000000000000, 0.000000000000000000, -1.000000000000000000 ) ) ;
#363 =( GEOMETRIC_REPRESENTATION_CONTEXT ( 3 ) GLOBAL_UNCERTAINTY_ASSIGNED_CONTEXT ( ( #82 ) ) GLOBAL_UNIT_ASSIGNED_CONTEXT ( ( #143, #59, #235 ) ) REPRESENTATION_CONTEXT ( 'NONE', 'WORKASPACE' ) );
#364 =( NAMED_UNIT ( * ) PLANE_ANGLE_UNIT ( ) SI_UNIT ( $, .RADIAN. ) );
#365 = FILL_AREA_STYLE ('',( #50 ) ) ;
#366 = FILL_AREA_STYLE_COLOUR ( '', #220 ) ;
#367 =( NAMED_UNIT ( * ) PLANE_ANGLE_UNIT ( ) SI_UNIT ( $, .RADIAN. ) );
#368 = LENGTH_MEASURE_WITH_UNIT ( LENGTH_MEASURE( 0.02539999999999999897 ), #81 );
#369 = CARTESIAN_POINT ( 'NONE',  ( 0.000000000000000000, 0.000000000000000000, -0.2499999999999998612 ) ) ;
#370 = DIRECTION ( 'NONE',  ( -1.000000000000000000, 0.000000000000000000, 0.000000000000000000 ) ) ;
#371 = AXIS2_PLACEMENT_3D ( 'NONE', #117, #293, #362 ) ;
#372 = CARTESIAN_POINT ( 'NONE',  ( 0.000000000000000000, 0.2500000000000000555, -0.2499999999999999722 ) ) ;
#373 = DIRECTION ( 'NONE',  ( -1.290893399863275010E-16, 1.000000000000000000, -0.000000000000000000 ) ) ;
ENDSEC;
END-ISO-10303-21;
