ISO-10303-21;
HEADER;
FILE_DESCRIPTION (( 'STEP AP214' ),
    '1' );
FILE_NAME ('00797.STEP',
    '2023-06-22T14:17:13',
    ( '' ),
    ( '' ),
    'SwSTEP 2.0',
    'SolidWorks 2023',
    '' );
FILE_SCHEMA (( 'AUTOMOTIVE_DESIGN' ));
ENDSEC;

DATA;
#1 = ORIENTED_EDGE ( 'NONE', *, *, #126, .T. ) ;
#2 = VECTOR ( 'NONE', #93, 39.37007874015748143 ) ;
#3 =( CONVERSION_BASED_UNIT ( 'INCH', #263 ) LENGTH_UNIT ( ) NAMED_UNIT ( #279 ) );
#4 = APPLICATION_PROTOCOL_DEFINITION ( 'draft international standard', 'automotive_design', 1998, #297 ) ;
#5 = CYLINDRICAL_SURFACE ( 'NONE', #102, 0.5000000000000000000 ) ;
#6 = FILL_AREA_STYLE_COLOUR ( '', #39 ) ;
#7 =( NAMED_UNIT ( * ) PLANE_ANGLE_UNIT ( ) SI_UNIT ( $, .RADIAN. ) );
#8 = SURFACE_SIDE_STYLE ('',( #244 ) ) ;
#9 = FILL_AREA_STYLE ('',( #171 ) ) ;
#10 = CARTESIAN_POINT ( 'NONE',  ( 6.123233995736766036E-17, 0.000000000000000000, 0.5000000000000000000 ) ) ;
#11 = CARTESIAN_POINT ( 'NONE',  ( 0.000000000000000000, 4.125000000000000000, 0.000000000000000000 ) ) ;
#12 = CARTESIAN_POINT ( 'NONE',  ( 0.000000000000000000, 0.000000000000000000, 0.000000000000000000 ) ) ;
#13 = AXIS2_PLACEMENT_3D ( 'NONE', #110, #281, #35 ) ;
#14 = PRESENTATION_LAYER_ASSIGNMENT (  '', '', ( #252 ) ) ;
#15 = ADVANCED_FACE ( 'NONE', ( #45 ), #235, .F. ) ;
#16 = DIRECTION ( 'NONE',  ( 0.000000000000000000, 0.000000000000000000, -1.000000000000000000 ) ) ;
#17 =( GEOMETRIC_REPRESENTATION_CONTEXT ( 3 ) GLOBAL_UNCERTAINTY_ASSIGNED_CONTEXT ( ( #204 ) ) GLOBAL_UNIT_ASSIGNED_CONTEXT ( ( #3, #191, #308 ) ) REPRESENTATION_CONTEXT ( 'NONE', 'WORKASPACE' ) );
#18 =( NAMED_UNIT ( * ) PLANE_ANGLE_UNIT ( ) SI_UNIT ( $, .RADIAN. ) );
#19 = EDGE_CURVE ( 'NONE', #214, #21, #91, .T. ) ;
#20 =( NAMED_UNIT ( * ) PLANE_ANGLE_UNIT ( ) SI_UNIT ( $, .RADIAN. ) );
#21 = VERTEX_POINT ( 'NONE', #88 ) ;
#22 = CARTESIAN_POINT ( 'NONE',  ( 0.5000000000000000000, 7.000000000000000000, 0.000000000000000000 ) ) ;
#23 = EDGE_LOOP ( 'NONE', ( #197, #92 ) ) ;
#24 = MECHANICAL_DESIGN_GEOMETRIC_PRESENTATION_REPRESENTATION (  '', ( #159 ), #205 ) ;
#25 = VECTOR ( 'NONE', #48, 39.37007874015748143 ) ;
#26 = SURFACE_STYLE_FILL_AREA ( #81 ) ;
#27 = FILL_AREA_STYLE ('',( #167 ) ) ;
#28 = FILL_AREA_STYLE_COLOUR ( '', #149 ) ;
#29 = FACE_OUTER_BOUND ( 'NONE', #89, .T. ) ;
#30 = CARTESIAN_POINT ( 'NONE',  ( -1.224646799147351975E-16, 7.000000000000000000, 0.000000000000000000 ) ) ;
#31 = DIRECTION ( 'NONE',  ( 1.000000000000000000, 4.259641040512529009E-17, 0.000000000000000000 ) ) ;
#32 = STYLED_ITEM ( 'NONE', ( #254 ), #229 ) ;
#33 = CARTESIAN_POINT ( 'NONE',  ( 0.000000000000000000, 4.125000000000000000, 0.000000000000000000 ) ) ;
#34 = CARTESIAN_POINT ( 'NONE',  ( 6.123233995736766036E-17, 0.000000000000000000, 0.5000000000000000000 ) ) ;
#35 = DIRECTION ( 'NONE',  ( 0.000000000000000000, 0.000000000000000000, -1.000000000000000000 ) ) ;
#36 =( CONVERSION_BASED_UNIT ( 'INCH', #176 ) LENGTH_UNIT ( ) NAMED_UNIT ( #97 ) );
#37 = AXIS2_PLACEMENT_3D ( 'NONE', #22, #307, #31 ) ;
#38 = PRODUCT_DEFINITION_CONTEXT ( 'detailed design', #297, 'design' ) ;
#39 = COLOUR_RGB ( '',0.7921568627450980005, 0.8196078431372548767, 0.9333333333333333481 ) ;
#40 = SURFACE_STYLE_FILL_AREA ( #183 ) ;
#41 = CIRCLE ( 'NONE', #257, 0.5000000000000000000 ) ;
#42 = ORIENTED_EDGE ( 'NONE', *, *, #232, .T. ) ;
#43 = MANIFOLD_SOLID_BREP ( 'Revolve - Tool Body (Straight Shanked)', #49 ) ;
#44 = AXIS2_PLACEMENT_3D ( 'NONE', #133, #150, #247 ) ;
#45 = FACE_OUTER_BOUND ( 'NONE', #23, .T. ) ;
#46 = SURFACE_STYLE_USAGE ( .BOTH. , #260 ) ;
#47 = SURFACE_STYLE_FILL_AREA ( #27 ) ;
#48 = DIRECTION ( 'NONE',  ( -4.259641040512529009E-17, 1.000000000000000000, -0.000000000000000000 ) ) ;
#49 = CLOSED_SHELL ( 'NONE', ( #196, #168, #248, #15 ) ) ;
#50 = CARTESIAN_POINT ( 'NONE',  ( 0.4999999999999999445, 7.000000000000000000, 6.123233995736767268E-17 ) ) ;
#51 = AXIS2_PLACEMENT_3D ( 'NONE', #309, #54, #79 ) ;
#52 = CYLINDRICAL_SURFACE ( 'NONE', #74, 0.5000000000000001110 ) ;
#53 = MANIFOLD_SOLID_BREP ( 'Revolve - Cutting Edge', #123 ) ;
#54 = DIRECTION ( 'NONE',  ( 0.000000000000000000, 0.000000000000000000, 1.000000000000000000 ) ) ;
#55 = PLANE ( 'NONE',  #69 ) ;
#56 = DIRECTION ( 'NONE',  ( -1.000000000000000000, 0.000000000000000000, 0.000000000000000000 ) ) ;
#57 =( NAMED_UNIT ( * ) SI_UNIT ( $, .STERADIAN. ) SOLID_ANGLE_UNIT ( ) );
#58 =( LENGTH_UNIT ( ) NAMED_UNIT ( * ) SI_UNIT ( $, .METRE. ) );
#59 = DIRECTION ( 'NONE',  ( -4.259641040512529009E-17, 1.000000000000000000, -0.000000000000000000 ) ) ;
#60 = PRODUCT_CONTEXT ( 'NONE', #189, 'mechanical' ) ;
#61 = ORIENTED_EDGE ( 'NONE', *, *, #236, .F. ) ;
#62 =( GEOMETRIC_REPRESENTATION_CONTEXT ( 3 ) GLOBAL_UNCERTAINTY_ASSIGNED_CONTEXT ( ( #276 ) ) GLOBAL_UNIT_ASSIGNED_CONTEXT ( ( #153, #277, #274 ) ) REPRESENTATION_CONTEXT ( 'NONE', 'WORKASPACE' ) );
#63 = DIRECTION ( 'NONE',  ( -0.000000000000000000, -1.000000000000000000, -0.000000000000000000 ) ) ;
#64 = SURFACE_STYLE_USAGE ( .BOTH. , #8 ) ;
#65 = DIMENSIONAL_EXPONENTS ( 1.000000000000000000, 0.000000000000000000, 0.000000000000000000, 0.000000000000000000, 0.000000000000000000, 0.000000000000000000, 0.000000000000000000 ) ;
#66 = DIRECTION ( 'NONE',  ( -4.259641040512529009E-17, 1.000000000000000000, 0.000000000000000000 ) ) ;
#67 = CARTESIAN_POINT ( 'NONE',  ( 0.000000000000000000, 0.000000000000000000, -0.5000000000000000000 ) ) ;
#68 = EDGE_CURVE ( 'NONE', #210, #77, #192, .T. ) ;
#69 = AXIS2_PLACEMENT_3D ( 'NONE', #122, #104, #273 ) ;
#70 = CIRCLE ( 'NONE', #151, 0.5000000000000001110 ) ;
#71 = DIRECTION ( 'NONE',  ( -4.259641040512529009E-17, 1.000000000000000000, -0.000000000000000000 ) ) ;
#72 = ORIENTED_EDGE ( 'NONE', *, *, #140, .T. ) ;
#73 =( LENGTH_UNIT ( ) NAMED_UNIT ( * ) SI_UNIT ( $, .METRE. ) );
#74 = AXIS2_PLACEMENT_3D ( 'NONE', #127, #105, #220 ) ;
#75 = FILL_AREA_STYLE ('',( #28 ) ) ;
#76 = COLOUR_RGB ( '',1.000000000000000000, 0.000000000000000000, 0.000000000000000000 ) ;
#77 = VERTEX_POINT ( 'NONE', #227 ) ;
#78 = FACE_OUTER_BOUND ( 'NONE', #188, .T. ) ;
#79 = DIRECTION ( 'NONE',  ( 1.000000000000000000, 0.000000000000000000, 0.000000000000000000 ) ) ;
#80 = VERTEX_POINT ( 'NONE', #129 ) ;
#81 = FILL_AREA_STYLE ('',( #242 ) ) ;
#82 =( LENGTH_UNIT ( ) NAMED_UNIT ( * ) SI_UNIT ( $, .METRE. ) );
#83 = FACE_OUTER_BOUND ( 'NONE', #85, .T. ) ;
#84 = DIRECTION ( 'NONE',  ( -0.000000000000000000, -1.000000000000000000, -0.000000000000000000 ) ) ;
#85 = EDGE_LOOP ( 'NONE', ( #125, #98, #172, #259 ) ) ;
#86 = CYLINDRICAL_SURFACE ( 'NONE', #169, 0.5000000000000000000 ) ;
#87 = FILL_AREA_STYLE ('',( #6 ) ) ;
#88 = CARTESIAN_POINT ( 'NONE',  ( 0.5000000000000000000, 7.000000000000000000, 6.123233995736767268E-17 ) ) ;
#89 = EDGE_LOOP ( 'NONE', ( #139, #103 ) ) ;
#90 = LENGTH_MEASURE_WITH_UNIT ( LENGTH_MEASURE( 0.02539999999999999897 ), #82 );
#91 = LINE ( 'NONE', #50, #158 ) ;
#92 = ORIENTED_EDGE ( 'NONE', *, *, #284, .T. ) ;
#93 = DIRECTION ( 'NONE',  ( -0.000000000000000000, -1.000000000000000000, -0.000000000000000000 ) ) ;
#94 = AXIS2_PLACEMENT_3D ( 'NONE', #12, #241, #200 ) ;
#95 =( NAMED_UNIT ( * ) PLANE_ANGLE_UNIT ( ) SI_UNIT ( $, .RADIAN. ) );
#96 = CARTESIAN_POINT ( 'NONE',  ( 0.000000000000000000, 0.000000000000000000, 0.000000000000000000 ) ) ;
#97 = DIMENSIONAL_EXPONENTS ( 1.000000000000000000, 0.000000000000000000, 0.000000000000000000, 0.000000000000000000, 0.000000000000000000, 0.000000000000000000, 0.000000000000000000 ) ;
#98 = ORIENTED_EDGE ( 'NONE', *, *, #19, .T. ) ;
#99 = UNCERTAINTY_MEASURE_WITH_UNIT (LENGTH_MEASURE( 1.000000000000000082E-05 ), #185, 'distance_accuracy_value', 'NONE');
#100 = EDGE_LOOP ( 'NONE', ( #108, #42, #261, #255 ) ) ;
#101 =( GEOMETRIC_REPRESENTATION_CONTEXT ( 3 ) GLOBAL_UNCERTAINTY_ASSIGNED_CONTEXT ( ( #291 ) ) GLOBAL_UNIT_ASSIGNED_CONTEXT ( ( #175, #302, #132 ) ) REPRESENTATION_CONTEXT ( 'NONE', 'WORKASPACE' ) );
#102 = AXIS2_PLACEMENT_3D ( 'NONE', #243, #218, #270 ) ;
#103 = ORIENTED_EDGE ( 'NONE', *, *, #232, .F. ) ;
#104 = DIRECTION ( 'NONE',  ( 0.000000000000000000, -1.000000000000000000, -0.000000000000000000 ) ) ;
#105 = DIRECTION ( 'NONE',  ( -4.259641040512529009E-17, 1.000000000000000000, -0.000000000000000000 ) ) ;
#106 = LINE ( 'NONE', #187, #25 ) ;
#107 = MECHANICAL_DESIGN_GEOMETRIC_PRESENTATION_REPRESENTATION (  '', ( #144 ), #301 ) ;
#108 = ORIENTED_EDGE ( 'NONE', *, *, #253, .F. ) ;
#109 = FACE_OUTER_BOUND ( 'NONE', #166, .T. ) ;
#110 = CARTESIAN_POINT ( 'NONE',  ( 0.000000000000000000, 4.125000000000000000, 0.000000000000000000 ) ) ;
#111 = SURFACE_STYLE_USAGE ( .BOTH. , #299 ) ;
#112 = DIMENSIONAL_EXPONENTS ( 1.000000000000000000, 0.000000000000000000, 0.000000000000000000, 0.000000000000000000, 0.000000000000000000, 0.000000000000000000, 0.000000000000000000 ) ;
#113 = PLANE ( 'NONE',  #119 ) ;
#114 = CARTESIAN_POINT ( 'NONE',  ( 0.000000000000000000, 0.000000000000000000, -0.5000000000000000000 ) ) ;
#115 = ORIENTED_EDGE ( 'NONE', *, *, #126, .F. ) ;
#116 = CIRCLE ( 'NONE', #134, 0.5000000000000000000 ) ;
#117 = UNCERTAINTY_MEASURE_WITH_UNIT (LENGTH_MEASURE( 1.000000000000000082E-05 ), #36, 'distance_accuracy_value', 'NONE');
#118 =( NAMED_UNIT ( * ) SI_UNIT ( $, .STERADIAN. ) SOLID_ANGLE_UNIT ( ) );
#119 = AXIS2_PLACEMENT_3D ( 'NONE', #224, #66, #198 ) ;
#120 = ORIENTED_EDGE ( 'NONE', *, *, #266, .F. ) ;
#121 = EDGE_LOOP ( 'NONE', ( #120, #115 ) ) ;
#122 = CARTESIAN_POINT ( 'NONE',  ( 0.000000000000000000, 0.000000000000000000, 0.000000000000000000 ) ) ;
#123 = CLOSED_SHELL ( 'NONE', ( #229, #225, #278, #184 ) ) ;
#124 = PRESENTATION_LAYER_ASSIGNMENT (  '', '', ( #180 ) ) ;
#125 = ORIENTED_EDGE ( 'NONE', *, *, #266, .T. ) ;
#126 = EDGE_CURVE ( 'NONE', #214, #80, #256, .T. ) ;
#127 = CARTESIAN_POINT ( 'NONE',  ( -1.224646799147351975E-16, 7.000000000000000000, 0.000000000000000000 ) ) ;
#128 =( NAMED_UNIT ( * ) SI_UNIT ( $, .STERADIAN. ) SOLID_ANGLE_UNIT ( ) );
#129 = CARTESIAN_POINT ( 'NONE',  ( -0.5000000000000000000, 4.125000000000000000, 0.000000000000000000 ) ) ;
#130 = DIRECTION ( 'NONE',  ( -1.000000000000000000, 0.000000000000000000, 0.000000000000000000 ) ) ;
#131 = FACE_OUTER_BOUND ( 'NONE', #121, .T. ) ;
#132 =( NAMED_UNIT ( * ) SI_UNIT ( $, .STERADIAN. ) SOLID_ANGLE_UNIT ( ) );
#133 = CARTESIAN_POINT ( 'NONE',  ( 0.000000000000000000, 4.125000000000000000, 0.000000000000000000 ) ) ;
#134 = AXIS2_PLACEMENT_3D ( 'NONE', #11, #300, #181 ) ;
#135 = CARTESIAN_POINT ( 'NONE',  ( -1.224646799147351975E-16, 7.000000000000000000, 0.000000000000000000 ) ) ;
#136 = CIRCLE ( 'NONE', #226, 0.5000000000000001110 ) ;
#137 = ORIENTED_EDGE ( 'NONE', *, *, #284, .F. ) ;
#138 = AXIS2_PLACEMENT_3D ( 'NONE', #33, #240, #211 ) ;
#139 = ORIENTED_EDGE ( 'NONE', *, *, #68, .F. ) ;
#140 = EDGE_CURVE ( 'NONE', #147, #275, #250, .T. ) ;
#141 = PRESENTATION_STYLE_ASSIGNMENT (( #46 ) ) ;
#142 = CARTESIAN_POINT ( 'NONE',  ( 0.000000000000000000, 4.125000000000000000, -0.5000000000000000000 ) ) ;
#143 =( CONVERSION_BASED_UNIT ( 'INCH', #90 ) LENGTH_UNIT ( ) NAMED_UNIT ( #231 ) );
#144 = STYLED_ITEM ( 'NONE', ( #154 ), #43 ) ;
#145 = LENGTH_MEASURE_WITH_UNIT ( LENGTH_MEASURE( 0.02539999999999999897 ), #58 );
#146 = DIRECTION ( 'NONE',  ( -1.000000000000000000, 0.000000000000000000, 0.000000000000000000 ) ) ;
#147 = VERTEX_POINT ( 'NONE', #34 ) ;
#148 = SHAPE_DEFINITION_REPRESENTATION ( #194, #193 ) ;
#149 = COLOUR_RGB ( '',1.000000000000000000, 0.000000000000000000, 0.000000000000000000 ) ;
#150 = DIRECTION ( 'NONE',  ( -4.259641040512529009E-17, 1.000000000000000000, -0.000000000000000000 ) ) ;
#151 = AXIS2_PLACEMENT_3D ( 'NONE', #30, #165, #146 ) ;
#152 = UNCERTAINTY_MEASURE_WITH_UNIT (LENGTH_MEASURE( 1.000000000000000082E-05 ), #143, 'distance_accuracy_value', 'NONE');
#153 =( CONVERSION_BASED_UNIT ( 'INCH', #145 ) LENGTH_UNIT ( ) NAMED_UNIT ( #283 ) );
#154 = PRESENTATION_STYLE_ASSIGNMENT (( #111 ) ) ;
#155 =( LENGTH_UNIT ( ) NAMED_UNIT ( * ) SI_UNIT ( $, .METRE. ) );
#156 = PRODUCT_RELATED_PRODUCT_CATEGORY ( 'part', '', ( #217 ) ) ;
#157 = LENGTH_MEASURE_WITH_UNIT ( LENGTH_MEASURE( 0.02539999999999999897 ), #230 );
#158 = VECTOR ( 'NONE', #298, 39.37007874015748143 ) ;
#159 = STYLED_ITEM ( 'NONE', ( #141 ), #184 ) ;
#160 = PRESENTATION_LAYER_ASSIGNMENT (  '', '', ( #159 ) ) ;
#161 = SURFACE_STYLE_FILL_AREA ( #75 ) ;
#162 = ORIENTED_EDGE ( 'NONE', *, *, #68, .T. ) ;
#163 = CIRCLE ( 'NONE', #208, 0.5000000000000000000 ) ;
#164 = SURFACE_SIDE_STYLE ('',( #47 ) ) ;
#165 = DIRECTION ( 'NONE',  ( -4.259641040512529009E-17, 1.000000000000000000, -0.000000000000000000 ) ) ;
#166 = EDGE_LOOP ( 'NONE', ( #293, #1, #268, #137 ) ) ;
#167 = FILL_AREA_STYLE_COLOUR ( '', #186 ) ;
#168 = ADVANCED_FACE ( 'NONE', ( #131 ), #113, .F. ) ;
#169 = AXIS2_PLACEMENT_3D ( 'NONE', #96, #303, #16 ) ;
#170 = COLOUR_RGB ( '',1.000000000000000000, 0.000000000000000000, 0.000000000000000000 ) ;
#171 = FILL_AREA_STYLE_COLOUR ( '', #212 ) ;
#172 = ORIENTED_EDGE ( 'NONE', *, *, #219, .F. ) ;
#173 = CARTESIAN_POINT ( 'NONE',  ( 0.000000000000000000, 4.125000000000000000, 0.000000000000000000 ) ) ;
#174 = VECTOR ( 'NONE', #84, 39.37007874015748143 ) ;
#175 =( CONVERSION_BASED_UNIT ( 'INCH', #203 ) LENGTH_UNIT ( ) NAMED_UNIT ( #65 ) );
#176 = LENGTH_MEASURE_WITH_UNIT ( LENGTH_MEASURE( 0.02539999999999999897 ), #262 );
#177 = EDGE_CURVE ( 'NONE', #210, #275, #249, .T. ) ;
#178 = DIRECTION ( 'NONE',  ( -1.000000000000000000, 0.000000000000000000, 0.000000000000000000 ) ) ;
#179 = CARTESIAN_POINT ( 'NONE',  ( 0.000000000000000000, 0.000000000000000000, 0.000000000000000000 ) ) ;
#180 = STYLED_ITEM ( 'NONE', ( #271 ), #53 ) ;
#181 = DIRECTION ( 'NONE',  ( 0.000000000000000000, 0.000000000000000000, -1.000000000000000000 ) ) ;
#182 = DIMENSIONAL_EXPONENTS ( 1.000000000000000000, 0.000000000000000000, 0.000000000000000000, 0.000000000000000000, 0.000000000000000000, 0.000000000000000000, 0.000000000000000000 ) ;
#183 = FILL_AREA_STYLE ('',( #305 ) ) ;
#184 = ADVANCED_FACE ( 'NONE', ( #267 ), #55, .T. ) ;
#185 =( CONVERSION_BASED_UNIT ( 'INCH', #292 ) LENGTH_UNIT ( ) NAMED_UNIT ( #182 ) );
#186 = COLOUR_RGB ( '',1.000000000000000000, 0.000000000000000000, 0.000000000000000000 ) ;
#187 = CARTESIAN_POINT ( 'NONE',  ( -0.5000000000000002220, 7.000000000000000000, 0.000000000000000000 ) ) ;
#188 = EDGE_LOOP ( 'NONE', ( #162, #287, #61, #296 ) ) ;
#189 = APPLICATION_CONTEXT ( 'automotive_design' ) ;
#190 = SURFACE_STYLE_USAGE ( .BOTH. , #164 ) ;
#191 =( NAMED_UNIT ( * ) PLANE_ANGLE_UNIT ( ) SI_UNIT ( $, .RADIAN. ) );
#192 = CIRCLE ( 'NONE', #13, 0.5000000000000000000 ) ;
#193 = ADVANCED_BREP_SHAPE_REPRESENTATION ( '00797', ( #53, #43, #51 ), #209 ) ;
#194 = PRODUCT_DEFINITION_SHAPE ( 'NONE', 'NONE',  #207 ) ;
#195 = SURFACE_STYLE_USAGE ( .BOTH. , #213 ) ;
#196 = ADVANCED_FACE ( 'NONE', ( #83 ), #52, .T. ) ;
#197 = ORIENTED_EDGE ( 'NONE', *, *, #219, .T. ) ;
#198 = DIRECTION ( 'NONE',  ( -1.000000000000000000, -4.259641040512529009E-17, 0.000000000000000000 ) ) ;
#199 = STYLED_ITEM ( 'NONE', ( #215 ), #225 ) ;
#200 = DIRECTION ( 'NONE',  ( 0.000000000000000000, 0.000000000000000000, -1.000000000000000000 ) ) ;
#201 = PRODUCT_DEFINITION_FORMATION_WITH_SPECIFIED_SOURCE ( 'ANY', '', #217, .NOT_KNOWN. ) ;
#202 = EDGE_LOOP ( 'NONE', ( #228, #72 ) ) ;
#203 = LENGTH_MEASURE_WITH_UNIT ( LENGTH_MEASURE( 0.02539999999999999897 ), #155 );
#204 = UNCERTAINTY_MEASURE_WITH_UNIT (LENGTH_MEASURE( 1.000000000000000082E-05 ), #3, 'distance_accuracy_value', 'NONE');
#205 =( GEOMETRIC_REPRESENTATION_CONTEXT ( 3 ) GLOBAL_UNCERTAINTY_ASSIGNED_CONTEXT ( ( #288 ) ) GLOBAL_UNIT_ASSIGNED_CONTEXT ( ( #251, #18, #118 ) ) REPRESENTATION_CONTEXT ( 'NONE', 'WORKASPACE' ) );
#206 = SURFACE_SIDE_STYLE ('',( #40 ) ) ;
#207 = PRODUCT_DEFINITION ( 'UNKNOWN', '', #201, #38 ) ;
#208 = AXIS2_PLACEMENT_3D ( 'NONE', #179, #63, #280 ) ;
#209 =( GEOMETRIC_REPRESENTATION_CONTEXT ( 3 ) GLOBAL_UNCERTAINTY_ASSIGNED_CONTEXT ( ( #152 ) ) GLOBAL_UNIT_ASSIGNED_CONTEXT ( ( #143, #7, #57 ) ) REPRESENTATION_CONTEXT ( 'NONE', 'WORKASPACE' ) );
#210 = VERTEX_POINT ( 'NONE', #142 ) ;
#211 = DIRECTION ( 'NONE',  ( 0.000000000000000000, -0.000000000000000000, 1.000000000000000000 ) ) ;
#212 = COLOUR_RGB ( '',0.7921568627450980005, 0.8196078431372548767, 0.9333333333333333481 ) ;
#213 = SURFACE_SIDE_STYLE ('',( #26 ) ) ;
#214 = VERTEX_POINT ( 'NONE', #239 ) ;
#215 = PRESENTATION_STYLE_ASSIGNMENT (( #195 ) ) ;
#216 =( LENGTH_UNIT ( ) NAMED_UNIT ( * ) SI_UNIT ( $, .METRE. ) );
#217 = PRODUCT ( '00797', '00797', '', ( #60 ) ) ;
#218 = DIRECTION ( 'NONE',  ( -0.000000000000000000, -1.000000000000000000, -0.000000000000000000 ) ) ;
#219 = EDGE_CURVE ( 'NONE', #272, #21, #136, .T. ) ;
#220 = DIRECTION ( 'NONE',  ( -1.000000000000000000, 0.000000000000000000, 0.000000000000000000 ) ) ;
#221 = LINE ( 'NONE', #10, #2 ) ;
#222 = SURFACE_STYLE_FILL_AREA ( #9 ) ;
#223 = DIRECTION ( 'NONE',  ( -4.259641040512529009E-17, 1.000000000000000000, -0.000000000000000000 ) ) ;
#224 = CARTESIAN_POINT ( 'NONE',  ( 4.536135448504664961E-34, 4.125000000000000000, 0.000000000000000000 ) ) ;
#225 = ADVANCED_FACE ( 'NONE', ( #29 ), #265, .T. ) ;
#226 = AXIS2_PLACEMENT_3D ( 'NONE', #269, #59, #56 ) ;
#227 = CARTESIAN_POINT ( 'NONE',  ( 6.123233995736766036E-17, 4.125000000000000000, 0.5000000000000000000 ) ) ;
#228 = ORIENTED_EDGE ( 'NONE', *, *, #236, .T. ) ;
#229 = ADVANCED_FACE ( 'NONE', ( #78 ), #86, .T. ) ;
#230 =( LENGTH_UNIT ( ) NAMED_UNIT ( * ) SI_UNIT ( $, .METRE. ) );
#231 = DIMENSIONAL_EXPONENTS ( 1.000000000000000000, 0.000000000000000000, 0.000000000000000000, 0.000000000000000000, 0.000000000000000000, 0.000000000000000000, 0.000000000000000000 ) ;
#232 = EDGE_CURVE ( 'NONE', #77, #210, #116, .T. ) ;
#233 =( GEOMETRIC_REPRESENTATION_CONTEXT ( 3 ) GLOBAL_UNCERTAINTY_ASSIGNED_CONTEXT ( ( #99 ) ) GLOBAL_UNIT_ASSIGNED_CONTEXT ( ( #185, #20, #246 ) ) REPRESENTATION_CONTEXT ( 'NONE', 'WORKASPACE' ) );
#234 = FACE_OUTER_BOUND ( 'NONE', #100, .T. ) ;
#235 = PLANE ( 'NONE',  #37 ) ;
#236 = EDGE_CURVE ( 'NONE', #275, #147, #163, .T. ) ;
#237 = APPLICATION_PROTOCOL_DEFINITION ( 'draft international standard', 'automotive_design', 1998, #189 ) ;
#238 = MECHANICAL_DESIGN_GEOMETRIC_PRESENTATION_REPRESENTATION (  '', ( #199 ), #17 ) ;
#239 = CARTESIAN_POINT ( 'NONE',  ( 0.5000000000000000000, 4.125000000000000000, 6.123233995736767268E-17 ) ) ;
#240 = DIRECTION ( 'NONE',  ( 0.000000000000000000, 1.000000000000000000, 0.000000000000000000 ) ) ;
#241 = DIRECTION ( 'NONE',  ( -0.000000000000000000, -1.000000000000000000, -0.000000000000000000 ) ) ;
#242 = FILL_AREA_STYLE_COLOUR ( '', #76 ) ;
#243 = CARTESIAN_POINT ( 'NONE',  ( 0.000000000000000000, 0.000000000000000000, 0.000000000000000000 ) ) ;
#244 = SURFACE_STYLE_FILL_AREA ( #87 ) ;
#245 = MECHANICAL_DESIGN_GEOMETRIC_PRESENTATION_REPRESENTATION (  '', ( #32 ), #101 ) ;
#246 =( NAMED_UNIT ( * ) SI_UNIT ( $, .STERADIAN. ) SOLID_ANGLE_UNIT ( ) );
#247 = DIRECTION ( 'NONE',  ( -1.000000000000000000, 0.000000000000000000, 0.000000000000000000 ) ) ;
#248 = ADVANCED_FACE ( 'NONE', ( #109 ), #286, .T. ) ;
#249 = LINE ( 'NONE', #114, #174 ) ;
#250 = CIRCLE ( 'NONE', #94, 0.5000000000000000000 ) ;
#251 =( CONVERSION_BASED_UNIT ( 'INCH', #157 ) LENGTH_UNIT ( ) NAMED_UNIT ( #112 ) );
#252 = STYLED_ITEM ( 'NONE', ( #289 ), #278 ) ;
#253 = EDGE_CURVE ( 'NONE', #77, #147, #221, .T. ) ;
#254 = PRESENTATION_STYLE_ASSIGNMENT (( #190 ) ) ;
#255 = ORIENTED_EDGE ( 'NONE', *, *, #140, .F. ) ;
#256 = CIRCLE ( 'NONE', #44, 0.5000000000000000000 ) ;
#257 = AXIS2_PLACEMENT_3D ( 'NONE', #173, #223, #178 ) ;
#258 = SURFACE_STYLE_USAGE ( .BOTH. , #206 ) ;
#259 = ORIENTED_EDGE ( 'NONE', *, *, #306, .F. ) ;
#260 = SURFACE_SIDE_STYLE ('',( #161 ) ) ;
#261 = ORIENTED_EDGE ( 'NONE', *, *, #177, .T. ) ;
#262 =( LENGTH_UNIT ( ) NAMED_UNIT ( * ) SI_UNIT ( $, .METRE. ) );
#263 = LENGTH_MEASURE_WITH_UNIT ( LENGTH_MEASURE( 0.02539999999999999897 ), #216 );
#264 = PRESENTATION_LAYER_ASSIGNMENT (  '', '', ( #32 ) ) ;
#265 = PLANE ( 'NONE',  #138 ) ;
#266 = EDGE_CURVE ( 'NONE', #80, #214, #41, .T. ) ;
#267 = FACE_OUTER_BOUND ( 'NONE', #202, .T. ) ;
#268 = ORIENTED_EDGE ( 'NONE', *, *, #306, .T. ) ;
#269 = CARTESIAN_POINT ( 'NONE',  ( -1.224646799147351975E-16, 7.000000000000000000, 0.000000000000000000 ) ) ;
#270 = DIRECTION ( 'NONE',  ( 0.000000000000000000, 0.000000000000000000, -1.000000000000000000 ) ) ;
#271 = PRESENTATION_STYLE_ASSIGNMENT (( #64 ) ) ;
#272 = VERTEX_POINT ( 'NONE', #282 ) ;
#273 = DIRECTION ( 'NONE',  ( 0.000000000000000000, 0.000000000000000000, -1.000000000000000000 ) ) ;
#274 =( NAMED_UNIT ( * ) SI_UNIT ( $, .STERADIAN. ) SOLID_ANGLE_UNIT ( ) );
#275 = VERTEX_POINT ( 'NONE', #67 ) ;
#276 = UNCERTAINTY_MEASURE_WITH_UNIT (LENGTH_MEASURE( 1.000000000000000082E-05 ), #153, 'distance_accuracy_value', 'NONE');
#277 =( NAMED_UNIT ( * ) PLANE_ANGLE_UNIT ( ) SI_UNIT ( $, .RADIAN. ) );
#278 = ADVANCED_FACE ( 'NONE', ( #234 ), #5, .T. ) ;
#279 = DIMENSIONAL_EXPONENTS ( 1.000000000000000000, 0.000000000000000000, 0.000000000000000000, 0.000000000000000000, 0.000000000000000000, 0.000000000000000000, 0.000000000000000000 ) ;
#280 = DIRECTION ( 'NONE',  ( 0.000000000000000000, 0.000000000000000000, -1.000000000000000000 ) ) ;
#281 = DIRECTION ( 'NONE',  ( -0.000000000000000000, -1.000000000000000000, -0.000000000000000000 ) ) ;
#282 = CARTESIAN_POINT ( 'NONE',  ( -0.5000000000000002220, 7.000000000000000000, 0.000000000000000000 ) ) ;
#283 = DIMENSIONAL_EXPONENTS ( 1.000000000000000000, 0.000000000000000000, 0.000000000000000000, 0.000000000000000000, 0.000000000000000000, 0.000000000000000000, 0.000000000000000000 ) ;
#284 = EDGE_CURVE ( 'NONE', #21, #272, #70, .T. ) ;
#285 = PRESENTATION_LAYER_ASSIGNMENT (  '', '', ( #199 ) ) ;
#286 = CYLINDRICAL_SURFACE ( 'NONE', #304, 0.5000000000000001110 ) ;
#287 = ORIENTED_EDGE ( 'NONE', *, *, #253, .T. ) ;
#288 = UNCERTAINTY_MEASURE_WITH_UNIT (LENGTH_MEASURE( 1.000000000000000082E-05 ), #251, 'distance_accuracy_value', 'NONE');
#289 = PRESENTATION_STYLE_ASSIGNMENT (( #258 ) ) ;
#290 = PRESENTATION_LAYER_ASSIGNMENT (  '', '', ( #144 ) ) ;
#291 = UNCERTAINTY_MEASURE_WITH_UNIT (LENGTH_MEASURE( 1.000000000000000082E-05 ), #175, 'distance_accuracy_value', 'NONE');
#292 = LENGTH_MEASURE_WITH_UNIT ( LENGTH_MEASURE( 0.02539999999999999897 ), #73 );
#293 = ORIENTED_EDGE ( 'NONE', *, *, #19, .F. ) ;
#294 = MECHANICAL_DESIGN_GEOMETRIC_PRESENTATION_REPRESENTATION (  '', ( #180 ), #62 ) ;
#295 = MECHANICAL_DESIGN_GEOMETRIC_PRESENTATION_REPRESENTATION (  '', ( #252 ), #233 ) ;
#296 = ORIENTED_EDGE ( 'NONE', *, *, #177, .F. ) ;
#297 = APPLICATION_CONTEXT ( 'automotive_design' ) ;
#298 = DIRECTION ( 'NONE',  ( -4.259641040512529009E-17, 1.000000000000000000, -0.000000000000000000 ) ) ;
#299 = SURFACE_SIDE_STYLE ('',( #222 ) ) ;
#300 = DIRECTION ( 'NONE',  ( -0.000000000000000000, -1.000000000000000000, -0.000000000000000000 ) ) ;
#301 =( GEOMETRIC_REPRESENTATION_CONTEXT ( 3 ) GLOBAL_UNCERTAINTY_ASSIGNED_CONTEXT ( ( #117 ) ) GLOBAL_UNIT_ASSIGNED_CONTEXT ( ( #36, #95, #128 ) ) REPRESENTATION_CONTEXT ( 'NONE', 'WORKASPACE' ) );
#302 =( NAMED_UNIT ( * ) PLANE_ANGLE_UNIT ( ) SI_UNIT ( $, .RADIAN. ) );
#303 = DIRECTION ( 'NONE',  ( -0.000000000000000000, -1.000000000000000000, -0.000000000000000000 ) ) ;
#304 = AXIS2_PLACEMENT_3D ( 'NONE', #135, #71, #130 ) ;
#305 = FILL_AREA_STYLE_COLOUR ( '', #170 ) ;
#306 = EDGE_CURVE ( 'NONE', #80, #272, #106, .T. ) ;
#307 = DIRECTION ( 'NONE',  ( 4.259641040512529009E-17, -1.000000000000000000, 0.000000000000000000 ) ) ;
#308 =( NAMED_UNIT ( * ) SI_UNIT ( $, .STERADIAN. ) SOLID_ANGLE_UNIT ( ) );
#309 = CARTESIAN_POINT ( 'NONE',  ( 0.000000000000000000, 0.000000000000000000, 0.000000000000000000 ) ) ;
ENDSEC;
END-ISO-10303-21;
