ISO-10303-21;
HEADER;
FILE_DESCRIPTION (( 'STEP AP214' ),
    '1' );
FILE_NAME ('05412.STEP',
    '2023-06-22T16:06:23',
    ( '' ),
    ( '' ),
    'SwSTEP 2.0',
    'SolidWorks 2023',
    '' );
FILE_SCHEMA (( 'AUTOMOTIVE_DESIGN' ));
ENDSEC;

DATA;
#1 =( GEOMETRIC_REPRESENTATION_CONTEXT ( 3 ) GLOBAL_UNCERTAINTY_ASSIGNED_CONTEXT ( ( #65 ) ) GLOBAL_UNIT_ASSIGNED_CONTEXT ( ( #127, #54, #169 ) ) REPRESENTATION_CONTEXT ( 'NONE', 'WORKASPACE' ) );
#2 = DIRECTION ( 'NONE',  ( 0.000000000000000000, 0.000000000000000000, -1.000000000000000000 ) ) ;
#3 = ORIENTED_EDGE ( 'NONE', *, *, #227, .T. ) ;
#4 = FACE_OUTER_BOUND ( 'NONE', #91, .T. ) ;
#5 = UNCERTAINTY_MEASURE_WITH_UNIT (LENGTH_MEASURE( 1.000000000000000082E-05 ), #233, 'distance_accuracy_value', 'NONE');
#6 =( NAMED_UNIT ( * ) PLANE_ANGLE_UNIT ( ) SI_UNIT ( $, .RADIAN. ) );
#7 = VERTEX_POINT ( 'NONE', #251 ) ;
#8 = MECHANICAL_DESIGN_GEOMETRIC_PRESENTATION_REPRESENTATION (  '', ( #144 ), #201 ) ;
#9 = SURFACE_STYLE_FILL_AREA ( #17 ) ;
#10 = APPLICATION_CONTEXT ( 'automotive_design' ) ;
#11 =( NAMED_UNIT ( * ) SI_UNIT ( $, .STERADIAN. ) SOLID_ANGLE_UNIT ( ) );
#12 = FILL_AREA_STYLE_COLOUR ( '', #277 ) ;
#13 = ORIENTED_EDGE ( 'NONE', *, *, #83, .F. ) ;
#14 = SURFACE_STYLE_USAGE ( .BOTH. , #224 ) ;
#15 = AXIS2_PLACEMENT_3D ( 'NONE', #97, #72, #166 ) ;
#16 = VERTEX_POINT ( 'NONE', #69 ) ;
#17 = FILL_AREA_STYLE ('',( #220 ) ) ;
#18 = STYLED_ITEM ( 'NONE', ( #230 ), #109 ) ;
#19 = CARTESIAN_POINT ( 'NONE',  ( 0.000000000000000000, 0.000000000000000000, 0.000000000000000000 ) ) ;
#20 = DIRECTION ( 'NONE',  ( -1.000000000000000000, 0.000000000000000000, 0.000000000000000000 ) ) ;
#21 = UNCERTAINTY_MEASURE_WITH_UNIT (LENGTH_MEASURE( 1.000000000000000082E-05 ), #246, 'distance_accuracy_value', 'NONE');
#22 = DIRECTION ( 'NONE',  ( -0.000000000000000000, -1.000000000000000000, -0.000000000000000000 ) ) ;
#23 = FILL_AREA_STYLE ('',( #279 ) ) ;
#24 = UNCERTAINTY_MEASURE_WITH_UNIT (LENGTH_MEASURE( 1.000000000000000082E-05 ), #193, 'distance_accuracy_value', 'NONE');
#25 = LENGTH_MEASURE_WITH_UNIT ( LENGTH_MEASURE( 0.02539999999999999897 ), #124 );
#26 =( NAMED_UNIT ( * ) SI_UNIT ( $, .STERADIAN. ) SOLID_ANGLE_UNIT ( ) );
#27 = DIRECTION ( 'NONE',  ( -1.000000000000000000, 0.000000000000000000, 0.000000000000000000 ) ) ;
#28 =( CONVERSION_BASED_UNIT ( 'INCH', #167 ) LENGTH_UNIT ( ) NAMED_UNIT ( #87 ) );
#29 = FACE_OUTER_BOUND ( 'NONE', #161, .T. ) ;
#30 = ADVANCED_FACE ( 'NONE', ( #138 ), #204, .T. ) ;
#31 = DIMENSIONAL_EXPONENTS ( 1.000000000000000000, 0.000000000000000000, 0.000000000000000000, 0.000000000000000000, 0.000000000000000000, 0.000000000000000000, 0.000000000000000000 ) ;
#32 = DIRECTION ( 'NONE',  ( 0.000000000000000000, 0.000000000000000000, -1.000000000000000000 ) ) ;
#33 = FILL_AREA_STYLE ('',( #286 ) ) ;
#34 = DIMENSIONAL_EXPONENTS ( 1.000000000000000000, 0.000000000000000000, 0.000000000000000000, 0.000000000000000000, 0.000000000000000000, 0.000000000000000000, 0.000000000000000000 ) ;
#35 = PRESENTATION_LAYER_ASSIGNMENT (  '', '', ( #105 ) ) ;
#36 = PRESENTATION_LAYER_ASSIGNMENT (  '', '', ( #144 ) ) ;
#37 = VERTEX_POINT ( 'NONE', #176 ) ;
#38 = DIRECTION ( 'NONE',  ( 1.574545884618025728E-16, 1.000000000000000000, -0.000000000000000000 ) ) ;
#39 = PRODUCT_DEFINITION_CONTEXT ( 'detailed design', #10, 'design' ) ;
#40 =( GEOMETRIC_REPRESENTATION_CONTEXT ( 3 ) GLOBAL_UNCERTAINTY_ASSIGNED_CONTEXT ( ( #96 ) ) GLOBAL_UNIT_ASSIGNED_CONTEXT ( ( #28, #98, #26 ) ) REPRESENTATION_CONTEXT ( 'NONE', 'WORKASPACE' ) );
#41 = SURFACE_STYLE_FILL_AREA ( #66 ) ;
#42 = MECHANICAL_DESIGN_GEOMETRIC_PRESENTATION_REPRESENTATION (  '', ( #159 ), #264 ) ;
#43 = ORIENTED_EDGE ( 'NONE', *, *, #175, .T. ) ;
#44 = ORIENTED_EDGE ( 'NONE', *, *, #243, .T. ) ;
#45 = DIRECTION ( 'NONE',  ( 1.574545884618025728E-16, 1.000000000000000000, -0.000000000000000000 ) ) ;
#46 = DIRECTION ( 'NONE',  ( 1.574545884618025728E-16, 1.000000000000000000, -0.000000000000000000 ) ) ;
#47 = ADVANCED_FACE ( 'NONE', ( #300 ), #265, .T. ) ;
#48 = CIRCLE ( 'NONE', #85, 0.2187500000000000000 ) ;
#49 = CYLINDRICAL_SURFACE ( 'NONE', #283, 0.2187500000000000000 ) ;
#50 = DIRECTION ( 'NONE',  ( 0.000000000000000000, -1.000000000000000000, -0.000000000000000000 ) ) ;
#51 = CIRCLE ( 'NONE', #226, 0.2187500000000000000 ) ;
#52 = DIRECTION ( 'NONE',  ( 1.574545884618025728E-16, 1.000000000000000000, -0.000000000000000000 ) ) ;
#53 = DIMENSIONAL_EXPONENTS ( 1.000000000000000000, 0.000000000000000000, 0.000000000000000000, 0.000000000000000000, 0.000000000000000000, 0.000000000000000000, 0.000000000000000000 ) ;
#54 =( NAMED_UNIT ( * ) PLANE_ANGLE_UNIT ( ) SI_UNIT ( $, .RADIAN. ) );
#55 = VERTEX_POINT ( 'NONE', #58 ) ;
#56 = AXIS2_PLACEMENT_3D ( 'NONE', #71, #123, #207 ) ;
#57 = APPLICATION_PROTOCOL_DEFINITION ( 'draft international standard', 'automotive_design', 1998, #10 ) ;
#58 = CARTESIAN_POINT ( 'NONE',  ( 0.2187499999999999445, 1.000000000000000000, 2.678914873134834139E-17 ) ) ;
#59 = PRESENTATION_STYLE_ASSIGNMENT (( #158 ) ) ;
#60 = EDGE_LOOP ( 'NONE', ( #180, #13 ) ) ;
#61 =( CONVERSION_BASED_UNIT ( 'INCH', #262 ) LENGTH_UNIT ( ) NAMED_UNIT ( #238 ) );
#62 = MECHANICAL_DESIGN_GEOMETRIC_PRESENTATION_REPRESENTATION (  '', ( #199 ), #214 ) ;
#63 = ORIENTED_EDGE ( 'NONE', *, *, #107, .F. ) ;
#64 = FILL_AREA_STYLE ('',( #296 ) ) ;
#65 = UNCERTAINTY_MEASURE_WITH_UNIT (LENGTH_MEASURE( 1.000000000000000082E-05 ), #127, 'distance_accuracy_value', 'NONE');
#66 = FILL_AREA_STYLE ('',( #12 ) ) ;
#67 = PRODUCT ( '05412', '05412', '', ( #203 ) ) ;
#68 = SURFACE_STYLE_FILL_AREA ( #64 ) ;
#69 = CARTESIAN_POINT ( 'NONE',  ( 2.678914873134835064E-17, 1.000000000000000000, 0.2187500000000000000 ) ) ;
#70 = FILL_AREA_STYLE ('',( #187 ) ) ;
#71 = CARTESIAN_POINT ( 'NONE',  ( 2.755455298081544778E-16, 2.750000000000000000, 0.000000000000000000 ) ) ;
#72 = DIRECTION ( 'NONE',  ( -0.000000000000000000, -1.000000000000000000, -0.000000000000000000 ) ) ;
#73 =( GEOMETRIC_REPRESENTATION_CONTEXT ( 3 ) GLOBAL_UNCERTAINTY_ASSIGNED_CONTEXT ( ( #24 ) ) GLOBAL_UNIT_ASSIGNED_CONTEXT ( ( #193, #142, #191 ) ) REPRESENTATION_CONTEXT ( 'NONE', 'WORKASPACE' ) );
#74 = CARTESIAN_POINT ( 'NONE',  ( 0.2187500000000001388, 2.750000000000000000, 2.678914873134833215E-17 ) ) ;
#75 = STYLED_ITEM ( 'NONE', ( #117 ), #94 ) ;
#76 = SURFACE_STYLE_FILL_AREA ( #33 ) ;
#77 = FACE_OUTER_BOUND ( 'NONE', #153, .T. ) ;
#78 = PLANE ( 'NONE',  #281 ) ;
#79 = AXIS2_PLACEMENT_3D ( 'NONE', #86, #38, #298 ) ;
#80 = DIRECTION ( 'NONE',  ( -1.000000000000000000, 0.000000000000000000, 0.000000000000000000 ) ) ;
#81 = ORIENTED_EDGE ( 'NONE', *, *, #149, .T. ) ;
#82 = CARTESIAN_POINT ( 'NONE',  ( 0.000000000000000000, 0.000000000000000000, -0.2187500000000000000 ) ) ;
#83 = EDGE_CURVE ( 'NONE', #55, #108, #152, .T. ) ;
#84 = LENGTH_MEASURE_WITH_UNIT ( LENGTH_MEASURE( 0.02539999999999999897 ), #216 );
#85 = AXIS2_PLACEMENT_3D ( 'NONE', #259, #52, #27 ) ;
#86 = CARTESIAN_POINT ( 'NONE',  ( 0.000000000000000000, 1.000000000000000000, 0.000000000000000000 ) ) ;
#87 = DIMENSIONAL_EXPONENTS ( 1.000000000000000000, 0.000000000000000000, 0.000000000000000000, 0.000000000000000000, 0.000000000000000000, 0.000000000000000000, 0.000000000000000000 ) ;
#88 = PRODUCT_DEFINITION_SHAPE ( 'NONE', 'NONE',  #165 ) ;
#89 = VERTEX_POINT ( 'NONE', #133 ) ;
#90 = MANIFOLD_SOLID_BREP ( 'Revolve - Cutting Edge', #293 ) ;
#91 = EDGE_LOOP ( 'NONE', ( #44, #3 ) ) ;
#92 =( NAMED_UNIT ( * ) PLANE_ANGLE_UNIT ( ) SI_UNIT ( $, .RADIAN. ) );
#93 = ORIENTED_EDGE ( 'NONE', *, *, #200, .F. ) ;
#94 = MANIFOLD_SOLID_BREP ( 'Revolve - Tool Body (Straight Shanked)', #270 ) ;
#95 = PRESENTATION_STYLE_ASSIGNMENT (( #280 ) ) ;
#96 = UNCERTAINTY_MEASURE_WITH_UNIT (LENGTH_MEASURE( 1.000000000000000082E-05 ), #28, 'distance_accuracy_value', 'NONE');
#97 = CARTESIAN_POINT ( 'NONE',  ( 0.000000000000000000, 1.000000000000000000, 0.000000000000000000 ) ) ;
#98 =( NAMED_UNIT ( * ) PLANE_ANGLE_UNIT ( ) SI_UNIT ( $, .RADIAN. ) );
#99 = DIMENSIONAL_EXPONENTS ( 1.000000000000000000, 0.000000000000000000, 0.000000000000000000, 0.000000000000000000, 0.000000000000000000, 0.000000000000000000, 0.000000000000000000 ) ;
#100 = PLANE ( 'NONE',  #126 ) ;
#101 = EDGE_CURVE ( 'NONE', #16, #297, #202, .T. ) ;
#102 = CIRCLE ( 'NONE', #172, 0.2187500000000000000 ) ;
#103 = LINE ( 'NONE', #82, #179 ) ;
#104 = PRESENTATION_STYLE_ASSIGNMENT (( #235 ) ) ;
#105 = STYLED_ITEM ( 'NONE', ( #95 ), #194 ) ;
#106 = CARTESIAN_POINT ( 'NONE',  ( 0.000000000000000000, 0.000000000000000000, 0.000000000000000000 ) ) ;
#107 = EDGE_CURVE ( 'NONE', #55, #37, #135, .T. ) ;
#108 = VERTEX_POINT ( 'NONE', #143 ) ;
#109 = ADVANCED_FACE ( 'NONE', ( #275 ), #49, .T. ) ;
#110 = DIRECTION ( 'NONE',  ( 1.000000000000000000, 0.000000000000000000, 0.000000000000000000 ) ) ;
#111 = LENGTH_MEASURE_WITH_UNIT ( LENGTH_MEASURE( 0.02539999999999999897 ), #205 );
#112 = AXIS2_PLACEMENT_3D ( 'NONE', #245, #116, #269 ) ;
#113 = ADVANCED_BREP_SHAPE_REPRESENTATION ( '05412', ( #90, #94, #168 ), #260 ) ;
#114 = APPLICATION_PROTOCOL_DEFINITION ( 'draft international standard', 'automotive_design', 1998, #208 ) ;
#115 = PRESENTATION_STYLE_ASSIGNMENT (( #206 ) ) ;
#116 = DIRECTION ( 'NONE',  ( 1.574545884618025728E-16, 1.000000000000000000, -0.000000000000000000 ) ) ;
#117 = PRESENTATION_STYLE_ASSIGNMENT (( #14 ) ) ;
#118 = COLOUR_RGB ( '',1.000000000000000000, 0.000000000000000000, 0.000000000000000000 ) ;
#119 = VECTOR ( 'NONE', #22, 39.37007874015748143 ) ;
#120 = ORIENTED_EDGE ( 'NONE', *, *, #149, .F. ) ;
#121 = AXIS2_PLACEMENT_3D ( 'NONE', #287, #213, #80 ) ;
#122 = UNCERTAINTY_MEASURE_WITH_UNIT (LENGTH_MEASURE( 1.000000000000000082E-05 ), #61, 'distance_accuracy_value', 'NONE');
#123 = DIRECTION ( 'NONE',  ( 1.574545884618025728E-16, 1.000000000000000000, -0.000000000000000000 ) ) ;
#124 =( LENGTH_UNIT ( ) NAMED_UNIT ( * ) SI_UNIT ( $, .METRE. ) );
#125 = DIRECTION ( 'NONE',  ( -0.000000000000000000, -1.000000000000000000, -0.000000000000000000 ) ) ;
#126 = AXIS2_PLACEMENT_3D ( 'NONE', #106, #50, #239 ) ;
#127 =( CONVERSION_BASED_UNIT ( 'INCH', #25 ) LENGTH_UNIT ( ) NAMED_UNIT ( #31 ) );
#128 = DIRECTION ( 'NONE',  ( 1.574545884618025728E-16, 1.000000000000000000, -0.000000000000000000 ) ) ;
#129 = SURFACE_STYLE_USAGE ( .BOTH. , #252 ) ;
#130 = CARTESIAN_POINT ( 'NONE',  ( 0.2187500000000000000, 2.750000000000000000, 0.000000000000000000 ) ) ;
#131 =( NAMED_UNIT ( * ) PLANE_ANGLE_UNIT ( ) SI_UNIT ( $, .RADIAN. ) );
#132 = PRODUCT_DEFINITION_FORMATION_WITH_SPECIFIED_SOURCE ( 'ANY', '', #67, .NOT_KNOWN. ) ;
#133 = CARTESIAN_POINT ( 'NONE',  ( 0.000000000000000000, 0.000000000000000000, -0.2187500000000000000 ) ) ;
#134 = ORIENTED_EDGE ( 'NONE', *, *, #101, .T. ) ;
#135 = LINE ( 'NONE', #74, #282 ) ;
#136 =( LENGTH_UNIT ( ) NAMED_UNIT ( * ) SI_UNIT ( $, .METRE. ) );
#137 =( NAMED_UNIT ( * ) SI_UNIT ( $, .STERADIAN. ) SOLID_ANGLE_UNIT ( ) );
#138 = FACE_OUTER_BOUND ( 'NONE', #160, .T. ) ;
#139 = ORIENTED_EDGE ( 'NONE', *, *, #200, .T. ) ;
#140 = EDGE_CURVE ( 'NONE', #7, #37, #146, .T. ) ;
#141 = AXIS2_PLACEMENT_3D ( 'NONE', #148, #164, #20 ) ;
#142 =( NAMED_UNIT ( * ) PLANE_ANGLE_UNIT ( ) SI_UNIT ( $, .RADIAN. ) );
#143 = CARTESIAN_POINT ( 'NONE',  ( -0.2187500000000000000, 1.000000000000000000, 0.000000000000000000 ) ) ;
#144 = STYLED_ITEM ( 'NONE', ( #115 ), #30 ) ;
#145 = CARTESIAN_POINT ( 'NONE',  ( 2.678914873134835064E-17, 0.000000000000000000, 0.2187500000000000000 ) ) ;
#146 = CIRCLE ( 'NONE', #141, 0.2187499999999997224 ) ;
#147 = LENGTH_MEASURE_WITH_UNIT ( LENGTH_MEASURE( 0.02539999999999999897 ), #284 );
#148 = CARTESIAN_POINT ( 'NONE',  ( 2.755455298081544778E-16, 2.750000000000000000, 0.000000000000000000 ) ) ;
#149 = EDGE_CURVE ( 'NONE', #37, #7, #249, .T. ) ;
#150 = DIRECTION ( 'NONE',  ( 0.000000000000000000, -0.000000000000000000, 1.000000000000000000 ) ) ;
#151 = DIRECTION ( 'NONE',  ( 0.000000000000000000, 0.000000000000000000, -1.000000000000000000 ) ) ;
#152 = CIRCLE ( 'NONE', #79, 0.2187500000000000000 ) ;
#153 = EDGE_LOOP ( 'NONE', ( #295, #272 ) ) ;
#154 = FACE_OUTER_BOUND ( 'NONE', #307, .T. ) ;
#155 = COLOUR_RGB ( '',1.000000000000000000, 0.000000000000000000, 0.000000000000000000 ) ;
#156 = MECHANICAL_DESIGN_GEOMETRIC_PRESENTATION_REPRESENTATION (  '', ( #105 ), #1 ) ;
#157 = CARTESIAN_POINT ( 'NONE',  ( 0.000000000000000000, 0.000000000000000000, 0.000000000000000000 ) ) ;
#158 = SURFACE_STYLE_USAGE ( .BOTH. , #267 ) ;
#159 = STYLED_ITEM ( 'NONE', ( #104 ), #231 ) ;
#160 = EDGE_LOOP ( 'NONE', ( #43, #134, #244, #225 ) ) ;
#161 = EDGE_LOOP ( 'NONE', ( #63, #219, #139, #120 ) ) ;
#162 = ADVANCED_FACE ( 'NONE', ( #302 ), #276, .F. ) ;
#163 = SURFACE_SIDE_STYLE ('',( #41 ) ) ;
#164 = DIRECTION ( 'NONE',  ( 1.574545884618025728E-16, 1.000000000000000000, -0.000000000000000000 ) ) ;
#165 = PRODUCT_DEFINITION ( 'UNKNOWN', '', #132, #39 ) ;
#166 = DIRECTION ( 'NONE',  ( 0.000000000000000000, 0.000000000000000000, -1.000000000000000000 ) ) ;
#167 = LENGTH_MEASURE_WITH_UNIT ( LENGTH_MEASURE( 0.02539999999999999897 ), #209 );
#168 = AXIS2_PLACEMENT_3D ( 'NONE', #157, #250, #110 ) ;
#169 =( NAMED_UNIT ( * ) SI_UNIT ( $, .STERADIAN. ) SOLID_ANGLE_UNIT ( ) );
#170 = PLANE ( 'NONE',  #183 ) ;
#171 = DIRECTION ( 'NONE',  ( 1.000000000000000000, -1.574545884618025728E-16, 0.000000000000000000 ) ) ;
#172 = AXIS2_PLACEMENT_3D ( 'NONE', #236, #174, #2 ) ;
#173 = CARTESIAN_POINT ( 'NONE',  ( -0.2187499999999995837, 2.750000000000000000, 0.000000000000000000 ) ) ;
#174 = DIRECTION ( 'NONE',  ( -0.000000000000000000, -1.000000000000000000, -0.000000000000000000 ) ) ;
#175 = EDGE_CURVE ( 'NONE', #274, #16, #218, .T. ) ;
#176 = CARTESIAN_POINT ( 'NONE',  ( 0.2187499999999999445, 2.750000000000000000, 2.678914873134834139E-17 ) ) ;
#177 = DIRECTION ( 'NONE',  ( -0.000000000000000000, -1.000000000000000000, -0.000000000000000000 ) ) ;
#178 = ADVANCED_FACE ( 'NONE', ( #154 ), #78, .F. ) ;
#179 = VECTOR ( 'NONE', #177, 39.37007874015748143 ) ;
#180 = ORIENTED_EDGE ( 'NONE', *, *, #304, .F. ) ;
#181 = ORIENTED_EDGE ( 'NONE', *, *, #304, .T. ) ;
#182 = COLOUR_RGB ( '',0.7921568627450980005, 0.8196078431372548767, 0.9333333333333333481 ) ;
#183 = AXIS2_PLACEMENT_3D ( 'NONE', #290, #306, #150 ) ;
#184 = ORIENTED_EDGE ( 'NONE', *, *, #188, .T. ) ;
#185 = SURFACE_STYLE_FILL_AREA ( #23 ) ;
#186 = ORIENTED_EDGE ( 'NONE', *, *, #101, .F. ) ;
#187 = FILL_AREA_STYLE_COLOUR ( '', #155 ) ;
#188 = EDGE_CURVE ( 'NONE', #16, #274, #102, .T. ) ;
#189 = COLOUR_RGB ( '',0.7921568627450980005, 0.8196078431372548767, 0.9333333333333333481 ) ;
#190 = AXIS2_PLACEMENT_3D ( 'NONE', #253, #46, #229 ) ;
#191 =( NAMED_UNIT ( * ) SI_UNIT ( $, .STERADIAN. ) SOLID_ANGLE_UNIT ( ) );
#192 = UNCERTAINTY_MEASURE_WITH_UNIT (LENGTH_MEASURE( 1.000000000000000082E-05 ), #273, 'distance_accuracy_value', 'NONE');
#193 =( CONVERSION_BASED_UNIT ( 'INCH', #211 ) LENGTH_UNIT ( ) NAMED_UNIT ( #53 ) );
#194 = ADVANCED_FACE ( 'NONE', ( #4 ), #100, .T. ) ;
#195 = CIRCLE ( 'NONE', #240, 0.2187500000000000000 ) ;
#196 = PRESENTATION_LAYER_ASSIGNMENT (  '', '', ( #18 ) ) ;
#197 = SURFACE_SIDE_STYLE ('',( #76 ) ) ;
#198 = CARTESIAN_POINT ( 'NONE',  ( 2.678914873134835064E-17, 0.000000000000000000, 0.2187500000000000000 ) ) ;
#199 = STYLED_ITEM ( 'NONE', ( #59 ), #90 ) ;
#200 = EDGE_CURVE ( 'NONE', #108, #7, #285, .T. ) ;
#201 =( GEOMETRIC_REPRESENTATION_CONTEXT ( 3 ) GLOBAL_UNCERTAINTY_ASSIGNED_CONTEXT ( ( #122 ) ) GLOBAL_UNIT_ASSIGNED_CONTEXT ( ( #61, #6, #271 ) ) REPRESENTATION_CONTEXT ( 'NONE', 'WORKASPACE' ) );
#202 = LINE ( 'NONE', #145, #119 ) ;
#203 = PRODUCT_CONTEXT ( 'NONE', #208, 'mechanical' ) ;
#204 = CYLINDRICAL_SURFACE ( 'NONE', #308, 0.2187500000000000000 ) ;
#205 =( LENGTH_UNIT ( ) NAMED_UNIT ( * ) SI_UNIT ( $, .METRE. ) );
#206 = SURFACE_STYLE_USAGE ( .BOTH. , #163 ) ;
#207 = DIRECTION ( 'NONE',  ( -1.000000000000000000, 0.000000000000000000, 0.000000000000000000 ) ) ;
#208 = APPLICATION_CONTEXT ( 'automotive_design' ) ;
#209 =( LENGTH_UNIT ( ) NAMED_UNIT ( * ) SI_UNIT ( $, .METRE. ) );
#210 =( LENGTH_UNIT ( ) NAMED_UNIT ( * ) SI_UNIT ( $, .METRE. ) );
#211 = LENGTH_MEASURE_WITH_UNIT ( LENGTH_MEASURE( 0.02539999999999999897 ), #210 );
#212 = CARTESIAN_POINT ( 'NONE',  ( 0.000000000000000000, 0.000000000000000000, 0.000000000000000000 ) ) ;
#213 = DIRECTION ( 'NONE',  ( 1.574545884618025728E-16, 1.000000000000000000, -0.000000000000000000 ) ) ;
#214 =( GEOMETRIC_REPRESENTATION_CONTEXT ( 3 ) GLOBAL_UNCERTAINTY_ASSIGNED_CONTEXT ( ( #192 ) ) GLOBAL_UNIT_ASSIGNED_CONTEXT ( ( #273, #92, #137 ) ) REPRESENTATION_CONTEXT ( 'NONE', 'WORKASPACE' ) );
#215 = DIRECTION ( 'NONE',  ( -0.000000000000000000, -1.000000000000000000, -0.000000000000000000 ) ) ;
#216 =( LENGTH_UNIT ( ) NAMED_UNIT ( * ) SI_UNIT ( $, .METRE. ) );
#217 = ORIENTED_EDGE ( 'NONE', *, *, #107, .T. ) ;
#218 = CIRCLE ( 'NONE', #15, 0.2187500000000000000 ) ;
#219 = ORIENTED_EDGE ( 'NONE', *, *, #83, .T. ) ;
#220 = FILL_AREA_STYLE_COLOUR ( '', #182 ) ;
#221 = PRESENTATION_LAYER_ASSIGNMENT (  '', '', ( #159 ) ) ;
#222 = ORIENTED_EDGE ( 'NONE', *, *, #291, .T. ) ;
#223 = EDGE_LOOP ( 'NONE', ( #186, #184, #222, #292 ) ) ;
#224 = SURFACE_SIDE_STYLE ('',( #9 ) ) ;
#225 = ORIENTED_EDGE ( 'NONE', *, *, #291, .F. ) ;
#226 = AXIS2_PLACEMENT_3D ( 'NONE', #212, #215, #257 ) ;
#227 = EDGE_CURVE ( 'NONE', #297, #89, #51, .T. ) ;
#228 = SURFACE_SIDE_STYLE ('',( #185 ) ) ;
#229 = DIRECTION ( 'NONE',  ( -1.000000000000000000, 1.574545884618025728E-16, 0.000000000000000000 ) ) ;
#230 = PRESENTATION_STYLE_ASSIGNMENT (( #129 ) ) ;
#231 = ADVANCED_FACE ( 'NONE', ( #77 ), #170, .T. ) ;
#232 = DIRECTION ( 'NONE',  ( -0.000000000000000000, -1.000000000000000000, -0.000000000000000000 ) ) ;
#233 =( CONVERSION_BASED_UNIT ( 'INCH', #147 ) LENGTH_UNIT ( ) NAMED_UNIT ( #234 ) );
#234 = DIMENSIONAL_EXPONENTS ( 1.000000000000000000, 0.000000000000000000, 0.000000000000000000, 0.000000000000000000, 0.000000000000000000, 0.000000000000000000, 0.000000000000000000 ) ;
#235 = SURFACE_STYLE_USAGE ( .BOTH. , #197 ) ;
#236 = CARTESIAN_POINT ( 'NONE',  ( 0.000000000000000000, 1.000000000000000000, 0.000000000000000000 ) ) ;
#237 = EDGE_LOOP ( 'NONE', ( #181, #217, #299, #93 ) ) ;
#238 = DIMENSIONAL_EXPONENTS ( 1.000000000000000000, 0.000000000000000000, 0.000000000000000000, 0.000000000000000000, 0.000000000000000000, 0.000000000000000000, 0.000000000000000000 ) ;
#239 = DIRECTION ( 'NONE',  ( 0.000000000000000000, 0.000000000000000000, -1.000000000000000000 ) ) ;
#240 = AXIS2_PLACEMENT_3D ( 'NONE', #305, #232, #151 ) ;
#241 = PRESENTATION_LAYER_ASSIGNMENT (  '', '', ( #75 ) ) ;
#242 = VECTOR ( 'NONE', #128, 39.37007874015748143 ) ;
#243 = EDGE_CURVE ( 'NONE', #89, #297, #195, .T. ) ;
#244 = ORIENTED_EDGE ( 'NONE', *, *, #243, .F. ) ;
#245 = CARTESIAN_POINT ( 'NONE',  ( 2.755455298081544778E-16, 2.750000000000000000, 0.000000000000000000 ) ) ;
#246 =( CONVERSION_BASED_UNIT ( 'INCH', #84 ) LENGTH_UNIT ( ) NAMED_UNIT ( #34 ) );
#247 =( NAMED_UNIT ( * ) PLANE_ANGLE_UNIT ( ) SI_UNIT ( $, .RADIAN. ) );
#248 = PRODUCT_RELATED_PRODUCT_CATEGORY ( 'part', '', ( #67 ) ) ;
#249 = CIRCLE ( 'NONE', #56, 0.2187499999999997224 ) ;
#250 = DIRECTION ( 'NONE',  ( 0.000000000000000000, 0.000000000000000000, 1.000000000000000000 ) ) ;
#251 = CARTESIAN_POINT ( 'NONE',  ( -0.2187499999999994449, 2.750000000000000000, 0.000000000000000000 ) ) ;
#252 = SURFACE_SIDE_STYLE ('',( #254 ) ) ;
#253 = CARTESIAN_POINT ( 'NONE',  ( 2.711619249902019971E-33, 1.000000000000000000, 0.000000000000000000 ) ) ;
#254 = SURFACE_STYLE_FILL_AREA ( #70 ) ;
#255 = CARTESIAN_POINT ( 'NONE',  ( 0.000000000000000000, 0.000000000000000000, 0.000000000000000000 ) ) ;
#256 = CYLINDRICAL_SURFACE ( 'NONE', #121, 0.2187499999999998612 ) ;
#257 = DIRECTION ( 'NONE',  ( 0.000000000000000000, 0.000000000000000000, -1.000000000000000000 ) ) ;
#258 = PRESENTATION_LAYER_ASSIGNMENT (  '', '', ( #199 ) ) ;
#259 = CARTESIAN_POINT ( 'NONE',  ( 0.000000000000000000, 1.000000000000000000, 0.000000000000000000 ) ) ;
#260 =( GEOMETRIC_REPRESENTATION_CONTEXT ( 3 ) GLOBAL_UNCERTAINTY_ASSIGNED_CONTEXT ( ( #21 ) ) GLOBAL_UNIT_ASSIGNED_CONTEXT ( ( #246, #247, #11 ) ) REPRESENTATION_CONTEXT ( 'NONE', 'WORKASPACE' ) );
#261 = CARTESIAN_POINT ( 'NONE',  ( 0.000000000000000000, 1.000000000000000000, -0.2187500000000000000 ) ) ;
#262 = LENGTH_MEASURE_WITH_UNIT ( LENGTH_MEASURE( 0.02539999999999999897 ), #136 );
#263 = MECHANICAL_DESIGN_GEOMETRIC_PRESENTATION_REPRESENTATION (  '', ( #18 ), #73 ) ;
#264 =( GEOMETRIC_REPRESENTATION_CONTEXT ( 3 ) GLOBAL_UNCERTAINTY_ASSIGNED_CONTEXT ( ( #5 ) ) GLOBAL_UNIT_ASSIGNED_CONTEXT ( ( #233, #131, #309 ) ) REPRESENTATION_CONTEXT ( 'NONE', 'WORKASPACE' ) );
#265 = CYLINDRICAL_SURFACE ( 'NONE', #112, 0.2187499999999998612 ) ;
#266 = ADVANCED_FACE ( 'NONE', ( #29 ), #256, .T. ) ;
#267 = SURFACE_SIDE_STYLE ('',( #68 ) ) ;
#268 = ORIENTED_EDGE ( 'NONE', *, *, #140, .T. ) ;
#269 = DIRECTION ( 'NONE',  ( -1.000000000000000000, 0.000000000000000000, 0.000000000000000000 ) ) ;
#270 = CLOSED_SHELL ( 'NONE', ( #47, #162, #266, #178 ) ) ;
#271 =( NAMED_UNIT ( * ) SI_UNIT ( $, .STERADIAN. ) SOLID_ANGLE_UNIT ( ) );
#272 = ORIENTED_EDGE ( 'NONE', *, *, #188, .F. ) ;
#273 =( CONVERSION_BASED_UNIT ( 'INCH', #111 ) LENGTH_UNIT ( ) NAMED_UNIT ( #99 ) );
#274 = VERTEX_POINT ( 'NONE', #261 ) ;
#275 = FACE_OUTER_BOUND ( 'NONE', #223, .T. ) ;
#276 = PLANE ( 'NONE',  #190 ) ;
#277 = COLOUR_RGB ( '',1.000000000000000000, 0.000000000000000000, 0.000000000000000000 ) ;
#278 = DIRECTION ( 'NONE',  ( 0.000000000000000000, 0.000000000000000000, -1.000000000000000000 ) ) ;
#279 = FILL_AREA_STYLE_COLOUR ( '', #288 ) ;
#280 = SURFACE_STYLE_USAGE ( .BOTH. , #228 ) ;
#281 = AXIS2_PLACEMENT_3D ( 'NONE', #130, #289, #171 ) ;
#282 = VECTOR ( 'NONE', #45, 39.37007874015748143 ) ;
#283 = AXIS2_PLACEMENT_3D ( 'NONE', #255, #125, #278 ) ;
#284 =( LENGTH_UNIT ( ) NAMED_UNIT ( * ) SI_UNIT ( $, .METRE. ) );
#285 = LINE ( 'NONE', #173, #242 ) ;
#286 = FILL_AREA_STYLE_COLOUR ( '', #118 ) ;
#287 = CARTESIAN_POINT ( 'NONE',  ( 2.755455298081544778E-16, 2.750000000000000000, 0.000000000000000000 ) ) ;
#288 = COLOUR_RGB ( '',1.000000000000000000, 0.000000000000000000, 0.000000000000000000 ) ;
#289 = DIRECTION ( 'NONE',  ( -1.574545884618025728E-16, -1.000000000000000000, 0.000000000000000000 ) ) ;
#290 = CARTESIAN_POINT ( 'NONE',  ( 0.000000000000000000, 1.000000000000000000, 0.000000000000000000 ) ) ;
#291 = EDGE_CURVE ( 'NONE', #274, #89, #103, .T. ) ;
#292 = ORIENTED_EDGE ( 'NONE', *, *, #227, .F. ) ;
#293 = CLOSED_SHELL ( 'NONE', ( #30, #231, #109, #194 ) ) ;
#294 = SHAPE_DEFINITION_REPRESENTATION ( #88, #113 ) ;
#295 = ORIENTED_EDGE ( 'NONE', *, *, #175, .F. ) ;
#296 = FILL_AREA_STYLE_COLOUR ( '', #189 ) ;
#297 = VERTEX_POINT ( 'NONE', #198 ) ;
#298 = DIRECTION ( 'NONE',  ( -1.000000000000000000, 0.000000000000000000, 0.000000000000000000 ) ) ;
#299 = ORIENTED_EDGE ( 'NONE', *, *, #140, .F. ) ;
#300 = FACE_OUTER_BOUND ( 'NONE', #237, .T. ) ;
#301 = DIRECTION ( 'NONE',  ( -0.000000000000000000, -1.000000000000000000, -0.000000000000000000 ) ) ;
#302 = FACE_OUTER_BOUND ( 'NONE', #60, .T. ) ;
#303 = MECHANICAL_DESIGN_GEOMETRIC_PRESENTATION_REPRESENTATION (  '', ( #75 ), #40 ) ;
#304 = EDGE_CURVE ( 'NONE', #108, #55, #48, .T. ) ;
#305 = CARTESIAN_POINT ( 'NONE',  ( 0.000000000000000000, 0.000000000000000000, 0.000000000000000000 ) ) ;
#306 = DIRECTION ( 'NONE',  ( 0.000000000000000000, 1.000000000000000000, 0.000000000000000000 ) ) ;
#307 = EDGE_LOOP ( 'NONE', ( #268, #81 ) ) ;
#308 = AXIS2_PLACEMENT_3D ( 'NONE', #19, #301, #32 ) ;
#309 =( NAMED_UNIT ( * ) SI_UNIT ( $, .STERADIAN. ) SOLID_ANGLE_UNIT ( ) );
ENDSEC;
END-ISO-10303-21;
