ISO-10303-21;
HEADER;
FILE_DESCRIPTION (( 'STEP AP214' ),
    '1' );
FILE_NAME ('Micro_AELM-100-4.STEP',
    '2021-09-01T17:06:39',
    ( '' ),
    ( '' ),
    'SwSTEP 2.0',
    'SolidWorks 2020',
    '' );
FILE_SCHEMA (( 'AUTOMOTIVE_DESIGN' ));
ENDSEC;

DATA;
#1 = CIRCLE ( 'NONE', #170, 0.1966536494999999996 ) ;
#2 = CARTESIAN_POINT ( 'NONE',  ( 0.0000000000000000000, 0.0000000000000000000, 0.0000000000000000000 ) ) ;
#3 = CARTESIAN_POINT ( 'NONE',  ( 0.1968505000000002059, 2.410723347355563111E-17, 1.969620394661832474 ) ) ;
#4 = DIRECTION ( 'NONE',  ( -0.0000000000000000000, -0.0000000000000000000, -1.000000000000000000 ) ) ;
#5 = VERTEX_POINT ( 'NONE', #160 ) ;
#6 = ORIENTED_EDGE ( 'NONE', *, *, #174, .T. ) ;
#7 = ORIENTED_EDGE ( 'NONE', *, *, #44, .F. ) ;
#8 = EDGE_CURVE ( 'NONE', #150, #222, #225, .T. ) ;
#9 = VECTOR ( 'NONE', #187, 39.37007874015748143 ) ;
#10 = EDGE_LOOP ( 'NONE', ( #221, #34, #238, #7 ) ) ;
#11 = ORIENTED_EDGE ( 'NONE', *, *, #82, .T. ) ;
#12 = PRODUCT_DEFINITION_SHAPE ( 'NONE', 'NONE',  #49 ) ;
#13 = APPLICATION_CONTEXT ( 'automotive_design' ) ;
#14 = ORIENTED_EDGE ( 'NONE', *, *, #158, .T. ) ;
#15 = DIRECTION ( 'NONE',  ( -1.000000000000000000, 0.0000000000000000000, 0.0000000000000000000 ) ) ;
#16 = CYLINDRICAL_SURFACE ( 'NONE', #292, 0.1968504999999999838 ) ;
#17 = DIRECTION ( 'NONE',  ( 1.000000000000000000, 0.0000000000000000000, 0.0000000000000000000 ) ) ;
#18 = CARTESIAN_POINT ( 'NONE',  ( 2.412089311857959658E-16, 0.0000000000000000000, 1.969620394661832474 ) ) ;
#19 = AXIS2_PLACEMENT_3D ( 'NONE', #163, #134, #227 ) ;
#20 = CARTESIAN_POINT ( 'NONE',  ( 0.0000000000000000000, 0.0000000000000000000, 0.0000000000000000000 ) ) ;
#21 = CYLINDRICAL_SURFACE ( 'NONE', #156, 0.1966536494999999996 ) ;
#22 = CARTESIAN_POINT ( 'NONE',  ( 0.0000000000000000000, 0.0000000000000000000, 0.0000000000000000000 ) ) ;
#23 = ADVANCED_FACE ( 'NONE', ( #42 ), #188, .T. ) ;
#24 = EDGE_CURVE ( 'NONE', #222, #264, #185, .T. ) ;
#25 =( NAMED_UNIT ( * ) PLANE_ANGLE_UNIT ( ) SI_UNIT ( $, .RADIAN. ) );
#26 = CIRCLE ( 'NONE', #32, 0.1968504999999999838 ) ;
#27 = CIRCLE ( 'NONE', #19, 0.1968504999999999838 ) ;
#28 =( GEOMETRIC_REPRESENTATION_CONTEXT ( 3 ) GLOBAL_UNCERTAINTY_ASSIGNED_CONTEXT ( ( #194 ) ) GLOBAL_UNIT_ASSIGNED_CONTEXT ( ( #272, #141, #124 ) ) REPRESENTATION_CONTEXT ( 'NONE', 'WORKASPACE' ) );
#29 = CARTESIAN_POINT ( 'NONE',  ( -0.1818504999999994431, 0.0000000000000000000, 4.724409000000001413 ) ) ;
#30 = VERTEX_POINT ( 'NONE', #69 ) ;
#31 = PRODUCT_DEFINITION_CONTEXT ( 'detailed design', #13, 'design' ) ;
#32 = AXIS2_PLACEMENT_3D ( 'NONE', #211, #295, #93 ) ;
#33 = CIRCLE ( 'NONE', #268, 0.1966536494999999996 ) ;
#34 = ORIENTED_EDGE ( 'NONE', *, *, #8, .T. ) ;
#35 = AXIS2_PLACEMENT_3D ( 'NONE', #131, #267, #248 ) ;
#36 = ORIENTED_EDGE ( 'NONE', *, *, #239, .F. ) ;
#37 = DIRECTION ( 'NONE',  ( 0.0000000000000000000, 0.0000000000000000000, 1.000000000000000000 ) ) ;
#38 = CARTESIAN_POINT ( 'NONE',  ( 2.410722122708761257E-16, 0.0000000000000000000, 1.968503999999999809 ) ) ;
#39 = DIRECTION ( 'NONE',  ( 1.000000000000000000, 0.0000000000000000000, 0.0000000000000000000 ) ) ;
#40 = AXIS2_PLACEMENT_3D ( 'NONE', #228, #273, #17 ) ;
#41 = CIRCLE ( 'NONE', #72, 0.1966536494999999996 ) ;
#42 = FACE_OUTER_BOUND ( 'NONE', #244, .T. ) ;
#43 = ADVANCED_FACE ( 'NONE', ( #136 ), #78, .T. ) ;
#44 = EDGE_CURVE ( 'NONE', #183, #264, #165, .T. ) ;
#45 = CARTESIAN_POINT ( 'NONE',  ( 0.0000000000000000000, 0.0000000000000000000, 0.0000000000000000000 ) ) ;
#46 = DIRECTION ( 'NONE',  ( -0.0000000000000000000, -0.0000000000000000000, -1.000000000000000000 ) ) ;
#47 = CIRCLE ( 'NONE', #161, 0.1966536494999999996 ) ;
#48 = SURFACE_SIDE_STYLE ('',( #144 ) ) ;
#49 = PRODUCT_DEFINITION ( 'UNKNOWN', '', #205, #31 ) ;
#50 = EDGE_CURVE ( 'NONE', #293, #242, #1, .T. ) ;
#51 = CARTESIAN_POINT ( 'NONE',  ( 0.1966536494999999996, 2.408312624008205170E-17, 0.0000000000000000000 ) ) ;
#52 = FILL_AREA_STYLE_COLOUR ( '', #186 ) ;
#53 = FILL_AREA_STYLE_COLOUR ( '', #164 ) ;
#54 = FACE_OUTER_BOUND ( 'NONE', #83, .T. ) ;
#55 = ORIENTED_EDGE ( 'NONE', *, *, #94, .T. ) ;
#56 = ORIENTED_EDGE ( 'NONE', *, *, #109, .F. ) ;
#57 = EDGE_CURVE ( 'NONE', #150, #183, #181, .T. ) ;
#58 = ORIENTED_EDGE ( 'NONE', *, *, #299, .T. ) ;
#59 = ADVANCED_FACE ( 'NONE', ( #247 ), #200, .T. ) ;
#60 = ORIENTED_EDGE ( 'NONE', *, *, #174, .F. ) ;
#61 = ORIENTED_EDGE ( 'NONE', *, *, #57, .T. ) ;
#62 = FACE_OUTER_BOUND ( 'NONE', #202, .T. ) ;
#63 = CARTESIAN_POINT ( 'NONE',  ( 2.949332346337811403E-33, 0.0000000000000000000, 2.408312624008205170E-17 ) ) ;
#64 = DIMENSIONAL_EXPONENTS ( 1.000000000000000000, 0.0000000000000000000, 0.0000000000000000000, 0.0000000000000000000, 0.0000000000000000000, 0.0000000000000000000, 0.0000000000000000000 ) ;
#65 = DIRECTION ( 'NONE',  ( 1.000000000000000000, 0.0000000000000000000, 0.0000000000000000000 ) ) ;
#66 = CARTESIAN_POINT ( 'NONE',  ( 0.0000000000000000000, 0.0000000000000000000, 4.709409000000000844 ) ) ;
#67 = ADVANCED_FACE ( 'NONE', ( #117 ), #84, .T. ) ;
#68 = CIRCLE ( 'NONE', #90, 0.1968504999999999838 ) ;
#69 = CARTESIAN_POINT ( 'NONE',  ( -0.1966536494999997775, 2.409517985681882600E-17, 1.968503999999999809 ) ) ;
#70 = FILL_AREA_STYLE ('',( #53 ) ) ;
#71 = DIRECTION ( 'NONE',  ( 1.000000000000000000, 0.0000000000000000000, -0.0000000000000000000 ) ) ;
#72 = AXIS2_PLACEMENT_3D ( 'NONE', #276, #196, #259 ) ;
#73 = FACE_OUTER_BOUND ( 'NONE', #149, .T. ) ;
#74 = LENGTH_MEASURE_WITH_UNIT ( LENGTH_MEASURE( 0.02539999999999999897 ), #168 );
#75 = DIRECTION ( 'NONE',  ( -1.224646799147353207E-16, -0.0000000000000000000, -1.000000000000000000 ) ) ;
#76 = FACE_OUTER_BOUND ( 'NONE', #155, .T. ) ;
#77 = APPLICATION_CONTEXT ( 'automotive_design' ) ;
#78 = CONICAL_SURFACE ( 'NONE', #123, 0.1966536494999999996, 0.1745329251994339192 ) ;
#79 = DIRECTION ( 'NONE',  ( -1.000000000000000000, 0.0000000000000000000, 0.0000000000000000000 ) ) ;
#80 = ORIENTED_EDGE ( 'NONE', *, *, #94, .F. ) ;
#81 = EDGE_CURVE ( 'NONE', #263, #182, #89, .T. ) ;
#82 = EDGE_CURVE ( 'NONE', #182, #5, #27, .T. ) ;
#83 = EDGE_LOOP ( 'NONE', ( #86, #6 ) ) ;
#84 = CONICAL_SURFACE ( 'NONE', #241, 0.1818504999999994431, 0.7853981633974403964 ) ;
#85 = AXIS2_PLACEMENT_3D ( 'NONE', #234, #4, #79 ) ;
#86 = ORIENTED_EDGE ( 'NONE', *, *, #50, .T. ) ;
#87 = PRODUCT ( 'Micro_AELM-100-4', 'Micro_AELM-100-4', '', ( #97 ) ) ;
#88 = EDGE_LOOP ( 'NONE', ( #223, #58, #178, #203 ) ) ;
#89 = LINE ( 'NONE', #210, #162 ) ;
#90 = AXIS2_PLACEMENT_3D ( 'NONE', #18, #95, #115 ) ;
#91 = DIRECTION ( 'NONE',  ( 1.000000000000000000, 0.0000000000000000000, 0.0000000000000000000 ) ) ;
#92 = STYLED_ITEM ( 'NONE', ( #231 ), #255 ) ;
#93 = DIRECTION ( 'NONE',  ( 1.000000000000000000, 0.0000000000000000000, 0.0000000000000000000 ) ) ;
#94 = EDGE_CURVE ( 'NONE', #263, #30, #47, .T. ) ;
#95 = DIRECTION ( 'NONE',  ( -1.224646799147353207E-16, -0.0000000000000000000, -1.000000000000000000 ) ) ;
#96 = DIMENSIONAL_EXPONENTS ( 1.000000000000000000, 0.0000000000000000000, 0.0000000000000000000, 0.0000000000000000000, 0.0000000000000000000, 0.0000000000000000000, 0.0000000000000000000 ) ;
#97 = PRODUCT_CONTEXT ( 'NONE', #77, 'mechanical' ) ;
#98 = CARTESIAN_POINT ( 'NONE',  ( -0.1818504999999994431, 0.0000000000000000000, 4.724409000000001413 ) ) ;
#99 = LENGTH_MEASURE_WITH_UNIT ( LENGTH_MEASURE( 0.02539999999999999897 ), #104 );
#100 = CARTESIAN_POINT ( 'NONE',  ( 0.1966536494999999996, 2.408312624008205170E-17, -2.408312624008205170E-17 ) ) ;
#101 = DIRECTION ( 'NONE',  ( -1.000000000000000000, 0.0000000000000000000, 0.0000000000000000000 ) ) ;
#102 = CARTESIAN_POINT ( 'NONE',  ( 0.1968504999999999838, 2.410723347355560646E-17, 4.724409000000001413 ) ) ;
#103 = VECTOR ( 'NONE', #176, 39.37007874015748143 ) ;
#104 =( LENGTH_UNIT ( ) NAMED_UNIT ( * ) SI_UNIT ( $, .METRE. ) );
#105 = SURFACE_STYLE_FILL_AREA ( #70 ) ;
#106 = LINE ( 'NONE', #284, #118 ) ;
#107 = ORIENTED_EDGE ( 'NONE', *, *, #195, .T. ) ;
#108 = EDGE_CURVE ( 'NONE', #264, #222, #26, .T. ) ;
#109 = EDGE_CURVE ( 'NONE', #5, #182, #68, .T. ) ;
#110 = ORIENTED_EDGE ( 'NONE', *, *, #138, .F. ) ;
#111 = EDGE_LOOP ( 'NONE', ( #285, #80, #286, #11 ) ) ;
#112 = VECTOR ( 'NONE', #145, 39.37007874015748143 ) ;
#113 = ORIENTED_EDGE ( 'NONE', *, *, #50, .F. ) ;
#114 = EDGE_LOOP ( 'NONE', ( #153, #206, #180, #129 ) ) ;
#115 = DIRECTION ( 'NONE',  ( 1.000000000000000000, 0.0000000000000000000, 0.0000000000000000000 ) ) ;
#116 = DIMENSIONAL_EXPONENTS ( 1.000000000000000000, 0.0000000000000000000, 0.0000000000000000000, 0.0000000000000000000, 0.0000000000000000000, 0.0000000000000000000, 0.0000000000000000000 ) ;
#117 = FACE_OUTER_BOUND ( 'NONE', #10, .T. ) ;
#118 = VECTOR ( 'NONE', #220, 39.37007874015747433 ) ;
#119 = ADVANCED_FACE ( 'NONE', ( #62 ), #226, .T. ) ;
#120 = DIRECTION ( 'NONE',  ( -1.000000000000000000, 0.0000000000000000000, 0.0000000000000000000 ) ) ;
#121 = CARTESIAN_POINT ( 'NONE',  ( 0.0000000000000000000, 0.0000000000000000000, 4.724409000000001413 ) ) ;
#122 = DIRECTION ( 'NONE',  ( 1.224646799147353207E-16, 0.0000000000000000000, 1.000000000000000000 ) ) ;
#123 = AXIS2_PLACEMENT_3D ( 'NONE', #291, #122, #65 ) ;
#124 =( NAMED_UNIT ( * ) SI_UNIT ( $, .STERADIAN. ) SOLID_ANGLE_UNIT ( ) );
#125 = LENGTH_MEASURE_WITH_UNIT ( LENGTH_MEASURE( 0.02539999999999999897 ), #261 );
#126 = DIRECTION ( 'NONE',  ( -1.000000000000000000, 0.0000000000000000000, 1.224646799147353207E-16 ) ) ;
#127 = CARTESIAN_POINT ( 'NONE',  ( -0.1968504999999999838, 0.0000000000000000000, 4.709409000000000844 ) ) ;
#128 = ORIENTED_EDGE ( 'NONE', *, *, #172, .F. ) ;
#129 = ORIENTED_EDGE ( 'NONE', *, *, #82, .F. ) ;
#130 = ORIENTED_EDGE ( 'NONE', *, *, #239, .T. ) ;
#131 = CARTESIAN_POINT ( 'NONE',  ( 0.0000000000000000000, 0.0000000000000000000, 4.724409000000001413 ) ) ;
#132 = DIRECTION ( 'NONE',  ( -0.0000000000000000000, -0.0000000000000000000, -1.000000000000000000 ) ) ;
#133 = ADVANCED_FACE ( 'NONE', ( #157 ), #16, .T. ) ;
#134 = DIRECTION ( 'NONE',  ( -1.224646799147353207E-16, -0.0000000000000000000, -1.000000000000000000 ) ) ;
#135 = MECHANICAL_DESIGN_GEOMETRIC_PRESENTATION_REPRESENTATION (  '', ( #92 ), #28 ) ;
#136 = FACE_OUTER_BOUND ( 'NONE', #111, .T. ) ;
#137 = DIRECTION ( 'NONE',  ( -1.224646799147353207E-16, -0.0000000000000000000, -1.000000000000000000 ) ) ;
#138 = EDGE_CURVE ( 'NONE', #183, #150, #209, .T. ) ;
#139 = CARTESIAN_POINT ( 'NONE',  ( 2.410722122708761257E-16, 0.0000000000000000000, 1.968503999999999809 ) ) ;
#140 = PRESENTATION_LAYER_ASSIGNMENT (  '', '', ( #147 ) ) ;
#141 =( NAMED_UNIT ( * ) PLANE_ANGLE_UNIT ( ) SI_UNIT ( $, .RADIAN. ) );
#142 = CARTESIAN_POINT ( 'NONE',  ( 0.1966536495000002494, 0.0000000000000000000, 1.968503999999999809 ) ) ;
#143 =( CONVERSION_BASED_UNIT ( 'INCH', #125 ) LENGTH_UNIT ( ) NAMED_UNIT ( #64 ) );
#144 = SURFACE_STYLE_FILL_AREA ( #280 ) ;
#145 = DIRECTION ( 'NONE',  ( -0.0000000000000000000, -0.0000000000000000000, -1.000000000000000000 ) ) ;
#146 = AXIS2_PLACEMENT_3D ( 'NONE', #66, #271, #91 ) ;
#147 = STYLED_ITEM ( 'NONE', ( #167 ), #243 ) ;
#148 = CARTESIAN_POINT ( 'NONE',  ( -0.1966536494999999996, 0.0000000000000000000, 2.408312624008205170E-17 ) ) ;
#149 = EDGE_LOOP ( 'NONE', ( #154, #110, #179, #207 ) ) ;
#150 = VERTEX_POINT ( 'NONE', #218 ) ;
#151 = AXIS2_PLACEMENT_3D ( 'NONE', #45, #137, #215 ) ;
#152 = MECHANICAL_DESIGN_GEOMETRIC_PRESENTATION_REPRESENTATION (  '', ( #147 ), #256 ) ;
#153 = ORIENTED_EDGE ( 'NONE', *, *, #195, .F. ) ;
#154 = ORIENTED_EDGE ( 'NONE', *, *, #8, .F. ) ;
#155 = EDGE_LOOP ( 'NONE', ( #36, #55, #240, #60 ) ) ;
#156 = AXIS2_PLACEMENT_3D ( 'NONE', #2, #217, #126 ) ;
#157 = FACE_OUTER_BOUND ( 'NONE', #114, .T. ) ;
#158 = EDGE_CURVE ( 'NONE', #30, #263, #33, .T. ) ;
#159 = DIRECTION ( 'NONE',  ( -1.224646799147353207E-16, -0.0000000000000000000, -1.000000000000000000 ) ) ;
#160 = CARTESIAN_POINT ( 'NONE',  ( -0.1968504999999997618, 0.0000000000000000000, 1.969620394661832474 ) ) ;
#161 = AXIS2_PLACEMENT_3D ( 'NONE', #38, #159, #213 ) ;
#162 = VECTOR ( 'NONE', #294, 39.37007874015748143 ) ;
#163 = CARTESIAN_POINT ( 'NONE',  ( 2.412089311857959658E-16, 0.0000000000000000000, 1.969620394661832474 ) ) ;
#164 = COLOUR_RGB ( '',0.7921568627450980005, 0.8196078431372548767, 0.9333333333333333481 ) ;
#165 = LINE ( 'NONE', #98, #214 ) ;
#166 = APPLICATION_PROTOCOL_DEFINITION ( 'draft international standard', 'automotive_design', 1998, #77 ) ;
#167 = PRESENTATION_STYLE_ASSIGNMENT (( #197 ) ) ;
#168 =( LENGTH_UNIT ( ) NAMED_UNIT ( * ) SI_UNIT ( $, .METRE. ) );
#169 = CARTESIAN_POINT ( 'NONE',  ( 0.0000000000000000000, 0.0000000000000000000, 4.724409000000001413 ) ) ;
#170 = AXIS2_PLACEMENT_3D ( 'NONE', #63, #270, #250 ) ;
#171 = AXIS2_PLACEMENT_3D ( 'NONE', #189, #37, #208 ) ;
#172 = EDGE_CURVE ( 'NONE', #30, #293, #177, .T. ) ;
#173 = DIRECTION ( 'NONE',  ( -1.000000000000000000, 0.0000000000000000000, 0.0000000000000000000 ) ) ;
#174 = EDGE_CURVE ( 'NONE', #242, #293, #41, .T. ) ;
#175 = SURFACE_STYLE_USAGE ( .BOTH. , #48 ) ;
#176 = DIRECTION ( 'NONE',  ( -1.224646799147353207E-16, -0.0000000000000000000, -1.000000000000000000 ) ) ;
#177 = LINE ( 'NONE', #148, #103 ) ;
#178 = ORIENTED_EDGE ( 'NONE', *, *, #109, .T. ) ;
#179 = ORIENTED_EDGE ( 'NONE', *, *, #44, .T. ) ;
#180 = ORIENTED_EDGE ( 'NONE', *, *, #275, .T. ) ;
#181 = CIRCLE ( 'NONE', #40, 0.1818504999999994431 ) ;
#182 = VERTEX_POINT ( 'NONE', #3 ) ;
#183 = VERTEX_POINT ( 'NONE', #29 ) ;
#184 = CARTESIAN_POINT ( 'NONE',  ( 2.410722122708761257E-16, 0.0000000000000000000, 1.968503999999999809 ) ) ;
#185 = CIRCLE ( 'NONE', #146, 0.1968504999999999838 ) ;
#186 = COLOUR_RGB ( '',0.7921568627450980005, 0.8196078431372548767, 0.9333333333333333481 ) ;
#187 = DIRECTION ( 'NONE',  ( 0.7071067811865419106, 8.659560562354863833E-17, -0.7071067811865531239 ) ) ;
#188 = PLANE ( 'NONE',  #35 ) ;
#189 = CARTESIAN_POINT ( 'NONE',  ( 0.0000000000000000000, 0.0000000000000000000, 4.724409000000001413 ) ) ;
#190 = VECTOR ( 'NONE', #46, 39.37007874015748143 ) ;
#191 = CARTESIAN_POINT ( 'NONE',  ( 0.1818504999999994431, 2.227026327483450676E-17, 4.724409000000001413 ) ) ;
#192 = ADVANCED_FACE ( 'NONE', ( #54 ), #237, .F. ) ;
#193 =( NAMED_UNIT ( * ) SI_UNIT ( $, .STERADIAN. ) SOLID_ANGLE_UNIT ( ) );
#194 = UNCERTAINTY_MEASURE_WITH_UNIT (LENGTH_MEASURE( 1.000000000000000082E-05 ), #272, 'distance_accuracy_value', 'NONE');
#195 = EDGE_CURVE ( 'NONE', #222, #182, #254, .T. ) ;
#196 = DIRECTION ( 'NONE',  ( -1.224646799147353207E-16, -0.0000000000000000000, -1.000000000000000000 ) ) ;
#197 = SURFACE_STYLE_USAGE ( .BOTH. , #279 ) ;
#198 = DIRECTION ( 'NONE',  ( 0.0000000000000000000, 0.0000000000000000000, 1.000000000000000000 ) ) ;
#199 = CARTESIAN_POINT ( 'NONE',  ( -0.1966536494999999996, 0.0000000000000000000, 4.816625248016410340E-17 ) ) ;
#200 = CONICAL_SURFACE ( 'NONE', #287, 0.1966536494999999996, 0.1745329251994339192 ) ;
#201 = EDGE_LOOP ( 'NONE', ( #290, #107, #56, #266 ) ) ;
#202 = EDGE_LOOP ( 'NONE', ( #14, #130, #113, #128 ) ) ;
#203 = ORIENTED_EDGE ( 'NONE', *, *, #81, .F. ) ;
#204 = AXIS2_PLACEMENT_3D ( 'NONE', #22, #198, #71 ) ;
#205 = PRODUCT_DEFINITION_FORMATION_WITH_SPECIFIED_SOURCE ( 'ANY', '', #87, .NOT_KNOWN. ) ;
#206 = ORIENTED_EDGE ( 'NONE', *, *, #24, .T. ) ;
#207 = ORIENTED_EDGE ( 'NONE', *, *, #24, .F. ) ;
#208 = DIRECTION ( 'NONE',  ( 1.000000000000000000, 0.0000000000000000000, 0.0000000000000000000 ) ) ;
#209 = CIRCLE ( 'NONE', #171, 0.1818504999999994431 ) ;
#210 = CARTESIAN_POINT ( 'NONE',  ( 0.1966536495000002494, 0.0000000000000000000, 1.968503999999999809 ) ) ;
#211 = CARTESIAN_POINT ( 'NONE',  ( 0.0000000000000000000, 0.0000000000000000000, 4.709409000000000844 ) ) ;
#212 = DIRECTION ( 'NONE',  ( 0.0000000000000000000, 0.0000000000000000000, 1.000000000000000000 ) ) ;
#213 = DIRECTION ( 'NONE',  ( -1.000000000000000000, 0.0000000000000000000, 0.0000000000000000000 ) ) ;
#214 = VECTOR ( 'NONE', #252, 39.37007874015748143 ) ;
#215 = DIRECTION ( 'NONE',  ( -1.000000000000000000, 0.0000000000000000000, 1.224646799147353207E-16 ) ) ;
#216 = ADVANCED_FACE ( 'NONE', ( #73 ), #245, .T. ) ;
#217 = DIRECTION ( 'NONE',  ( -1.224646799147353207E-16, -0.0000000000000000000, -1.000000000000000000 ) ) ;
#218 = CARTESIAN_POINT ( 'NONE',  ( 0.1818504999999994431, 2.318874837419505661E-17, 4.724409000000001413 ) ) ;
#219 = LINE ( 'NONE', #274, #190 ) ;
#220 = DIRECTION ( 'NONE',  ( -0.1736481776669312194, 2.126576849575783625E-17, 0.9848077530122080203 ) ) ;
#221 = ORIENTED_EDGE ( 'NONE', *, *, #57, .F. ) ;
#222 = VERTEX_POINT ( 'NONE', #298 ) ;
#223 = ORIENTED_EDGE ( 'NONE', *, *, #158, .F. ) ;
#224 = ORIENTED_EDGE ( 'NONE', *, *, #138, .T. ) ;
#225 = LINE ( 'NONE', #191, #9 ) ;
#226 = CYLINDRICAL_SURFACE ( 'NONE', #151, 0.1966536494999999996 ) ;
#227 = DIRECTION ( 'NONE',  ( 1.000000000000000000, 0.0000000000000000000, 0.0000000000000000000 ) ) ;
#228 = CARTESIAN_POINT ( 'NONE',  ( 0.0000000000000000000, 0.0000000000000000000, 4.724409000000001413 ) ) ;
#229 = SHAPE_DEFINITION_REPRESENTATION ( #12, #255 ) ;
#230 = DIRECTION ( 'NONE',  ( 1.224646799147353207E-16, 0.0000000000000000000, 1.000000000000000000 ) ) ;
#231 = PRESENTATION_STYLE_ASSIGNMENT (( #175 ) ) ;
#232 = CYLINDRICAL_SURFACE ( 'NONE', #85, 0.1968504999999999838 ) ;
#233 = DIRECTION ( 'NONE',  ( 1.000000000000000000, 0.0000000000000000000, 0.0000000000000000000 ) ) ;
#234 = CARTESIAN_POINT ( 'NONE',  ( 0.0000000000000000000, 0.0000000000000000000, 4.724409000000001413 ) ) ;
#235 = DIRECTION ( 'NONE',  ( 0.0000000000000000000, 0.0000000000000000000, -1.000000000000000000 ) ) ;
#236 = ADVANCED_FACE ( 'NONE', ( #76 ), #21, .T. ) ;
#237 = PLANE ( 'NONE',  #204 ) ;
#238 = ORIENTED_EDGE ( 'NONE', *, *, #108, .F. ) ;
#239 = EDGE_CURVE ( 'NONE', #263, #242, #283, .T. ) ;
#240 = ORIENTED_EDGE ( 'NONE', *, *, #172, .T. ) ;
#241 = AXIS2_PLACEMENT_3D ( 'NONE', #121, #269, #15 ) ;
#242 = VERTEX_POINT ( 'NONE', #51 ) ;
#243 = MANIFOLD_SOLID_BREP ( 'Cut-Revolve1', #297 ) ;
#244 = EDGE_LOOP ( 'NONE', ( #224, #61 ) ) ;
#245 = CONICAL_SURFACE ( 'NONE', #262, 0.1818504999999994431, 0.7853981633974403964 ) ;
#246 = CARTESIAN_POINT ( 'NONE',  ( 0.0000000000000000000, 0.0000000000000000000, 4.724409000000001413 ) ) ;
#247 = FACE_OUTER_BOUND ( 'NONE', #88, .T. ) ;
#248 = DIRECTION ( 'NONE',  ( 1.000000000000000000, 0.0000000000000000000, -0.0000000000000000000 ) ) ;
#249 = PRESENTATION_LAYER_ASSIGNMENT (  '', '', ( #92 ) ) ;
#250 = DIRECTION ( 'NONE',  ( -1.000000000000000000, 0.0000000000000000000, 1.224646799147353207E-16 ) ) ;
#251 = APPLICATION_PROTOCOL_DEFINITION ( 'draft international standard', 'automotive_design', 1998, #13 ) ;
#252 = DIRECTION ( 'NONE',  ( -0.7071067811865419106, 0.0000000000000000000, -0.7071067811865531239 ) ) ;
#253 =( NAMED_UNIT ( * ) PLANE_ANGLE_UNIT ( ) SI_UNIT ( $, .RADIAN. ) );
#254 = LINE ( 'NONE', #102, #112 ) ;
#255 = ADVANCED_BREP_SHAPE_REPRESENTATION ( 'Micro_AELM-100-4', ( #243, #278 ), #265 ) ;
#256 =( GEOMETRIC_REPRESENTATION_CONTEXT ( 3 ) GLOBAL_UNCERTAINTY_ASSIGNED_CONTEXT ( ( #296 ) ) GLOBAL_UNIT_ASSIGNED_CONTEXT ( ( #143, #25, #282 ) ) REPRESENTATION_CONTEXT ( 'NONE', 'WORKASPACE' ) );
#257 = FACE_OUTER_BOUND ( 'NONE', #201, .T. ) ;
#258 = DIRECTION ( 'NONE',  ( -1.224646799147353207E-16, -0.0000000000000000000, -1.000000000000000000 ) ) ;
#259 = DIRECTION ( 'NONE',  ( -1.000000000000000000, 0.0000000000000000000, 1.224646799147353207E-16 ) ) ;
#260 = UNCERTAINTY_MEASURE_WITH_UNIT (LENGTH_MEASURE( 1.000000000000000082E-05 ), #277, 'distance_accuracy_value', 'NONE');
#261 =( LENGTH_UNIT ( ) NAMED_UNIT ( * ) SI_UNIT ( $, .METRE. ) );
#262 = AXIS2_PLACEMENT_3D ( 'NONE', #169, #235, #173 ) ;
#263 = VERTEX_POINT ( 'NONE', #142 ) ;
#264 = VERTEX_POINT ( 'NONE', #127 ) ;
#265 =( GEOMETRIC_REPRESENTATION_CONTEXT ( 3 ) GLOBAL_UNCERTAINTY_ASSIGNED_CONTEXT ( ( #260 ) ) GLOBAL_UNIT_ASSIGNED_CONTEXT ( ( #277, #253, #193 ) ) REPRESENTATION_CONTEXT ( 'NONE', 'WORKASPACE' ) );
#266 = ORIENTED_EDGE ( 'NONE', *, *, #275, .F. ) ;
#267 = DIRECTION ( 'NONE',  ( 0.0000000000000000000, 0.0000000000000000000, 1.000000000000000000 ) ) ;
#268 = AXIS2_PLACEMENT_3D ( 'NONE', #139, #75, #101 ) ;
#269 = DIRECTION ( 'NONE',  ( 0.0000000000000000000, 0.0000000000000000000, -1.000000000000000000 ) ) ;
#270 = DIRECTION ( 'NONE',  ( -1.224646799147353207E-16, -0.0000000000000000000, -1.000000000000000000 ) ) ;
#271 = DIRECTION ( 'NONE',  ( 0.0000000000000000000, 0.0000000000000000000, -1.000000000000000000 ) ) ;
#272 =( CONVERSION_BASED_UNIT ( 'INCH', #74 ) LENGTH_UNIT ( ) NAMED_UNIT ( #96 ) );
#273 = DIRECTION ( 'NONE',  ( 0.0000000000000000000, 0.0000000000000000000, 1.000000000000000000 ) ) ;
#274 = CARTESIAN_POINT ( 'NONE',  ( -0.1968504999999999838, 0.0000000000000000000, 4.724409000000001413 ) ) ;
#275 = EDGE_CURVE ( 'NONE', #264, #5, #219, .T. ) ;
#276 = CARTESIAN_POINT ( 'NONE',  ( 2.949332346337811403E-33, 0.0000000000000000000, 2.408312624008205170E-17 ) ) ;
#277 =( CONVERSION_BASED_UNIT ( 'INCH', #99 ) LENGTH_UNIT ( ) NAMED_UNIT ( #116 ) );
#278 = AXIS2_PLACEMENT_3D ( 'NONE', #20, #212, #233 ) ;
#279 = SURFACE_SIDE_STYLE ('',( #105 ) ) ;
#280 = FILL_AREA_STYLE ('',( #52 ) ) ;
#281 = ADVANCED_FACE ( 'NONE', ( #257 ), #232, .T. ) ;
#282 =( NAMED_UNIT ( * ) SI_UNIT ( $, .STERADIAN. ) SOLID_ANGLE_UNIT ( ) );
#283 = LINE ( 'NONE', #100, #288 ) ;
#284 = CARTESIAN_POINT ( 'NONE',  ( -0.1966536494999997775, 2.408312624008205170E-17, 1.968503999999999809 ) ) ;
#285 = ORIENTED_EDGE ( 'NONE', *, *, #299, .F. ) ;
#286 = ORIENTED_EDGE ( 'NONE', *, *, #81, .T. ) ;
#287 = AXIS2_PLACEMENT_3D ( 'NONE', #184, #230, #39 ) ;
#288 = VECTOR ( 'NONE', #258, 39.37007874015748143 ) ;
#289 = PRODUCT_RELATED_PRODUCT_CATEGORY ( 'part', '', ( #87 ) ) ;
#290 = ORIENTED_EDGE ( 'NONE', *, *, #108, .T. ) ;
#291 = CARTESIAN_POINT ( 'NONE',  ( 2.410722122708761257E-16, 0.0000000000000000000, 1.968503999999999809 ) ) ;
#292 = AXIS2_PLACEMENT_3D ( 'NONE', #246, #132, #120 ) ;
#293 = VERTEX_POINT ( 'NONE', #199 ) ;
#294 = DIRECTION ( 'NONE',  ( 0.1736481776669314137, 0.0000000000000000000, 0.9848077530122077983 ) ) ;
#295 = DIRECTION ( 'NONE',  ( 0.0000000000000000000, 0.0000000000000000000, -1.000000000000000000 ) ) ;
#296 = UNCERTAINTY_MEASURE_WITH_UNIT (LENGTH_MEASURE( 1.000000000000000082E-05 ), #143, 'distance_accuracy_value', 'NONE');
#297 = CLOSED_SHELL ( 'NONE', ( #119, #59, #67, #281, #133, #23, #216, #43, #236, #192 ) ) ;
#298 = CARTESIAN_POINT ( 'NONE',  ( 0.1968504999999999838, 2.410723347355560646E-17, 4.709409000000000844 ) ) ;
#299 = EDGE_CURVE ( 'NONE', #30, #5, #106, .T. ) ;
ENDSEC;
END-ISO-10303-21;
