ISO-10303-21;
HEADER;
FILE_DESCRIPTION (( 'STEP AP214' ),
    '1' );
FILE_NAME ('59761.STEP',
    '2023-07-24T15:35:17',
    ( '' ),
    ( '' ),
    'SwSTEP 2.0',
    'SolidWorks 2023',
    '' );
FILE_SCHEMA (( 'AUTOMOTIVE_DESIGN' ));
ENDSEC;

DATA;
#1 = SURFACE_STYLE_USAGE ( .BOTH. , #261 ) ;
#2 = SURFACE_STYLE_FILL_AREA ( #157 ) ;
#3 = FILL_AREA_STYLE ('',( #137 ) ) ;
#4 =( NAMED_UNIT ( * ) PLANE_ANGLE_UNIT ( ) SI_UNIT ( $, .RADIAN. ) );
#5 = DIRECTION ( 'NONE',  ( -1.236440607496819135E-16, 1.000000000000000000, -0.000000000000000000 ) ) ;
#6 = PRESENTATION_LAYER_ASSIGNMENT (  '', '', ( #41 ) ) ;
#7 = VECTOR ( 'NONE', #5, 1000.000000000000000 ) ;
#8 = DIRECTION ( 'NONE',  ( -1.236440607496819135E-16, 1.000000000000000000, -0.000000000000000000 ) ) ;
#9 = DIRECTION ( 'NONE',  ( 0.000000000000000000, -0.000000000000000000, 1.000000000000000000 ) ) ;
#10 = ORIENTED_EDGE ( 'NONE', *, *, #119, .F. ) ;
#11 = EDGE_CURVE ( 'NONE', #262, #272, #187, .T. ) ;
#12 = APPLICATION_CONTEXT ( 'automotive_design' ) ;
#13 = DIRECTION ( 'NONE',  ( -0.000000000000000000, -1.000000000000000000, -0.000000000000000000 ) ) ;
#14 = PRODUCT_CONTEXT ( 'NONE', #12, 'mechanical' ) ;
#15 = ORIENTED_EDGE ( 'NONE', *, *, #368, .T. ) ;
#16 = UNCERTAINTY_MEASURE_WITH_UNIT (LENGTH_MEASURE( 1.000000000000000082E-05 ), #172, 'distance_accuracy_value', 'NONE');
#17 = DIRECTION ( 'NONE',  ( 0.000000000000000000, 0.000000000000000000, -1.000000000000000000 ) ) ;
#18 = CARTESIAN_POINT ( 'NONE',  ( 6.071532165918824830E-15, 40.00000000000000000, 0.000000000000000000 ) ) ;
#19 = AXIS2_PLACEMENT_3D ( 'NONE', #358, #249, #73 ) ;
#20 = APPLICATION_PROTOCOL_DEFINITION ( 'draft international standard', 'automotive_design', 1998, #12 ) ;
#21 =( NAMED_UNIT ( * ) PLANE_ANGLE_UNIT ( ) SI_UNIT ( $, .RADIAN. ) );
#22 =( LENGTH_UNIT ( ) NAMED_UNIT ( * ) SI_UNIT ( .MILLI., .METRE. ) );
#23 = VECTOR ( 'NONE', #39, 1000.000000000000000 ) ;
#24 = ADVANCED_FACE ( 'NONE', ( #151 ), #145, .T. ) ;
#25 = LINE ( 'NONE', #200, #7 ) ;
#26 = PRESENTATION_STYLE_ASSIGNMENT (( #321 ) ) ;
#27 = ORIENTED_EDGE ( 'NONE', *, *, #155, .T. ) ;
#28 = EDGE_LOOP ( 'NONE', ( #15, #308 ) ) ;
#29 =( LENGTH_UNIT ( ) NAMED_UNIT ( * ) SI_UNIT ( .MILLI., .METRE. ) );
#30 = MECHANICAL_DESIGN_GEOMETRIC_PRESENTATION_REPRESENTATION (  '', ( #76 ), #219 ) ;
#31 = APPLICATION_CONTEXT ( 'automotive_design' ) ;
#32 = AXIS2_PLACEMENT_3D ( 'NONE', #138, #159, #218 ) ;
#33 =( NAMED_UNIT ( * ) PLANE_ANGLE_UNIT ( ) SI_UNIT ( $, .RADIAN. ) );
#34 = CLOSED_SHELL ( 'NONE', ( #296, #152, #117, #170 ) ) ;
#35 = CARTESIAN_POINT ( 'NONE',  ( -10.00000000000000000, 100.0000000000000000, 0.000000000000000000 ) ) ;
#36 = ORIENTED_EDGE ( 'NONE', *, *, #47, .F. ) ;
#37 = SURFACE_SIDE_STYLE ('',( #355 ) ) ;
#38 = DIRECTION ( 'NONE',  ( -0.000000000000000000, -1.000000000000000000, -0.000000000000000000 ) ) ;
#39 = DIRECTION ( 'NONE',  ( -0.000000000000000000, -1.000000000000000000, -0.000000000000000000 ) ) ;
#40 = DIRECTION ( 'NONE',  ( 0.000000000000000000, 0.000000000000000000, -1.000000000000000000 ) ) ;
#41 = STYLED_ITEM ( 'NONE', ( #85 ), #279 ) ;
#42 = AXIS2_PLACEMENT_3D ( 'NONE', #331, #103, #40 ) ;
#43 = ORIENTED_EDGE ( 'NONE', *, *, #56, .F. ) ;
#44 = SURFACE_SIDE_STYLE ('',( #213 ) ) ;
#45 = ORIENTED_EDGE ( 'NONE', *, *, #158, .T. ) ;
#46 = PRODUCT_DEFINITION_FORMATION_WITH_SPECIFIED_SOURCE ( 'ANY', '', #351, .NOT_KNOWN. ) ;
#47 = EDGE_CURVE ( 'NONE', #180, #96, #211, .T. ) ;
#48 = DIRECTION ( 'NONE',  ( 1.000000000000000000, 1.236440607496819135E-16, 0.000000000000000000 ) ) ;
#49 = STYLED_ITEM ( 'NONE', ( #93 ), #106 ) ;
#50 = ADVANCED_BREP_SHAPE_REPRESENTATION ( '59761', ( #229, #106, #283 ), #70 ) ;
#51 = PRESENTATION_LAYER_ASSIGNMENT (  '', '', ( #183 ) ) ;
#52 = COLOUR_RGB ( '',1.000000000000000000, 0.000000000000000000, 0.000000000000000000 ) ;
#53 = CYLINDRICAL_SURFACE ( 'NONE', #237, 10.00000000000000178 ) ;
#54 = CARTESIAN_POINT ( 'NONE',  ( 0.000000000000000000, 40.00000000000000000, 0.000000000000000000 ) ) ;
#55 = SURFACE_STYLE_FILL_AREA ( #222 ) ;
#56 = EDGE_CURVE ( 'NONE', #180, #128, #244, .T. ) ;
#57 = TOROIDAL_SURFACE ( 'NONE', #100, 9.000000000000001776, 1.000000000000000444 ) ;
#58 = AXIS2_PLACEMENT_3D ( 'NONE', #18, #61, #298 ) ;
#59 = PRODUCT_DEFINITION_CONTEXT ( 'detailed design', #31, 'design' ) ;
#60 = PRODUCT_RELATED_PRODUCT_CATEGORY ( 'part', '', ( #351 ) ) ;
#61 = DIRECTION ( 'NONE',  ( -1.236440607496819135E-16, 1.000000000000000000, 0.000000000000000000 ) ) ;
#62 = EDGE_LOOP ( 'NONE', ( #354, #163 ) ) ;
#63 = AXIS2_PLACEMENT_3D ( 'NONE', #135, #343, #81 ) ;
#64 = ORIENTED_EDGE ( 'NONE', *, *, #78, .T. ) ;
#65 = DIRECTION ( 'NONE',  ( -0.000000000000000000, -1.000000000000000000, -0.000000000000000000 ) ) ;
#66 = CYLINDRICAL_SURFACE ( 'NONE', #274, 9.999999999999998224 ) ;
#67 = EDGE_LOOP ( 'NONE', ( #303, #230, #306, #43 ) ) ;
#68 = UNCERTAINTY_MEASURE_WITH_UNIT (LENGTH_MEASURE( 1.000000000000000082E-05 ), #29, 'distance_accuracy_value', 'NONE');
#69 = CIRCLE ( 'NONE', #144, 10.00000000000000355 ) ;
#70 =( GEOMETRIC_REPRESENTATION_CONTEXT ( 3 ) GLOBAL_UNCERTAINTY_ASSIGNED_CONTEXT ( ( #88 ) ) GLOBAL_UNIT_ASSIGNED_CONTEXT ( ( #330, #270, #216 ) ) REPRESENTATION_CONTEXT ( 'NONE', 'WORKASPACE' ) );
#71 = MECHANICAL_DESIGN_GEOMETRIC_PRESENTATION_REPRESENTATION (  '', ( #49 ), #245 ) ;
#72 = VERTEX_POINT ( 'NONE', #178 ) ;
#73 = DIRECTION ( 'NONE',  ( -1.000000000000000000, 0.000000000000000000, 0.000000000000000000 ) ) ;
#74 = LINE ( 'NONE', #35, #309 ) ;
#75 = CIRCLE ( 'NONE', #19, 10.00000000000000355 ) ;
#76 = STYLED_ITEM ( 'NONE', ( #77 ), #220 ) ;
#77 = PRESENTATION_STYLE_ASSIGNMENT (( #197 ) ) ;
#78 = EDGE_CURVE ( 'NONE', #128, #327, #99, .T. ) ;
#79 = CARTESIAN_POINT ( 'NONE',  ( 0.000000000000000000, 0.000000000000000000, 0.000000000000000000 ) ) ;
#80 = SURFACE_STYLE_FILL_AREA ( #221 ) ;
#81 = DIRECTION ( 'NONE',  ( 0.000000000000000000, 0.000000000000000000, -1.000000000000000000 ) ) ;
#82 = AXIS2_PLACEMENT_3D ( 'NONE', #344, #83, #324 ) ;
#83 = DIRECTION ( 'NONE',  ( 1.000000000000000000, 0.000000000000000000, -1.224646799147353207E-16 ) ) ;
#84 = ORIENTED_EDGE ( 'NONE', *, *, #11, .F. ) ;
#85 = PRESENTATION_STYLE_ASSIGNMENT (( #228 ) ) ;
#86 = UNCERTAINTY_MEASURE_WITH_UNIT (LENGTH_MEASURE( 1.000000000000000082E-05 ), #22, 'distance_accuracy_value', 'NONE');
#87 = SURFACE_STYLE_FILL_AREA ( #300 ) ;
#88 = UNCERTAINTY_MEASURE_WITH_UNIT (LENGTH_MEASURE( 1.000000000000000082E-05 ), #330, 'distance_accuracy_value', 'NONE');
#89 = CARTESIAN_POINT ( 'NONE',  ( 10.00000000000000355, 100.0000000000000000, 1.224646799147353651E-15 ) ) ;
#90 = DIRECTION ( 'NONE',  ( 0.000000000000000000, 0.000000000000000000, -1.000000000000000000 ) ) ;
#91 = DIRECTION ( 'NONE',  ( 0.000000000000000000, 1.000000000000000000, 0.000000000000000000 ) ) ;
#92 = COLOUR_RGB ( '',1.000000000000000000, 0.000000000000000000, 0.000000000000000000 ) ;
#93 = PRESENTATION_STYLE_ASSIGNMENT (( #201 ) ) ;
#94 = CARTESIAN_POINT ( 'NONE',  ( 0.000000000000000000, 40.00000000000000000, 0.000000000000000000 ) ) ;
#95 = PRESENTATION_STYLE_ASSIGNMENT (( #361 ) ) ;
#96 = VERTEX_POINT ( 'NONE', #287 ) ;
#97 =( NAMED_UNIT ( * ) SI_UNIT ( $, .STERADIAN. ) SOLID_ANGLE_UNIT ( ) );
#98 = SURFACE_SIDE_STYLE ('',( #332 ) ) ;
#99 = CIRCLE ( 'NONE', #322, 10.00000000000000178 ) ;
#100 = AXIS2_PLACEMENT_3D ( 'NONE', #205, #307, #90 ) ;
#101 =( LENGTH_UNIT ( ) NAMED_UNIT ( * ) SI_UNIT ( .MILLI., .METRE. ) );
#102 = CIRCLE ( 'NONE', #160, 1.000000000000000888 ) ;
#103 = DIRECTION ( 'NONE',  ( -0.000000000000000000, -1.000000000000000000, -0.000000000000000000 ) ) ;
#104 = PRESENTATION_STYLE_ASSIGNMENT (( #297 ) ) ;
#105 = CARTESIAN_POINT ( 'NONE',  ( 6.071532165918824830E-15, 40.00000000000000000, 0.000000000000000000 ) ) ;
#106 = MANIFOLD_SOLID_BREP ( 'Revolve - Tool Body (Straight Shanked)', #34 ) ;
#107 = CARTESIAN_POINT ( 'NONE',  ( 10.00000000000000178, 40.00000000000000000, 1.224646799147353651E-15 ) ) ;
#108 = CARTESIAN_POINT ( 'NONE',  ( 0.000000000000000000, 40.00000000000000000, -10.00000000000000000 ) ) ;
#109 = PRESENTATION_LAYER_ASSIGNMENT (  '', '', ( #337 ) ) ;
#110 = COLOUR_RGB ( '',0.7921568627450980005, 0.8196078431372548767, 0.9333333333333333481 ) ;
#111 = DIRECTION ( 'NONE',  ( 0.000000000000000000, -1.000000000000000000, -0.000000000000000000 ) ) ;
#112 = UNCERTAINTY_MEASURE_WITH_UNIT (LENGTH_MEASURE( 1.000000000000000082E-05 ), #147, 'distance_accuracy_value', 'NONE');
#113 = TOROIDAL_SURFACE ( 'NONE', #193, 9.000000000000001776, 1.000000000000000444 ) ;
#114 = EDGE_LOOP ( 'NONE', ( #263, #196 ) ) ;
#115 = CARTESIAN_POINT ( 'NONE',  ( 0.000000000000000000, 0.000000000000000000, 0.000000000000000000 ) ) ;
#116 = ORIENTED_EDGE ( 'NONE', *, *, #155, .F. ) ;
#117 = ADVANCED_FACE ( 'NONE', ( #238 ), #259, .T. ) ;
#118 = ORIENTED_EDGE ( 'NONE', *, *, #271, .T. ) ;
#119 = EDGE_CURVE ( 'NONE', #96, #327, #329, .T. ) ;
#120 = CARTESIAN_POINT ( 'NONE',  ( 0.000000000000000000, 1.000000000000000000, -9.000000000000001776 ) ) ;
#121 = DIRECTION ( 'NONE',  ( 0.000000000000000000, 0.000000000000000000, -1.000000000000000000 ) ) ;
#122 = AXIS2_PLACEMENT_3D ( 'NONE', #208, #310, #202 ) ;
#123 = FILL_AREA_STYLE_COLOUR ( '', #320 ) ;
#124 = CARTESIAN_POINT ( 'NONE',  ( 0.000000000000000000, 1.000000000000000000, 0.000000000000000000 ) ) ;
#125 = FILL_AREA_STYLE ('',( #123 ) ) ;
#126 = ORIENTED_EDGE ( 'NONE', *, *, #179, .T. ) ;
#127 = PRODUCT_DEFINITION ( 'UNKNOWN', '', #46, #59 ) ;
#128 = VERTEX_POINT ( 'NONE', #253 ) ;
#129 = CARTESIAN_POINT ( 'NONE',  ( -1.347111479062089982E-15, 100.0000000000000000, 0.000000000000000000 ) ) ;
#130 = COLOUR_RGB ( '',1.000000000000000000, 0.000000000000000000, 0.000000000000000000 ) ;
#131 = FACE_OUTER_BOUND ( 'NONE', #227, .T. ) ;
#132 =( NAMED_UNIT ( * ) SI_UNIT ( $, .STERADIAN. ) SOLID_ANGLE_UNIT ( ) );
#133 = MECHANICAL_DESIGN_GEOMETRIC_PRESENTATION_REPRESENTATION (  '', ( #337 ), #182 ) ;
#134 = FILL_AREA_STYLE_COLOUR ( '', #110 ) ;
#135 = CARTESIAN_POINT ( 'NONE',  ( 0.000000000000000000, 0.000000000000000000, 0.000000000000000000 ) ) ;
#136 = DIRECTION ( 'NONE',  ( 1.236440607496819135E-16, -1.000000000000000000, 0.000000000000000000 ) ) ;
#137 = FILL_AREA_STYLE_COLOUR ( '', #367 ) ;
#138 = CARTESIAN_POINT ( 'NONE',  ( 6.071532165918824830E-15, 40.00000000000000000, 0.000000000000000000 ) ) ;
#139 = ORIENTED_EDGE ( 'NONE', *, *, #248, .T. ) ;
#140 = EDGE_CURVE ( 'NONE', #128, #272, #102, .T. ) ;
#141 = ORIENTED_EDGE ( 'NONE', *, *, #368, .F. ) ;
#142 = AXIS2_PLACEMENT_3D ( 'NONE', #115, #111, #226 ) ;
#143 = FACE_OUTER_BOUND ( 'NONE', #292, .T. ) ;
#144 = AXIS2_PLACEMENT_3D ( 'NONE', #129, #251, #214 ) ;
#145 = PLANE ( 'NONE',  #184 ) ;
#146 = CARTESIAN_POINT ( 'NONE',  ( 0.000000000000000000, 0.000000000000000000, 0.000000000000000000 ) ) ;
#147 =( LENGTH_UNIT ( ) NAMED_UNIT ( * ) SI_UNIT ( .MILLI., .METRE. ) );
#148 =( NAMED_UNIT ( * ) PLANE_ANGLE_UNIT ( ) SI_UNIT ( $, .RADIAN. ) );
#149 = PRESENTATION_LAYER_ASSIGNMENT (  '', '', ( #326 ) ) ;
#150 = CARTESIAN_POINT ( 'NONE',  ( -1.347111479062090180E-15, 100.0000000000000000, 0.000000000000000000 ) ) ;
#151 = FACE_OUTER_BOUND ( 'NONE', #334, .T. ) ;
#152 = ADVANCED_FACE ( 'NONE', ( #302 ), #215, .F. ) ;
#153 = FACE_OUTER_BOUND ( 'NONE', #294, .T. ) ;
#154 = ORIENTED_EDGE ( 'NONE', *, *, #140, .F. ) ;
#155 = EDGE_CURVE ( 'NONE', #72, #210, #74, .T. ) ;
#156 = APPLICATION_PROTOCOL_DEFINITION ( 'draft international standard', 'automotive_design', 1998, #31 ) ;
#157 = FILL_AREA_STYLE ('',( #257 ) ) ;
#158 = EDGE_CURVE ( 'NONE', #72, #281, #339, .T. ) ;
#159 = DIRECTION ( 'NONE',  ( -1.236440607496819135E-16, 1.000000000000000000, -0.000000000000000000 ) ) ;
#160 = AXIS2_PLACEMENT_3D ( 'NONE', #120, #369, #273 ) ;
#161 = DIRECTION ( 'NONE',  ( 0.000000000000000000, 0.000000000000000000, -1.000000000000000000 ) ) ;
#162 = PRESENTATION_STYLE_ASSIGNMENT (( #1 ) ) ;
#163 = ORIENTED_EDGE ( 'NONE', *, *, #11, .T. ) ;
#164 = DIRECTION ( 'NONE',  ( -0.000000000000000000, -1.000000000000000000, -0.000000000000000000 ) ) ;
#165 = SURFACE_SIDE_STYLE ('',( #2 ) ) ;
#166 = VERTEX_POINT ( 'NONE', #89 ) ;
#167 =( NAMED_UNIT ( * ) PLANE_ANGLE_UNIT ( ) SI_UNIT ( $, .RADIAN. ) );
#168 = EDGE_CURVE ( 'NONE', #166, #210, #69, .T. ) ;
#169 = UNCERTAINTY_MEASURE_WITH_UNIT (LENGTH_MEASURE( 1.000000000000000082E-05 ), #101, 'distance_accuracy_value', 'NONE');
#170 = ADVANCED_FACE ( 'NONE', ( #185 ), #313, .F. ) ;
#171 = SURFACE_SIDE_STYLE ('',( #328 ) ) ;
#172 =( LENGTH_UNIT ( ) NAMED_UNIT ( * ) SI_UNIT ( .MILLI., .METRE. ) );
#173 = PRESENTATION_LAYER_ASSIGNMENT (  '', '', ( #223 ) ) ;
#174 = FILL_AREA_STYLE_COLOUR ( '', #352 ) ;
#175 = SURFACE_SIDE_STYLE ('',( #87 ) ) ;
#176 = DIRECTION ( 'NONE',  ( -1.236440607496819135E-16, 1.000000000000000000, -0.000000000000000000 ) ) ;
#177 = CARTESIAN_POINT ( 'NONE',  ( 0.000000000000000000, 40.00000000000000000, 0.000000000000000000 ) ) ;
#178 = CARTESIAN_POINT ( 'NONE',  ( -9.999999999999987566, 40.00000000000000000, 0.000000000000000000 ) ) ;
#179 = EDGE_CURVE ( 'NONE', #327, #262, #252, .T. ) ;
#180 = VERTEX_POINT ( 'NONE', #108 ) ;
#181 = MECHANICAL_DESIGN_GEOMETRIC_PRESENTATION_REPRESENTATION (  '', ( #212 ), #264 ) ;
#182 =( GEOMETRIC_REPRESENTATION_CONTEXT ( 3 ) GLOBAL_UNCERTAINTY_ASSIGNED_CONTEXT ( ( #224 ) ) GLOBAL_UNIT_ASSIGNED_CONTEXT ( ( #360, #148, #318 ) ) REPRESENTATION_CONTEXT ( 'NONE', 'WORKASPACE' ) );
#183 = STYLED_ITEM ( 'NONE', ( #278 ), #24 ) ;
#184 = AXIS2_PLACEMENT_3D ( 'NONE', #177, #91, #9 ) ;
#185 = FACE_OUTER_BOUND ( 'NONE', #28, .T. ) ;
#186 = DIRECTION ( 'NONE',  ( 0.000000000000000000, 0.000000000000000000, -1.000000000000000000 ) ) ;
#187 = CIRCLE ( 'NONE', #42, 9.000000000000001776 ) ;
#188 = PRESENTATION_LAYER_ASSIGNMENT (  '', '', ( #76 ) ) ;
#189 =( NAMED_UNIT ( * ) SI_UNIT ( $, .STERADIAN. ) SOLID_ANGLE_UNIT ( ) );
#190 = EDGE_CURVE ( 'NONE', #281, #72, #301, .T. ) ;
#191 = SURFACE_SIDE_STYLE ('',( #80 ) ) ;
#192 =( GEOMETRIC_REPRESENTATION_CONTEXT ( 3 ) GLOBAL_UNCERTAINTY_ASSIGNED_CONTEXT ( ( #112 ) ) GLOBAL_UNIT_ASSIGNED_CONTEXT ( ( #147, #268, #240 ) ) REPRESENTATION_CONTEXT ( 'NONE', 'WORKASPACE' ) );
#193 = AXIS2_PLACEMENT_3D ( 'NONE', #365, #242, #340 ) ;
#194 = AXIS2_PLACEMENT_3D ( 'NONE', #260, #136, #48 ) ;
#195 = PLANE ( 'NONE',  #142 ) ;
#196 = ORIENTED_EDGE ( 'NONE', *, *, #190, .F. ) ;
#197 = SURFACE_STYLE_USAGE ( .BOTH. , #165 ) ;
#198 = ADVANCED_FACE ( 'NONE', ( #347 ), #195, .T. ) ;
#199 = FILL_AREA_STYLE ('',( #350 ) ) ;
#200 = CARTESIAN_POINT ( 'NONE',  ( 9.999999999999996447, 100.0000000000000000, 1.224646799147353059E-15 ) ) ;
#201 = SURFACE_STYLE_USAGE ( .BOTH. , #37 ) ;
#202 = DIRECTION ( 'NONE',  ( 0.000000000000000000, 0.000000000000000000, -1.000000000000000000 ) ) ;
#203 = EDGE_LOOP ( 'NONE', ( #206, #225, #27, #348 ) ) ;
#204 =( LENGTH_UNIT ( ) NAMED_UNIT ( * ) SI_UNIT ( .MILLI., .METRE. ) );
#205 = CARTESIAN_POINT ( 'NONE',  ( 0.000000000000000000, 1.000000000000000000, 0.000000000000000000 ) ) ;
#206 = ORIENTED_EDGE ( 'NONE', *, *, #248, .F. ) ;
#207 = SURFACE_STYLE_USAGE ( .BOTH. , #98 ) ;
#208 = CARTESIAN_POINT ( 'NONE',  ( 0.000000000000000000, 1.000000000000000000, 0.000000000000000000 ) ) ;
#209 = DIRECTION ( 'NONE',  ( 0.000000000000000000, 0.000000000000000000, 1.000000000000000000 ) ) ;
#210 = VERTEX_POINT ( 'NONE', #291 ) ;
#211 = CIRCLE ( 'NONE', #288, 10.00000000000000000 ) ;
#212 = STYLED_ITEM ( 'NONE', ( #162 ), #198 ) ;
#213 = SURFACE_STYLE_FILL_AREA ( #125 ) ;
#214 = DIRECTION ( 'NONE',  ( -1.000000000000000000, 0.000000000000000000, 0.000000000000000000 ) ) ;
#215 = PLANE ( 'NONE',  #58 ) ;
#216 =( NAMED_UNIT ( * ) SI_UNIT ( $, .STERADIAN. ) SOLID_ANGLE_UNIT ( ) );
#217 = AXIS2_PLACEMENT_3D ( 'NONE', #54, #164, #186 ) ;
#218 = DIRECTION ( 'NONE',  ( -1.000000000000000000, 0.000000000000000000, 0.000000000000000000 ) ) ;
#219 =( GEOMETRIC_REPRESENTATION_CONTEXT ( 3 ) GLOBAL_UNCERTAINTY_ASSIGNED_CONTEXT ( ( #345 ) ) GLOBAL_UNIT_ASSIGNED_CONTEXT ( ( #317, #167, #189 ) ) REPRESENTATION_CONTEXT ( 'NONE', 'WORKASPACE' ) );
#220 = ADVANCED_FACE ( 'NONE', ( #342 ), #53, .T. ) ;
#221 = FILL_AREA_STYLE ('',( #134 ) ) ;
#222 = FILL_AREA_STYLE ('',( #254 ) ) ;
#223 = STYLED_ITEM ( 'NONE', ( #95 ), #363 ) ;
#224 = UNCERTAINTY_MEASURE_WITH_UNIT (LENGTH_MEASURE( 1.000000000000000082E-05 ), #360, 'distance_accuracy_value', 'NONE');
#225 = ORIENTED_EDGE ( 'NONE', *, *, #190, .T. ) ;
#226 = DIRECTION ( 'NONE',  ( 0.000000000000000000, 0.000000000000000000, -1.000000000000000000 ) ) ;
#227 = EDGE_LOOP ( 'NONE', ( #311, #362, #299, #84 ) ) ;
#228 = SURFACE_STYLE_USAGE ( .BOTH. , #175 ) ;
#229 = MANIFOLD_SOLID_BREP ( 'Revolve - Cutting Edge', #276 ) ;
#230 = ORIENTED_EDGE ( 'NONE', *, *, #119, .T. ) ;
#231 = FILL_AREA_STYLE_COLOUR ( '', #92 ) ;
#232 = CYLINDRICAL_SURFACE ( 'NONE', #63, 10.00000000000000178 ) ;
#233 = MECHANICAL_DESIGN_GEOMETRIC_PRESENTATION_REPRESENTATION (  '', ( #183 ), #192 ) ;
#234 = CIRCLE ( 'NONE', #122, 10.00000000000000178 ) ;
#235 = PRODUCT_DEFINITION_SHAPE ( 'NONE', 'NONE',  #127 ) ;
#236 = ORIENTED_EDGE ( 'NONE', *, *, #271, .F. ) ;
#237 = AXIS2_PLACEMENT_3D ( 'NONE', #79, #293, #289 ) ;
#238 = FACE_OUTER_BOUND ( 'NONE', #203, .T. ) ;
#239 = DIRECTION ( 'NONE',  ( -1.000000000000000000, 0.000000000000000000, 0.000000000000000000 ) ) ;
#240 =( NAMED_UNIT ( * ) SI_UNIT ( $, .STERADIAN. ) SOLID_ANGLE_UNIT ( ) );
#241 = DIRECTION ( 'NONE',  ( -1.236440607496819135E-16, 1.000000000000000000, -0.000000000000000000 ) ) ;
#242 = DIRECTION ( 'NONE',  ( -0.000000000000000000, -1.000000000000000000, -0.000000000000000000 ) ) ;
#243 = MECHANICAL_DESIGN_GEOMETRIC_PRESENTATION_REPRESENTATION (  '', ( #41 ), #315 ) ;
#244 = LINE ( 'NONE', #359, #266 ) ;
#245 =( GEOMETRIC_REPRESENTATION_CONTEXT ( 3 ) GLOBAL_UNCERTAINTY_ASSIGNED_CONTEXT ( ( #16 ) ) GLOBAL_UNIT_ASSIGNED_CONTEXT ( ( #172, #285, #269 ) ) REPRESENTATION_CONTEXT ( 'NONE', 'WORKASPACE' ) );
#246 = ORIENTED_EDGE ( 'NONE', *, *, #56, .T. ) ;
#247 = UNCERTAINTY_MEASURE_WITH_UNIT (LENGTH_MEASURE( 1.000000000000000082E-05 ), #204, 'distance_accuracy_value', 'NONE');
#248 = EDGE_CURVE ( 'NONE', #281, #166, #25, .T. ) ;
#249 = DIRECTION ( 'NONE',  ( -1.236440607496819135E-16, 1.000000000000000000, -0.000000000000000000 ) ) ;
#250 = AXIS2_PLACEMENT_3D ( 'NONE', #146, #13, #17 ) ;
#251 = DIRECTION ( 'NONE',  ( -1.236440607496819135E-16, 1.000000000000000000, -0.000000000000000000 ) ) ;
#252 = CIRCLE ( 'NONE', #82, 1.000000000000000888 ) ;
#253 = CARTESIAN_POINT ( 'NONE',  ( 0.000000000000000000, 1.000000000000000000, -10.00000000000000178 ) ) ;
#254 = FILL_AREA_STYLE_COLOUR ( '', #130 ) ;
#255 = ADVANCED_FACE ( 'NONE', ( #143 ), #232, .T. ) ;
#256 = CIRCLE ( 'NONE', #250, 9.000000000000001776 ) ;
#257 = FILL_AREA_STYLE_COLOUR ( '', #290 ) ;
#258 = PRESENTATION_LAYER_ASSIGNMENT (  '', '', ( #49 ) ) ;
#259 = CYLINDRICAL_SURFACE ( 'NONE', #335, 9.999999999999998224 ) ;
#260 = CARTESIAN_POINT ( 'NONE',  ( 10.00000000000000178, 100.0000000000000000, 0.000000000000000000 ) ) ;
#261 = SURFACE_SIDE_STYLE ('',( #55 ) ) ;
#262 = VERTEX_POINT ( 'NONE', #323 ) ;
#263 = ORIENTED_EDGE ( 'NONE', *, *, #158, .F. ) ;
#264 =( GEOMETRIC_REPRESENTATION_CONTEXT ( 3 ) GLOBAL_UNCERTAINTY_ASSIGNED_CONTEXT ( ( #86 ) ) GLOBAL_UNIT_ASSIGNED_CONTEXT ( ( #22, #21, #132 ) ) REPRESENTATION_CONTEXT ( 'NONE', 'WORKASPACE' ) );
#265 = CIRCLE ( 'NONE', #217, 10.00000000000000000 ) ;
#266 = VECTOR ( 'NONE', #65, 1000.000000000000000 ) ;
#267 = CARTESIAN_POINT ( 'NONE',  ( 1.224646799147353256E-15, 1.000000000000000000, 10.00000000000000178 ) ) ;
#268 =( NAMED_UNIT ( * ) PLANE_ANGLE_UNIT ( ) SI_UNIT ( $, .RADIAN. ) );
#269 =( NAMED_UNIT ( * ) SI_UNIT ( $, .STERADIAN. ) SOLID_ANGLE_UNIT ( ) );
#270 =( NAMED_UNIT ( * ) PLANE_ANGLE_UNIT ( ) SI_UNIT ( $, .RADIAN. ) );
#271 = EDGE_CURVE ( 'NONE', #96, #180, #265, .T. ) ;
#272 = VERTEX_POINT ( 'NONE', #316 ) ;
#273 = DIRECTION ( 'NONE',  ( 0.000000000000000000, 0.000000000000000000, 1.000000000000000000 ) ) ;
#274 = AXIS2_PLACEMENT_3D ( 'NONE', #150, #305, #277 ) ;
#275 = ORIENTED_EDGE ( 'NONE', *, *, #325, .F. ) ;
#276 = CLOSED_SHELL ( 'NONE', ( #220, #363, #198, #279, #255, #24 ) ) ;
#277 = DIRECTION ( 'NONE',  ( -1.000000000000000000, 0.000000000000000000, 0.000000000000000000 ) ) ;
#278 = PRESENTATION_STYLE_ASSIGNMENT (( #207 ) ) ;
#279 = ADVANCED_FACE ( 'NONE', ( #131 ), #57, .T. ) ;
#280 = SHAPE_DEFINITION_REPRESENTATION ( #235, #50 ) ;
#281 = VERTEX_POINT ( 'NONE', #107 ) ;
#282 =( NAMED_UNIT ( * ) SI_UNIT ( $, .STERADIAN. ) SOLID_ANGLE_UNIT ( ) );
#283 = AXIS2_PLACEMENT_3D ( 'NONE', #312, #209, #341 ) ;
#284 = CARTESIAN_POINT ( 'NONE',  ( 1.224646799147353454E-15, 0.000000000000000000, 10.00000000000000178 ) ) ;
#285 =( NAMED_UNIT ( * ) PLANE_ANGLE_UNIT ( ) SI_UNIT ( $, .RADIAN. ) );
#286 = EDGE_CURVE ( 'NONE', #327, #128, #234, .T. ) ;
#287 = CARTESIAN_POINT ( 'NONE',  ( 1.224646799147353256E-15, 40.00000000000000000, 10.00000000000000000 ) ) ;
#288 = AXIS2_PLACEMENT_3D ( 'NONE', #94, #38, #121 ) ;
#289 = DIRECTION ( 'NONE',  ( 0.000000000000000000, 0.000000000000000000, -1.000000000000000000 ) ) ;
#290 = COLOUR_RGB ( '',1.000000000000000000, 0.000000000000000000, 0.000000000000000000 ) ;
#291 = CARTESIAN_POINT ( 'NONE',  ( -10.00000000000000533, 100.0000000000000000, 0.000000000000000000 ) ) ;
#292 = EDGE_LOOP ( 'NONE', ( #10, #118, #246, #346 ) ) ;
#293 = DIRECTION ( 'NONE',  ( -0.000000000000000000, -1.000000000000000000, -0.000000000000000000 ) ) ;
#294 = EDGE_LOOP ( 'NONE', ( #45, #139, #141, #116 ) ) ;
#295 =( NAMED_UNIT ( * ) SI_UNIT ( $, .STERADIAN. ) SOLID_ANGLE_UNIT ( ) );
#296 = ADVANCED_FACE ( 'NONE', ( #153 ), #66, .T. ) ;
#297 = SURFACE_STYLE_USAGE ( .BOTH. , #171 ) ;
#298 = DIRECTION ( 'NONE',  ( -1.000000000000000000, -1.236440607496819135E-16, 0.000000000000000000 ) ) ;
#299 = ORIENTED_EDGE ( 'NONE', *, *, #140, .T. ) ;
#300 = FILL_AREA_STYLE ('',( #231 ) ) ;
#301 = CIRCLE ( 'NONE', #32, 9.999999999999994671 ) ;
#302 = FACE_OUTER_BOUND ( 'NONE', #114, .T. ) ;
#303 = ORIENTED_EDGE ( 'NONE', *, *, #47, .T. ) ;
#304 = CARTESIAN_POINT ( 'NONE',  ( -1.347111479062090180E-15, 100.0000000000000000, 0.000000000000000000 ) ) ;
#305 = DIRECTION ( 'NONE',  ( -1.236440607496819135E-16, 1.000000000000000000, -0.000000000000000000 ) ) ;
#306 = ORIENTED_EDGE ( 'NONE', *, *, #78, .F. ) ;
#307 = DIRECTION ( 'NONE',  ( -0.000000000000000000, -1.000000000000000000, -0.000000000000000000 ) ) ;
#308 = ORIENTED_EDGE ( 'NONE', *, *, #168, .T. ) ;
#309 = VECTOR ( 'NONE', #241, 1000.000000000000000 ) ;
#310 = DIRECTION ( 'NONE',  ( -0.000000000000000000, -1.000000000000000000, -0.000000000000000000 ) ) ;
#311 = ORIENTED_EDGE ( 'NONE', *, *, #179, .F. ) ;
#312 = CARTESIAN_POINT ( 'NONE',  ( 0.000000000000000000, 0.000000000000000000, 0.000000000000000000 ) ) ;
#313 = PLANE ( 'NONE',  #194 ) ;
#314 = DIRECTION ( 'NONE',  ( -0.000000000000000000, -1.000000000000000000, -0.000000000000000000 ) ) ;
#315 =( GEOMETRIC_REPRESENTATION_CONTEXT ( 3 ) GLOBAL_UNCERTAINTY_ASSIGNED_CONTEXT ( ( #68 ) ) GLOBAL_UNIT_ASSIGNED_CONTEXT ( ( #29, #4, #282 ) ) REPRESENTATION_CONTEXT ( 'NONE', 'WORKASPACE' ) );
#316 = CARTESIAN_POINT ( 'NONE',  ( 0.000000000000000000, 0.000000000000000000, -9.000000000000001776 ) ) ;
#317 =( LENGTH_UNIT ( ) NAMED_UNIT ( * ) SI_UNIT ( .MILLI., .METRE. ) );
#318 =( NAMED_UNIT ( * ) SI_UNIT ( $, .STERADIAN. ) SOLID_ANGLE_UNIT ( ) );
#319 = AXIS2_PLACEMENT_3D ( 'NONE', #105, #8, #357 ) ;
#320 = COLOUR_RGB ( '',1.000000000000000000, 0.000000000000000000, 0.000000000000000000 ) ;
#321 = SURFACE_STYLE_USAGE ( .BOTH. , #191 ) ;
#322 = AXIS2_PLACEMENT_3D ( 'NONE', #124, #314, #161 ) ;
#323 = CARTESIAN_POINT ( 'NONE',  ( 1.163414459189985682E-15, 0.000000000000000000, 9.000000000000001776 ) ) ;
#324 = DIRECTION ( 'NONE',  ( -1.224646799147353454E-16, 0.000000000000000000, -1.000000000000000000 ) ) ;
#325 = EDGE_CURVE ( 'NONE', #272, #262, #256, .T. ) ;
#326 = STYLED_ITEM ( 'NONE', ( #26 ), #229 ) ;
#327 = VERTEX_POINT ( 'NONE', #267 ) ;
#328 = SURFACE_STYLE_FILL_AREA ( #199 ) ;
#329 = LINE ( 'NONE', #284, #23 ) ;
#330 =( LENGTH_UNIT ( ) NAMED_UNIT ( * ) SI_UNIT ( .MILLI., .METRE. ) );
#331 = CARTESIAN_POINT ( 'NONE',  ( 0.000000000000000000, 0.000000000000000000, 0.000000000000000000 ) ) ;
#332 = SURFACE_STYLE_FILL_AREA ( #364 ) ;
#333 =( NAMED_UNIT ( * ) PLANE_ANGLE_UNIT ( ) SI_UNIT ( $, .RADIAN. ) );
#334 = EDGE_LOOP ( 'NONE', ( #36, #236 ) ) ;
#335 = AXIS2_PLACEMENT_3D ( 'NONE', #304, #176, #239 ) ;
#336 = FACE_OUTER_BOUND ( 'NONE', #338, .T. ) ;
#337 = STYLED_ITEM ( 'NONE', ( #104 ), #255 ) ;
#338 = EDGE_LOOP ( 'NONE', ( #64, #126, #275, #154 ) ) ;
#339 = CIRCLE ( 'NONE', #319, 9.999999999999994671 ) ;
#340 = DIRECTION ( 'NONE',  ( 0.000000000000000000, 0.000000000000000000, -1.000000000000000000 ) ) ;
#341 = DIRECTION ( 'NONE',  ( 1.000000000000000000, 0.000000000000000000, 0.000000000000000000 ) ) ;
#342 = FACE_OUTER_BOUND ( 'NONE', #67, .T. ) ;
#343 = DIRECTION ( 'NONE',  ( -0.000000000000000000, -1.000000000000000000, -0.000000000000000000 ) ) ;
#344 = CARTESIAN_POINT ( 'NONE',  ( 1.102182119232617911E-15, 1.000000000000000000, 9.000000000000001776 ) ) ;
#345 = UNCERTAINTY_MEASURE_WITH_UNIT (LENGTH_MEASURE( 1.000000000000000082E-05 ), #317, 'distance_accuracy_value', 'NONE');
#346 = ORIENTED_EDGE ( 'NONE', *, *, #286, .F. ) ;
#347 = FACE_OUTER_BOUND ( 'NONE', #62, .T. ) ;
#348 = ORIENTED_EDGE ( 'NONE', *, *, #168, .F. ) ;
#349 = PRESENTATION_LAYER_ASSIGNMENT (  '', '', ( #212 ) ) ;
#350 = FILL_AREA_STYLE_COLOUR ( '', #52 ) ;
#351 = PRODUCT ( '59761', '59761', '', ( #14 ) ) ;
#352 = COLOUR_RGB ( '',1.000000000000000000, 0.000000000000000000, 0.000000000000000000 ) ;
#353 =( GEOMETRIC_REPRESENTATION_CONTEXT ( 3 ) GLOBAL_UNCERTAINTY_ASSIGNED_CONTEXT ( ( #247 ) ) GLOBAL_UNIT_ASSIGNED_CONTEXT ( ( #204, #33, #295 ) ) REPRESENTATION_CONTEXT ( 'NONE', 'WORKASPACE' ) );
#354 = ORIENTED_EDGE ( 'NONE', *, *, #325, .T. ) ;
#355 = SURFACE_STYLE_FILL_AREA ( #3 ) ;
#356 = MECHANICAL_DESIGN_GEOMETRIC_PRESENTATION_REPRESENTATION (  '', ( #223 ), #366 ) ;
#357 = DIRECTION ( 'NONE',  ( -1.000000000000000000, 0.000000000000000000, 0.000000000000000000 ) ) ;
#358 = CARTESIAN_POINT ( 'NONE',  ( -1.347111479062089982E-15, 100.0000000000000000, 0.000000000000000000 ) ) ;
#359 = CARTESIAN_POINT ( 'NONE',  ( 0.000000000000000000, 0.000000000000000000, -10.00000000000000178 ) ) ;
#360 =( LENGTH_UNIT ( ) NAMED_UNIT ( * ) SI_UNIT ( .MILLI., .METRE. ) );
#361 = SURFACE_STYLE_USAGE ( .BOTH. , #44 ) ;
#362 = ORIENTED_EDGE ( 'NONE', *, *, #286, .T. ) ;
#363 = ADVANCED_FACE ( 'NONE', ( #336 ), #113, .T. ) ;
#364 = FILL_AREA_STYLE ('',( #174 ) ) ;
#365 = CARTESIAN_POINT ( 'NONE',  ( 0.000000000000000000, 1.000000000000000000, 0.000000000000000000 ) ) ;
#366 =( GEOMETRIC_REPRESENTATION_CONTEXT ( 3 ) GLOBAL_UNCERTAINTY_ASSIGNED_CONTEXT ( ( #169 ) ) GLOBAL_UNIT_ASSIGNED_CONTEXT ( ( #101, #333, #97 ) ) REPRESENTATION_CONTEXT ( 'NONE', 'WORKASPACE' ) );
#367 = COLOUR_RGB ( '',0.7921568627450980005, 0.8196078431372548767, 0.9333333333333333481 ) ;
#368 = EDGE_CURVE ( 'NONE', #210, #166, #75, .T. ) ;
#369 = DIRECTION ( 'NONE',  ( -1.000000000000000000, 0.000000000000000000, 0.000000000000000000 ) ) ;
#370 = MECHANICAL_DESIGN_GEOMETRIC_PRESENTATION_REPRESENTATION (  '', ( #326 ), #353 ) ;
ENDSEC;
END-ISO-10303-21;
