ISO-10303-21;
HEADER;
FILE_DESCRIPTION (( 'STEP AP214' ),
    '1' );
FILE_NAME ('59907.STEP',
    '2023-06-22T23:55:09',
    ( '' ),
    ( '' ),
    'SwSTEP 2.0',
    'SolidWorks 2023',
    '' );
FILE_SCHEMA (( 'AUTOMOTIVE_DESIGN' ));
ENDSEC;

DATA;
#1 = CYLINDRICAL_SURFACE ( 'NONE', #196, 0.1875000000000000833 ) ;
#2 =( NAMED_UNIT ( * ) SI_UNIT ( $, .STERADIAN. ) SOLID_ANGLE_UNIT ( ) );
#3 = STYLED_ITEM ( 'NONE', ( #178 ), #204 ) ;
#4 =( NAMED_UNIT ( * ) PLANE_ANGLE_UNIT ( ) SI_UNIT ( $, .RADIAN. ) );
#5 = FILL_AREA_STYLE ('',( #48 ) ) ;
#6 = PLANE ( 'NONE',  #69 ) ;
#7 = SURFACE_SIDE_STYLE ('',( #229 ) ) ;
#8 = UNCERTAINTY_MEASURE_WITH_UNIT (LENGTH_MEASURE( 1.000000000000000082E-05 ), #134, 'distance_accuracy_value', 'NONE');
#9 = PRESENTATION_LAYER_ASSIGNMENT (  '', '', ( #282 ) ) ;
#10 = ORIENTED_EDGE ( 'NONE', *, *, #215, .T. ) ;
#11 = AXIS2_PLACEMENT_3D ( 'NONE', #171, #150, #197 ) ;
#12 = ORIENTED_EDGE ( 'NONE', *, *, #284, .F. ) ;
#13 = DIRECTION ( 'NONE',  ( -0.000000000000000000, -1.000000000000000000, -0.000000000000000000 ) ) ;
#14 = VERTEX_POINT ( 'NONE', #174 ) ;
#15 = FACE_OUTER_BOUND ( 'NONE', #36, .T. ) ;
#16 = MANIFOLD_SOLID_BREP ( 'Revolve - Cutting Edge', #283 ) ;
#17 = CIRCLE ( 'NONE', #125, 0.1875000000000000278 ) ;
#18 = PRODUCT_DEFINITION_FORMATION_WITH_SPECIFIED_SOURCE ( 'ANY', '', #241, .NOT_KNOWN. ) ;
#19 =( LENGTH_UNIT ( ) NAMED_UNIT ( * ) SI_UNIT ( $, .METRE. ) );
#20 = CARTESIAN_POINT ( 'NONE',  ( -0.1875000000000000278, 1.250000000000000000, 0.000000000000000000 ) ) ;
#21 = SURFACE_STYLE_USAGE ( .BOTH. , #84 ) ;
#22 = ADVANCED_BREP_SHAPE_REPRESENTATION ( '59907', ( #16, #227, #11 ), #221 ) ;
#23 = CARTESIAN_POINT ( 'NONE',  ( 4.591101375495486296E-34, 1.250000000000000000, 0.000000000000000000 ) ) ;
#24 = DIRECTION ( 'NONE',  ( 0.000000000000000000, 0.000000000000000000, -1.000000000000000000 ) ) ;
#25 = CARTESIAN_POINT ( 'NONE',  ( 0.1875000000000000278, 1.250000000000000000, 2.296212748401288650E-17 ) ) ;
#26 = MECHANICAL_DESIGN_GEOMETRIC_PRESENTATION_REPRESENTATION (  '', ( #35 ), #153 ) ;
#27 = EDGE_CURVE ( 'NONE', #49, #56, #17, .T. ) ;
#28 = CARTESIAN_POINT ( 'NONE',  ( -1.224646799147353700E-16, 3.000000000000000444, 0.000000000000000000 ) ) ;
#29 = CARTESIAN_POINT ( 'NONE',  ( 0.000000000000000000, 0.000000000000000000, 0.000000000000000000 ) ) ;
#30 =( NAMED_UNIT ( * ) SI_UNIT ( $, .STERADIAN. ) SOLID_ANGLE_UNIT ( ) );
#31 = MECHANICAL_DESIGN_GEOMETRIC_PRESENTATION_REPRESENTATION (  '', ( #3 ), #77 ) ;
#32 = EDGE_LOOP ( 'NONE', ( #133, #163 ) ) ;
#33 = SURFACE_STYLE_USAGE ( .BOTH. , #75 ) ;
#34 = PRESENTATION_STYLE_ASSIGNMENT (( #254 ) ) ;
#35 = STYLED_ITEM ( 'NONE', ( #98 ), #16 ) ;
#36 = EDGE_LOOP ( 'NONE', ( #300, #238, #60, #53 ) ) ;
#37 = EDGE_CURVE ( 'NONE', #184, #70, #89, .T. ) ;
#38 =( GEOMETRIC_REPRESENTATION_CONTEXT ( 3 ) GLOBAL_UNCERTAINTY_ASSIGNED_CONTEXT ( ( #217 ) ) GLOBAL_UNIT_ASSIGNED_CONTEXT ( ( #199, #298, #105 ) ) REPRESENTATION_CONTEXT ( 'NONE', 'WORKASPACE' ) );
#39 = CARTESIAN_POINT ( 'NONE',  ( 0.1874999999999999445, 3.000000000000000444, 2.296212748401288342E-17 ) ) ;
#40 = DIRECTION ( 'NONE',  ( -0.000000000000000000, -1.000000000000000000, -0.000000000000000000 ) ) ;
#41 = FILL_AREA_STYLE ('',( #97 ) ) ;
#42 = DIRECTION ( 'NONE',  ( 0.000000000000000000, 0.000000000000000000, -1.000000000000000000 ) ) ;
#43 = VECTOR ( 'NONE', #57, 39.37007874015748143 ) ;
#44 = DIRECTION ( 'NONE',  ( -6.997981709413449187E-17, 1.000000000000000000, -0.000000000000000000 ) ) ;
#45 = APPLICATION_CONTEXT ( 'automotive_design' ) ;
#46 = DIRECTION ( 'NONE',  ( -0.000000000000000000, -1.000000000000000000, -0.000000000000000000 ) ) ;
#47 = CARTESIAN_POINT ( 'NONE',  ( -1.224646799147353700E-16, 3.000000000000000444, 0.000000000000000000 ) ) ;
#48 = FILL_AREA_STYLE_COLOUR ( '', #249 ) ;
#49 = VERTEX_POINT ( 'NONE', #20 ) ;
#50 = EDGE_CURVE ( 'NONE', #49, #275, #121, .T. ) ;
#51 = PRESENTATION_LAYER_ASSIGNMENT (  '', '', ( #35 ) ) ;
#52 = ORIENTED_EDGE ( 'NONE', *, *, #68, .F. ) ;
#53 = ORIENTED_EDGE ( 'NONE', *, *, #142, .F. ) ;
#54 = EDGE_LOOP ( 'NONE', ( #73, #103 ) ) ;
#55 = CARTESIAN_POINT ( 'NONE',  ( 0.000000000000000000, 1.250000000000000000, -0.1875000000000000278 ) ) ;
#56 = VERTEX_POINT ( 'NONE', #25 ) ;
#57 = DIRECTION ( 'NONE',  ( -6.997981709413449187E-17, 1.000000000000000000, -0.000000000000000000 ) ) ;
#58 = ADVANCED_FACE ( 'NONE', ( #271 ), #114, .F. ) ;
#59 = AXIS2_PLACEMENT_3D ( 'NONE', #29, #126, #96 ) ;
#60 = ORIENTED_EDGE ( 'NONE', *, *, #50, .T. ) ;
#61 = APPLICATION_PROTOCOL_DEFINITION ( 'draft international standard', 'automotive_design', 1998, #213 ) ;
#62 = LENGTH_MEASURE_WITH_UNIT ( LENGTH_MEASURE( 0.02539999999999999897 ), #81 );
#63 = FACE_OUTER_BOUND ( 'NONE', #304, .T. ) ;
#64 = CARTESIAN_POINT ( 'NONE',  ( 0.1875000000000000278, 3.000000000000000444, 0.000000000000000000 ) ) ;
#65 =( NAMED_UNIT ( * ) SI_UNIT ( $, .STERADIAN. ) SOLID_ANGLE_UNIT ( ) );
#66 = DIMENSIONAL_EXPONENTS ( 1.000000000000000000, 0.000000000000000000, 0.000000000000000000, 0.000000000000000000, 0.000000000000000000, 0.000000000000000000, 0.000000000000000000 ) ;
#67 = SURFACE_STYLE_FILL_AREA ( #118 ) ;
#68 = EDGE_CURVE ( 'NONE', #257, #184, #120, .T. ) ;
#69 = AXIS2_PLACEMENT_3D ( 'NONE', #209, #205, #251 ) ;
#70 = VERTEX_POINT ( 'NONE', #149 ) ;
#71 = UNCERTAINTY_MEASURE_WITH_UNIT (LENGTH_MEASURE( 1.000000000000000082E-05 ), #94, 'distance_accuracy_value', 'NONE');
#72 =( LENGTH_UNIT ( ) NAMED_UNIT ( * ) SI_UNIT ( $, .METRE. ) );
#73 = ORIENTED_EDGE ( 'NONE', *, *, #37, .T. ) ;
#74 = EDGE_CURVE ( 'NONE', #252, #257, #189, .T. ) ;
#75 = SURFACE_SIDE_STYLE ('',( #203 ) ) ;
#76 = LENGTH_MEASURE_WITH_UNIT ( LENGTH_MEASURE( 0.02539999999999999897 ), #72 );
#77 =( GEOMETRIC_REPRESENTATION_CONTEXT ( 3 ) GLOBAL_UNCERTAINTY_ASSIGNED_CONTEXT ( ( #266 ) ) GLOBAL_UNIT_ASSIGNED_CONTEXT ( ( #193, #4, #30 ) ) REPRESENTATION_CONTEXT ( 'NONE', 'WORKASPACE' ) );
#78 = MECHANICAL_DESIGN_GEOMETRIC_PRESENTATION_REPRESENTATION (  '', ( #282 ), #119 ) ;
#79 =( CONVERSION_BASED_UNIT ( 'INCH', #233 ) LENGTH_UNIT ( ) NAMED_UNIT ( #247 ) );
#80 = PRESENTATION_STYLE_ASSIGNMENT (( #21 ) ) ;
#81 =( LENGTH_UNIT ( ) NAMED_UNIT ( * ) SI_UNIT ( $, .METRE. ) );
#82 =( NAMED_UNIT ( * ) PLANE_ANGLE_UNIT ( ) SI_UNIT ( $, .RADIAN. ) );
#83 = DIRECTION ( 'NONE',  ( -6.997981709413449187E-17, 1.000000000000000000, -0.000000000000000000 ) ) ;
#84 = SURFACE_SIDE_STYLE ('',( #256 ) ) ;
#85 = CARTESIAN_POINT ( 'NONE',  ( -1.224646799147353700E-16, 3.000000000000000444, 0.000000000000000000 ) ) ;
#86 = DIRECTION ( 'NONE',  ( -6.997981709413449187E-17, 1.000000000000000000, -0.000000000000000000 ) ) ;
#87 = PRESENTATION_STYLE_ASSIGNMENT (( #222 ) ) ;
#88 = PLANE ( 'NONE',  #225 ) ;
#89 = CIRCLE ( 'NONE', #220, 0.1875000000000000278 ) ;
#90 = LENGTH_MEASURE_WITH_UNIT ( LENGTH_MEASURE( 0.02539999999999999897 ), #192 );
#91 = FACE_OUTER_BOUND ( 'NONE', #301, .T. ) ;
#92 = DIRECTION ( 'NONE',  ( -0.000000000000000000, -1.000000000000000000, -0.000000000000000000 ) ) ;
#93 = FILL_AREA_STYLE_COLOUR ( '', #160 ) ;
#94 =( CONVERSION_BASED_UNIT ( 'INCH', #242 ) LENGTH_UNIT ( ) NAMED_UNIT ( #66 ) );
#95 = COLOUR_RGB ( '',1.000000000000000000, 0.000000000000000000, 0.000000000000000000 ) ;
#96 = DIRECTION ( 'NONE',  ( 0.000000000000000000, 0.000000000000000000, -1.000000000000000000 ) ) ;
#97 = FILL_AREA_STYLE_COLOUR ( '', #248 ) ;
#98 = PRESENTATION_STYLE_ASSIGNMENT (( #157 ) ) ;
#99 = AXIS2_PLACEMENT_3D ( 'NONE', #155, #161, #180 ) ;
#100 = SURFACE_STYLE_USAGE ( .BOTH. , #214 ) ;
#101 = ORIENTED_EDGE ( 'NONE', *, *, #230, .T. ) ;
#102 = UNCERTAINTY_MEASURE_WITH_UNIT (LENGTH_MEASURE( 1.000000000000000082E-05 ), #202, 'distance_accuracy_value', 'NONE');
#103 = ORIENTED_EDGE ( 'NONE', *, *, #284, .T. ) ;
#104 = EDGE_LOOP ( 'NONE', ( #276, #280 ) ) ;
#105 =( NAMED_UNIT ( * ) SI_UNIT ( $, .STERADIAN. ) SOLID_ANGLE_UNIT ( ) );
#106 = STYLED_ITEM ( 'NONE', ( #173 ), #212 ) ;
#107 = CIRCLE ( 'NONE', #309, 0.1875000000000000278 ) ;
#108 =( NAMED_UNIT ( * ) SI_UNIT ( $, .STERADIAN. ) SOLID_ANGLE_UNIT ( ) );
#109 = LINE ( 'NONE', #39, #288 ) ;
#110 = DIRECTION ( 'NONE',  ( -1.000000000000000000, 0.000000000000000000, 0.000000000000000000 ) ) ;
#111 = EDGE_CURVE ( 'NONE', #56, #49, #183, .T. ) ;
#112 = COLOUR_RGB ( '',0.7921568627450980005, 0.8196078431372548767, 0.9333333333333333481 ) ;
#113 = MECHANICAL_DESIGN_GEOMETRIC_PRESENTATION_REPRESENTATION (  '', ( #140 ), #166 ) ;
#114 = PLANE ( 'NONE',  #117 ) ;
#115 = DIRECTION ( 'NONE',  ( -1.000000000000000000, 0.000000000000000000, 0.000000000000000000 ) ) ;
#116 = CARTESIAN_POINT ( 'NONE',  ( 0.000000000000000000, 1.250000000000000000, 0.000000000000000000 ) ) ;
#117 = AXIS2_PLACEMENT_3D ( 'NONE', #23, #181, #137 ) ;
#118 = FILL_AREA_STYLE ('',( #93 ) ) ;
#119 =( GEOMETRIC_REPRESENTATION_CONTEXT ( 3 ) GLOBAL_UNCERTAINTY_ASSIGNED_CONTEXT ( ( #102 ) ) GLOBAL_UNIT_ASSIGNED_CONTEXT ( ( #202, #272, #128 ) ) REPRESENTATION_CONTEXT ( 'NONE', 'WORKASPACE' ) );
#120 = LINE ( 'NONE', #286, #269 ) ;
#121 = LINE ( 'NONE', #132, #43 ) ;
#122 = CYLINDRICAL_SURFACE ( 'NONE', #200, 0.1875000000000000278 ) ;
#123 = SHAPE_DEFINITION_REPRESENTATION ( #186, #22 ) ;
#124 = PRODUCT_DEFINITION_CONTEXT ( 'detailed design', #45, 'design' ) ;
#125 = AXIS2_PLACEMENT_3D ( 'NONE', #159, #291, #237 ) ;
#126 = DIRECTION ( 'NONE',  ( 0.000000000000000000, -1.000000000000000000, -0.000000000000000000 ) ) ;
#127 = FACE_OUTER_BOUND ( 'NONE', #54, .T. ) ;
#128 =( NAMED_UNIT ( * ) SI_UNIT ( $, .STERADIAN. ) SOLID_ANGLE_UNIT ( ) );
#129 = FILL_AREA_STYLE_COLOUR ( '', #112 ) ;
#130 = FILL_AREA_STYLE ('',( #129 ) ) ;
#131 = CARTESIAN_POINT ( 'NONE',  ( 2.296212748401287726E-17, 0.000000000000000000, 0.1875000000000000278 ) ) ;
#132 = CARTESIAN_POINT ( 'NONE',  ( -0.1875000000000002220, 3.000000000000000444, 0.000000000000000000 ) ) ;
#133 = ORIENTED_EDGE ( 'NONE', *, *, #215, .F. ) ;
#134 =( CONVERSION_BASED_UNIT ( 'INCH', #279 ) LENGTH_UNIT ( ) NAMED_UNIT ( #290 ) );
#135 = CARTESIAN_POINT ( 'NONE',  ( -1.224646799147353700E-16, 3.000000000000000444, 0.000000000000000000 ) ) ;
#136 = ORIENTED_EDGE ( 'NONE', *, *, #245, .F. ) ;
#137 = DIRECTION ( 'NONE',  ( -1.000000000000000000, -6.997981709413449187E-17, 0.000000000000000000 ) ) ;
#138 = FACE_OUTER_BOUND ( 'NONE', #206, .T. ) ;
#139 = AXIS2_PLACEMENT_3D ( 'NONE', #28, #265, #218 ) ;
#140 = STYLED_ITEM ( 'NONE', ( #80 ), #289 ) ;
#141 =( NAMED_UNIT ( * ) SI_UNIT ( $, .STERADIAN. ) SOLID_ANGLE_UNIT ( ) );
#142 = EDGE_CURVE ( 'NONE', #14, #275, #294, .T. ) ;
#143 = ORIENTED_EDGE ( 'NONE', *, *, #74, .T. ) ;
#144 =( LENGTH_UNIT ( ) NAMED_UNIT ( * ) SI_UNIT ( $, .METRE. ) );
#145 = DIRECTION ( 'NONE',  ( -1.000000000000000000, 0.000000000000000000, 0.000000000000000000 ) ) ;
#146 = DIRECTION ( 'NONE',  ( 1.000000000000000000, 6.997981709413449187E-17, 0.000000000000000000 ) ) ;
#147 = PRESENTATION_LAYER_ASSIGNMENT (  '', '', ( #3 ) ) ;
#148 = COLOUR_RGB ( '',0.7921568627450980005, 0.8196078431372548767, 0.9333333333333333481 ) ;
#149 = CARTESIAN_POINT ( 'NONE',  ( 2.296212748401287726E-17, 0.000000000000000000, 0.1875000000000000278 ) ) ;
#150 = DIRECTION ( 'NONE',  ( 0.000000000000000000, 0.000000000000000000, 1.000000000000000000 ) ) ;
#151 = ADVANCED_FACE ( 'NONE', ( #63 ), #1, .T. ) ;
#152 = DIRECTION ( 'NONE',  ( 0.000000000000000000, 0.000000000000000000, -1.000000000000000000 ) ) ;
#153 =( GEOMETRIC_REPRESENTATION_CONTEXT ( 3 ) GLOBAL_UNCERTAINTY_ASSIGNED_CONTEXT ( ( #191 ) ) GLOBAL_UNIT_ASSIGNED_CONTEXT ( ( #79, #234, #141 ) ) REPRESENTATION_CONTEXT ( 'NONE', 'WORKASPACE' ) );
#154 = AXIS2_PLACEMENT_3D ( 'NONE', #135, #305, #110 ) ;
#155 = CARTESIAN_POINT ( 'NONE',  ( 0.000000000000000000, 1.250000000000000000, 0.000000000000000000 ) ) ;
#156 = LINE ( 'NONE', #131, #170 ) ;
#157 = SURFACE_STYLE_USAGE ( .BOTH. , #7 ) ;
#158 = CARTESIAN_POINT ( 'NONE',  ( 0.000000000000000000, 0.000000000000000000, -0.1875000000000000278 ) ) ;
#159 = CARTESIAN_POINT ( 'NONE',  ( 0.000000000000000000, 1.250000000000000000, 0.000000000000000000 ) ) ;
#160 = COLOUR_RGB ( '',1.000000000000000000, 0.000000000000000000, 0.000000000000000000 ) ;
#161 = DIRECTION ( 'NONE',  ( -0.000000000000000000, -1.000000000000000000, -0.000000000000000000 ) ) ;
#162 =( LENGTH_UNIT ( ) NAMED_UNIT ( * ) SI_UNIT ( $, .METRE. ) );
#163 = ORIENTED_EDGE ( 'NONE', *, *, #74, .F. ) ;
#164 = SURFACE_STYLE_FILL_AREA ( #177 ) ;
#165 = MECHANICAL_DESIGN_GEOMETRIC_PRESENTATION_REPRESENTATION (  '', ( #240 ), #253 ) ;
#166 =( GEOMETRIC_REPRESENTATION_CONTEXT ( 3 ) GLOBAL_UNCERTAINTY_ASSIGNED_CONTEXT ( ( #8 ) ) GLOBAL_UNIT_ASSIGNED_CONTEXT ( ( #134, #82, #108 ) ) REPRESENTATION_CONTEXT ( 'NONE', 'WORKASPACE' ) );
#167 = DIRECTION ( 'NONE',  ( -0.000000000000000000, -1.000000000000000000, -0.000000000000000000 ) ) ;
#168 = CARTESIAN_POINT ( 'NONE',  ( -0.1875000000000002776, 3.000000000000000444, 0.000000000000000000 ) ) ;
#169 = ORIENTED_EDGE ( 'NONE', *, *, #245, .T. ) ;
#170 = VECTOR ( 'NONE', #270, 39.37007874015748143 ) ;
#171 = CARTESIAN_POINT ( 'NONE',  ( 0.000000000000000000, 0.000000000000000000, 0.000000000000000000 ) ) ;
#172 = CARTESIAN_POINT ( 'NONE',  ( 0.000000000000000000, 1.250000000000000000, 0.000000000000000000 ) ) ;
#173 = PRESENTATION_STYLE_ASSIGNMENT (( #100 ) ) ;
#174 = CARTESIAN_POINT ( 'NONE',  ( 0.1875000000000000278, 3.000000000000000444, 2.296212748401288650E-17 ) ) ;
#175 = SURFACE_SIDE_STYLE ('',( #164 ) ) ;
#176 = ORIENTED_EDGE ( 'NONE', *, *, #27, .T. ) ;
#177 = FILL_AREA_STYLE ('',( #278 ) ) ;
#178 = PRESENTATION_STYLE_ASSIGNMENT (( #33 ) ) ;
#179 = ADVANCED_FACE ( 'NONE', ( #216 ), #122, .T. ) ;
#180 = DIRECTION ( 'NONE',  ( 0.000000000000000000, 0.000000000000000000, -1.000000000000000000 ) ) ;
#181 = DIRECTION ( 'NONE',  ( -6.997981709413449187E-17, 1.000000000000000000, 0.000000000000000000 ) ) ;
#182 = CARTESIAN_POINT ( 'NONE',  ( 0.000000000000000000, 0.000000000000000000, 0.000000000000000000 ) ) ;
#183 = CIRCLE ( 'NONE', #243, 0.1875000000000000278 ) ;
#184 = VERTEX_POINT ( 'NONE', #158 ) ;
#185 = CYLINDRICAL_SURFACE ( 'NONE', #244, 0.1875000000000000278 ) ;
#186 = PRODUCT_DEFINITION_SHAPE ( 'NONE', 'NONE',  #268 ) ;
#187 = DIRECTION ( 'NONE',  ( 6.997981709413449187E-17, -1.000000000000000000, 0.000000000000000000 ) ) ;
#188 = DIMENSIONAL_EXPONENTS ( 1.000000000000000000, 0.000000000000000000, 0.000000000000000000, 0.000000000000000000, 0.000000000000000000, 0.000000000000000000, 0.000000000000000000 ) ;
#189 = CIRCLE ( 'NONE', #302, 0.1875000000000000278 ) ;
#190 =( CONVERSION_BASED_UNIT ( 'INCH', #90 ) LENGTH_UNIT ( ) NAMED_UNIT ( #195 ) );
#191 = UNCERTAINTY_MEASURE_WITH_UNIT (LENGTH_MEASURE( 1.000000000000000082E-05 ), #79, 'distance_accuracy_value', 'NONE');
#192 =( LENGTH_UNIT ( ) NAMED_UNIT ( * ) SI_UNIT ( $, .METRE. ) );
#193 =( CONVERSION_BASED_UNIT ( 'INCH', #62 ) LENGTH_UNIT ( ) NAMED_UNIT ( #292 ) );
#194 =( NAMED_UNIT ( * ) PLANE_ANGLE_UNIT ( ) SI_UNIT ( $, .RADIAN. ) );
#195 = DIMENSIONAL_EXPONENTS ( 1.000000000000000000, 0.000000000000000000, 0.000000000000000000, 0.000000000000000000, 0.000000000000000000, 0.000000000000000000, 0.000000000000000000 ) ;
#196 = AXIS2_PLACEMENT_3D ( 'NONE', #47, #44, #145 ) ;
#197 = DIRECTION ( 'NONE',  ( 1.000000000000000000, 0.000000000000000000, 0.000000000000000000 ) ) ;
#198 = EDGE_CURVE ( 'NONE', #252, #70, #156, .T. ) ;
#199 =( CONVERSION_BASED_UNIT ( 'INCH', #76 ) LENGTH_UNIT ( ) NAMED_UNIT ( #188 ) );
#200 = AXIS2_PLACEMENT_3D ( 'NONE', #250, #13, #152 ) ;
#201 = ORIENTED_EDGE ( 'NONE', *, *, #142, .T. ) ;
#202 =( CONVERSION_BASED_UNIT ( 'INCH', #228 ) LENGTH_UNIT ( ) NAMED_UNIT ( #264 ) );
#203 = SURFACE_STYLE_FILL_AREA ( #226 ) ;
#204 = ADVANCED_FACE ( 'NONE', ( #127 ), #274, .T. ) ;
#205 = DIRECTION ( 'NONE',  ( 0.000000000000000000, 1.000000000000000000, 0.000000000000000000 ) ) ;
#206 = EDGE_LOOP ( 'NONE', ( #10, #273, #307, #52 ) ) ;
#207 = ORIENTED_EDGE ( 'NONE', *, *, #198, .F. ) ;
#208 = CIRCLE ( 'NONE', #262, 0.1875000000000001388 ) ;
#209 = CARTESIAN_POINT ( 'NONE',  ( 0.000000000000000000, 1.250000000000000000, 0.000000000000000000 ) ) ;
#210 = EDGE_LOOP ( 'NONE', ( #207, #143, #295, #12 ) ) ;
#211 = DIRECTION ( 'NONE',  ( 0.000000000000000000, 0.000000000000000000, -1.000000000000000000 ) ) ;
#212 = ADVANCED_FACE ( 'NONE', ( #293 ), #6, .T. ) ;
#213 = APPLICATION_CONTEXT ( 'automotive_design' ) ;
#214 = SURFACE_SIDE_STYLE ('',( #239 ) ) ;
#215 = EDGE_CURVE ( 'NONE', #257, #252, #255, .T. ) ;
#216 = FACE_OUTER_BOUND ( 'NONE', #210, .T. ) ;
#217 = UNCERTAINTY_MEASURE_WITH_UNIT (LENGTH_MEASURE( 1.000000000000000082E-05 ), #199, 'distance_accuracy_value', 'NONE');
#218 = DIRECTION ( 'NONE',  ( -1.000000000000000000, 0.000000000000000000, 0.000000000000000000 ) ) ;
#219 = PRODUCT_CONTEXT ( 'NONE', #213, 'mechanical' ) ;
#220 = AXIS2_PLACEMENT_3D ( 'NONE', #182, #92, #299 ) ;
#221 =( GEOMETRIC_REPRESENTATION_CONTEXT ( 3 ) GLOBAL_UNCERTAINTY_ASSIGNED_CONTEXT ( ( #71 ) ) GLOBAL_UNIT_ASSIGNED_CONTEXT ( ( #94, #263, #2 ) ) REPRESENTATION_CONTEXT ( 'NONE', 'WORKASPACE' ) );
#222 = SURFACE_STYLE_USAGE ( .BOTH. , #224 ) ;
#223 = DIRECTION ( 'NONE',  ( -0.000000000000000000, -1.000000000000000000, -0.000000000000000000 ) ) ;
#224 = SURFACE_SIDE_STYLE ('',( #67 ) ) ;
#225 = AXIS2_PLACEMENT_3D ( 'NONE', #64, #187, #146 ) ;
#226 = FILL_AREA_STYLE ('',( #232 ) ) ;
#227 = MANIFOLD_SOLID_BREP ( 'Revolve - Tool Body (Straight Shanked)', #306 ) ;
#228 = LENGTH_MEASURE_WITH_UNIT ( LENGTH_MEASURE( 0.02539999999999999897 ), #231 );
#229 = SURFACE_STYLE_FILL_AREA ( #130 ) ;
#230 = EDGE_CURVE ( 'NONE', #56, #14, #109, .T. ) ;
#231 =( LENGTH_UNIT ( ) NAMED_UNIT ( * ) SI_UNIT ( $, .METRE. ) );
#232 = FILL_AREA_STYLE_COLOUR ( '', #95 ) ;
#233 = LENGTH_MEASURE_WITH_UNIT ( LENGTH_MEASURE( 0.02539999999999999897 ), #162 );
#234 =( NAMED_UNIT ( * ) PLANE_ANGLE_UNIT ( ) SI_UNIT ( $, .RADIAN. ) );
#235 = ADVANCED_FACE ( 'NONE', ( #15 ), #281, .T. ) ;
#236 = CARTESIAN_POINT ( 'NONE',  ( 0.000000000000000000, 0.000000000000000000, 0.000000000000000000 ) ) ;
#237 = DIRECTION ( 'NONE',  ( -1.000000000000000000, 0.000000000000000000, 0.000000000000000000 ) ) ;
#238 = ORIENTED_EDGE ( 'NONE', *, *, #111, .T. ) ;
#239 = SURFACE_STYLE_FILL_AREA ( #41 ) ;
#240 = STYLED_ITEM ( 'NONE', ( #87 ), #179 ) ;
#241 = PRODUCT ( '59907', '59907', '', ( #219 ) ) ;
#242 = LENGTH_MEASURE_WITH_UNIT ( LENGTH_MEASURE( 0.02539999999999999897 ), #144 );
#243 = AXIS2_PLACEMENT_3D ( 'NONE', #116, #246, #115 ) ;
#244 = AXIS2_PLACEMENT_3D ( 'NONE', #236, #167, #211 ) ;
#245 = EDGE_CURVE ( 'NONE', #275, #14, #208, .T. ) ;
#246 = DIRECTION ( 'NONE',  ( -6.997981709413449187E-17, 1.000000000000000000, -0.000000000000000000 ) ) ;
#247 = DIMENSIONAL_EXPONENTS ( 1.000000000000000000, 0.000000000000000000, 0.000000000000000000, 0.000000000000000000, 0.000000000000000000, 0.000000000000000000, 0.000000000000000000 ) ;
#248 = COLOUR_RGB ( '',1.000000000000000000, 0.000000000000000000, 0.000000000000000000 ) ;
#249 = COLOUR_RGB ( '',1.000000000000000000, 0.000000000000000000, 0.000000000000000000 ) ;
#250 = CARTESIAN_POINT ( 'NONE',  ( 0.000000000000000000, 0.000000000000000000, 0.000000000000000000 ) ) ;
#251 = DIRECTION ( 'NONE',  ( 0.000000000000000000, -0.000000000000000000, 1.000000000000000000 ) ) ;
#252 = VERTEX_POINT ( 'NONE', #260 ) ;
#253 =( GEOMETRIC_REPRESENTATION_CONTEXT ( 3 ) GLOBAL_UNCERTAINTY_ASSIGNED_CONTEXT ( ( #297 ) ) GLOBAL_UNIT_ASSIGNED_CONTEXT ( ( #190, #194, #65 ) ) REPRESENTATION_CONTEXT ( 'NONE', 'WORKASPACE' ) );
#254 = SURFACE_STYLE_USAGE ( .BOTH. , #175 ) ;
#255 = CIRCLE ( 'NONE', #99, 0.1875000000000000278 ) ;
#256 = SURFACE_STYLE_FILL_AREA ( #5 ) ;
#257 = VERTEX_POINT ( 'NONE', #55 ) ;
#258 = CARTESIAN_POINT ( 'NONE',  ( 0.000000000000000000, 0.000000000000000000, 0.000000000000000000 ) ) ;
#259 = ORIENTED_EDGE ( 'NONE', *, *, #50, .F. ) ;
#260 = CARTESIAN_POINT ( 'NONE',  ( 2.296212748401287726E-17, 1.250000000000000000, 0.1875000000000000278 ) ) ;
#261 = PRESENTATION_LAYER_ASSIGNMENT (  '', '', ( #240 ) ) ;
#262 = AXIS2_PLACEMENT_3D ( 'NONE', #85, #86, #285 ) ;
#263 =( NAMED_UNIT ( * ) PLANE_ANGLE_UNIT ( ) SI_UNIT ( $, .RADIAN. ) );
#264 = DIMENSIONAL_EXPONENTS ( 1.000000000000000000, 0.000000000000000000, 0.000000000000000000, 0.000000000000000000, 0.000000000000000000, 0.000000000000000000, 0.000000000000000000 ) ;
#265 = DIRECTION ( 'NONE',  ( -6.997981709413449187E-17, 1.000000000000000000, -0.000000000000000000 ) ) ;
#266 = UNCERTAINTY_MEASURE_WITH_UNIT (LENGTH_MEASURE( 1.000000000000000082E-05 ), #193, 'distance_accuracy_value', 'NONE');
#267 = APPLICATION_PROTOCOL_DEFINITION ( 'draft international standard', 'automotive_design', 1998, #45 ) ;
#268 = PRODUCT_DEFINITION ( 'UNKNOWN', '', #18, #124 ) ;
#269 = VECTOR ( 'NONE', #46, 39.37007874015748143 ) ;
#270 = DIRECTION ( 'NONE',  ( -0.000000000000000000, -1.000000000000000000, -0.000000000000000000 ) ) ;
#271 = FACE_OUTER_BOUND ( 'NONE', #104, .T. ) ;
#272 =( NAMED_UNIT ( * ) PLANE_ANGLE_UNIT ( ) SI_UNIT ( $, .RADIAN. ) );
#273 = ORIENTED_EDGE ( 'NONE', *, *, #198, .T. ) ;
#274 = PLANE ( 'NONE',  #59 ) ;
#275 = VERTEX_POINT ( 'NONE', #168 ) ;
#276 = ORIENTED_EDGE ( 'NONE', *, *, #27, .F. ) ;
#277 = PRODUCT_RELATED_PRODUCT_CATEGORY ( 'part', '', ( #241 ) ) ;
#278 = FILL_AREA_STYLE_COLOUR ( '', #148 ) ;
#279 = LENGTH_MEASURE_WITH_UNIT ( LENGTH_MEASURE( 0.02539999999999999897 ), #19 );
#280 = ORIENTED_EDGE ( 'NONE', *, *, #111, .F. ) ;
#281 = CYLINDRICAL_SURFACE ( 'NONE', #154, 0.1875000000000000833 ) ;
#282 = STYLED_ITEM ( 'NONE', ( #34 ), #227 ) ;
#283 = CLOSED_SHELL ( 'NONE', ( #289, #212, #179, #204 ) ) ;
#284 = EDGE_CURVE ( 'NONE', #70, #184, #107, .T. ) ;
#285 = DIRECTION ( 'NONE',  ( -1.000000000000000000, 0.000000000000000000, 0.000000000000000000 ) ) ;
#286 = CARTESIAN_POINT ( 'NONE',  ( 0.000000000000000000, 0.000000000000000000, -0.1875000000000000278 ) ) ;
#287 = PRESENTATION_LAYER_ASSIGNMENT (  '', '', ( #106 ) ) ;
#288 = VECTOR ( 'NONE', #83, 39.37007874015748143 ) ;
#289 = ADVANCED_FACE ( 'NONE', ( #138 ), #185, .T. ) ;
#290 = DIMENSIONAL_EXPONENTS ( 1.000000000000000000, 0.000000000000000000, 0.000000000000000000, 0.000000000000000000, 0.000000000000000000, 0.000000000000000000, 0.000000000000000000 ) ;
#291 = DIRECTION ( 'NONE',  ( -6.997981709413449187E-17, 1.000000000000000000, -0.000000000000000000 ) ) ;
#292 = DIMENSIONAL_EXPONENTS ( 1.000000000000000000, 0.000000000000000000, 0.000000000000000000, 0.000000000000000000, 0.000000000000000000, 0.000000000000000000, 0.000000000000000000 ) ;
#293 = FACE_OUTER_BOUND ( 'NONE', #32, .T. ) ;
#294 = CIRCLE ( 'NONE', #139, 0.1875000000000001388 ) ;
#295 = ORIENTED_EDGE ( 'NONE', *, *, #68, .T. ) ;
#296 = PRESENTATION_LAYER_ASSIGNMENT (  '', '', ( #140 ) ) ;
#297 = UNCERTAINTY_MEASURE_WITH_UNIT (LENGTH_MEASURE( 1.000000000000000082E-05 ), #190, 'distance_accuracy_value', 'NONE');
#299 = DIRECTION ( 'NONE',  ( 0.000000000000000000, 0.000000000000000000, -1.000000000000000000 ) ) ;
#298 =( NAMED_UNIT ( * ) PLANE_ANGLE_UNIT ( ) SI_UNIT ( $, .RADIAN. ) );
#300 = ORIENTED_EDGE ( 'NONE', *, *, #230, .F. ) ;
#301 = EDGE_LOOP ( 'NONE', ( #169, #201 ) ) ;
#302 = AXIS2_PLACEMENT_3D ( 'NONE', #172, #223, #24 ) ;
#303 = ADVANCED_FACE ( 'NONE', ( #91 ), #88, .F. ) ;
#304 = EDGE_LOOP ( 'NONE', ( #176, #101, #136, #259 ) ) ;
#305 = DIRECTION ( 'NONE',  ( -6.997981709413449187E-17, 1.000000000000000000, -0.000000000000000000 ) ) ;
#306 = CLOSED_SHELL ( 'NONE', ( #151, #58, #235, #303 ) ) ;
#307 = ORIENTED_EDGE ( 'NONE', *, *, #37, .F. ) ;
#308 = MECHANICAL_DESIGN_GEOMETRIC_PRESENTATION_REPRESENTATION (  '', ( #106 ), #38 ) ;
#309 = AXIS2_PLACEMENT_3D ( 'NONE', #258, #40, #42 ) ;
ENDSEC;
END-ISO-10303-21;
