ISO-10303-21;
HEADER;
FILE_DESCRIPTION (( 'STEP AP214' ),
    '1' );
FILE_NAME ('Micro_SFBM-015-9.STEP',
    '2021-09-03T16:38:50',
    ( '' ),
    ( '' ),
    'SwSTEP 2.0',
    'SolidWorks 2020',
    '' );
FILE_SCHEMA (( 'AUTOMOTIVE_DESIGN' ));
ENDSEC;

DATA;
#1 = ORIENTED_EDGE ( 'NONE', *, *, #363, .T. ) ;
#2 = DIRECTION ( 'NONE',  ( -1.000000000000000000, 0.0000000000000000000, 0.0000000000000000000 ) ) ;
#3 =( NAMED_UNIT ( * ) PLANE_ANGLE_UNIT ( ) SI_UNIT ( $, .RADIAN. ) );
#4 = SURFACE_SIDE_STYLE ('',( #74 ) ) ;
#5 = APPLICATION_PROTOCOL_DEFINITION ( 'draft international standard', 'automotive_design', 1998, #79 ) ;
#6 = ORIENTED_EDGE ( 'NONE', *, *, #86, .F. ) ;
#7 = PRODUCT_DEFINITION_SHAPE ( 'NONE', 'NONE',  #62 ) ;
#8 = DIRECTION ( 'NONE',  ( -1.000000000000000000, 0.0000000000000000000, 0.0000000000000000000 ) ) ;
#9 = EDGE_LOOP ( 'NONE', ( #136, #116, #257, #212 ) ) ;
#10 = UNCERTAINTY_MEASURE_WITH_UNIT (LENGTH_MEASURE( 1.000000000000000082E-05 ), #270, 'distance_accuracy_value', 'NONE');
#11 = DIRECTION ( 'NONE',  ( 0.0000000000000000000, 0.0000000000000000000, -1.000000000000000000 ) ) ;
#12 = DIRECTION ( 'NONE',  ( -0.0000000000000000000, -0.0000000000000000000, -1.000000000000000000 ) ) ;
#13 =( GEOMETRIC_REPRESENTATION_CONTEXT ( 3 ) GLOBAL_UNCERTAINTY_ASSIGNED_CONTEXT ( ( #286 ) ) GLOBAL_UNIT_ASSIGNED_CONTEXT ( ( #21, #183, #213 ) ) REPRESENTATION_CONTEXT ( 'NONE', 'WORKASPACE' ) );
#14 = CYLINDRICAL_SURFACE ( 'NONE', #154, 0.02854350000000003065 ) ;
#15 =( LENGTH_UNIT ( ) NAMED_UNIT ( * ) SI_UNIT ( $, .METRE. ) );
#16 = DIRECTION ( 'NONE',  ( -0.0000000000000000000, -0.0000000000000000000, -1.000000000000000000 ) ) ;
#17 = PLANE ( 'NONE',  #93 ) ;
#18 = DIRECTION ( 'NONE',  ( -1.000000000000000000, 0.0000000000000000000, 0.0000000000000000000 ) ) ;
#19 = AXIS2_PLACEMENT_3D ( 'NONE', #272, #305, #101 ) ;
#20 = CARTESIAN_POINT ( 'NONE',  ( 0.0000000000000000000, 0.0000000000000000000, 2.244094000000000033 ) ) ;
#21 =( CONVERSION_BASED_UNIT ( 'INCH', #159 ) LENGTH_UNIT ( ) NAMED_UNIT ( #311 ) );
#22 = DIRECTION ( 'NONE',  ( 1.000000000000000000, 0.0000000000000000000, 0.0000000000000000000 ) ) ;
#23 = LINE ( 'NONE', #134, #274 ) ;
#24 = ORIENTED_EDGE ( 'NONE', *, *, #258, .T. ) ;
#25 = AXIS2_PLACEMENT_3D ( 'NONE', #47, #217, #108 ) ;
#26 = AXIS2_PLACEMENT_3D ( 'NONE', #202, #137, #224 ) ;
#27 = EDGE_LOOP ( 'NONE', ( #148, #140, #146, #176 ) ) ;
#28 = EDGE_LOOP ( 'NONE', ( #124, #117, #92, #6 ) ) ;
#29 = DIRECTION ( 'NONE',  ( -0.0000000000000000000, -0.0000000000000000000, -1.000000000000000000 ) ) ;
#30 = VECTOR ( 'NONE', #362, 39.37007874015748854 ) ;
#31 = ADVANCED_FACE ( 'NONE', ( #353 ), #184, .T. ) ;
#32 = DIRECTION ( 'NONE',  ( 0.0000000000000000000, 0.0000000000000000000, -1.000000000000000000 ) ) ;
#33 = PRODUCT_RELATED_PRODUCT_CATEGORY ( 'part', '', ( #355 ) ) ;
#34 = CARTESIAN_POINT ( 'NONE',  ( -0.02952454725000001542, 0.0000000000000000000, 0.0000000000000000000 ) ) ;
#35 = APPLICATION_PROTOCOL_DEFINITION ( 'draft international standard', 'automotive_design', 1998, #236 ) ;
#36 = ORIENTED_EDGE ( 'NONE', *, *, #155, .F. ) ;
#37 = DIRECTION ( 'NONE',  ( -0.0000000000000000000, -0.0000000000000000000, -1.000000000000000000 ) ) ;
#38 = AXIS2_PLACEMENT_3D ( 'NONE', #195, #12, #8 ) ;
#39 = ORIENTED_EDGE ( 'NONE', *, *, #296, .F. ) ;
#40 = CYLINDRICAL_SURFACE ( 'NONE', #351, 0.02952454725000001542 ) ;
#41 = FILL_AREA_STYLE_COLOUR ( '', #267 ) ;
#42 = DIRECTION ( 'NONE',  ( -0.0000000000000000000, -0.0000000000000000000, -1.000000000000000000 ) ) ;
#43 = EDGE_CURVE ( 'NONE', #91, #203, #302, .T. ) ;
#44 = AXIS2_PLACEMENT_3D ( 'NONE', #20, #188, #77 ) ;
#45 = FACE_OUTER_BOUND ( 'NONE', #28, .T. ) ;
#46 = ADVANCED_FACE ( 'NONE', ( #152 ), #331, .T. ) ;
#47 = CARTESIAN_POINT ( 'NONE',  ( 0.0000000000000000000, 0.0000000000000000000, 0.06461879543311099816 ) ) ;
#48 = CARTESIAN_POINT ( 'NONE',  ( 0.1031100000000002570, 1.262733314600838667E-17, 2.244094000000000033 ) ) ;
#49 = AXIS2_PLACEMENT_3D ( 'NONE', #162, #282, #73 ) ;
#50 = CARTESIAN_POINT ( 'NONE',  ( 0.0000000000000000000, 0.0000000000000000000, 0.3740159999999999041 ) ) ;
#51 = DIRECTION ( 'NONE',  ( -1.000000000000000000, 0.0000000000000000000, 0.0000000000000000000 ) ) ;
#52 = EDGE_LOOP ( 'NONE', ( #292, #199, #238, #120 ) ) ;
#53 = DIRECTION ( 'NONE',  ( -0.0000000000000000000, -0.0000000000000000000, -1.000000000000000000 ) ) ;
#54 = FACE_OUTER_BOUND ( 'NONE', #9, .T. ) ;
#55 = ORIENTED_EDGE ( 'NONE', *, *, #87, .T. ) ;
#56 = CIRCLE ( 'NONE', #174, 0.1181100000000000066 ) ;
#57 = FACE_OUTER_BOUND ( 'NONE', #27, .T. ) ;
#58 = DIRECTION ( 'NONE',  ( 1.000000000000000000, 0.0000000000000000000, -0.0000000000000000000 ) ) ;
#59 = ORIENTED_EDGE ( 'NONE', *, *, #317, .T. ) ;
#60 = EDGE_CURVE ( 'NONE', #203, #122, #299, .T. ) ;
#61 = CIRCLE ( 'NONE', #273, 0.1031100000000002570 ) ;
#62 = PRODUCT_DEFINITION ( 'UNKNOWN', '', #126, #222 ) ;
#63 = DIRECTION ( 'NONE',  ( -1.000000000000000000, 0.0000000000000000000, 0.0000000000000000000 ) ) ;
#64 = ORIENTED_EDGE ( 'NONE', *, *, #279, .F. ) ;
#65 = CARTESIAN_POINT ( 'NONE',  ( 0.0000000000000000000, 0.0000000000000000000, 2.229093999999999465 ) ) ;
#66 = VERTEX_POINT ( 'NONE', #303 ) ;
#67 = ADVANCED_FACE ( 'NONE', ( #245 ), #40, .T. ) ;
#68 =( NAMED_UNIT ( * ) PLANE_ANGLE_UNIT ( ) SI_UNIT ( $, .RADIAN. ) );
#69 = CONICAL_SURFACE ( 'NONE', #325, 0.02952454725000001542, 0.1745329251994330311 ) ;
#70 = CARTESIAN_POINT ( 'NONE',  ( 0.0000000000000000000, 0.0000000000000000000, 0.05905500000000000332 ) ) ;
#71 = CARTESIAN_POINT ( 'NONE',  ( -0.02952454725000001542, 0.0000000000000000000, 0.05905500000000000332 ) ) ;
#72 =( LENGTH_UNIT ( ) NAMED_UNIT ( * ) SI_UNIT ( $, .METRE. ) );
#73 = DIRECTION ( 'NONE',  ( 1.000000000000000000, 0.0000000000000000000, 0.0000000000000000000 ) ) ;
#74 = SURFACE_STYLE_FILL_AREA ( #335 ) ;
#75 = CARTESIAN_POINT ( 'NONE',  ( -0.1031100000000002570, 0.0000000000000000000, 2.244094000000000033 ) ) ;
#76 = PLANE ( 'NONE',  #338 ) ;
#77 = DIRECTION ( 'NONE',  ( -1.000000000000000000, 0.0000000000000000000, 0.0000000000000000000 ) ) ;
#78 = MANIFOLD_SOLID_BREP ( 'Cut-Revolve1', #189 ) ;
#79 = APPLICATION_CONTEXT ( 'automotive_design' ) ;
#80 = DIRECTION ( 'NONE',  ( -0.0000000000000000000, -0.0000000000000000000, -1.000000000000000000 ) ) ;
#81 = VECTOR ( 'NONE', #158, 39.37007874015748854 ) ;
#82 = DIRECTION ( 'NONE',  ( -0.7071067811865358044, 0.0000000000000000000, -0.7071067811865590080 ) ) ;
#83 = ORIENTED_EDGE ( 'NONE', *, *, #145, .T. ) ;
#84 = CARTESIAN_POINT ( 'NONE',  ( 0.02854350000000000984, 3.555642409872490423E-18, 0.06461879543311099816 ) ) ;
#85 = LINE ( 'NONE', #319, #260 ) ;
#86 = EDGE_CURVE ( 'NONE', #261, #373, #300, .T. ) ;
#87 = EDGE_CURVE ( 'NONE', #356, #91, #361, .T. ) ;
#88 = VECTOR ( 'NONE', #342, 39.37007874015748143 ) ;
#89 = CARTESIAN_POINT ( 'NONE',  ( 0.0000000000000000000, 0.0000000000000000000, 0.05905500000000000332 ) ) ;
#90 = ORIENTED_EDGE ( 'NONE', *, *, #145, .F. ) ;
#91 = VERTEX_POINT ( 'NONE', #340 ) ;
#92 = ORIENTED_EDGE ( 'NONE', *, *, #336, .T. ) ;
#93 = AXIS2_PLACEMENT_3D ( 'NONE', #220, #156, #315 ) ;
#94 = EDGE_CURVE ( 'NONE', #261, #376, #278, .T. ) ;
#95 = ORIENTED_EDGE ( 'NONE', *, *, #131, .F. ) ;
#96 = CARTESIAN_POINT ( 'NONE',  ( 0.0000000000000000000, 0.0000000000000000000, 0.0000000000000000000 ) ) ;
#97 = ORIENTED_EDGE ( 'NONE', *, *, #321, .T. ) ;
#98 = CARTESIAN_POINT ( 'NONE',  ( -0.1181100000000000066, 0.0000000000000000000, 2.229093999999999465 ) ) ;
#99 = ORIENTED_EDGE ( 'NONE', *, *, #258, .F. ) ;
#100 =( CONVERSION_BASED_UNIT ( 'INCH', #360 ) LENGTH_UNIT ( ) NAMED_UNIT ( #149 ) );
#101 = DIRECTION ( 'NONE',  ( 1.000000000000000000, 0.0000000000000000000, 0.0000000000000000000 ) ) ;
#102 = PRESENTATION_STYLE_ASSIGNMENT (( #326 ) ) ;
#103 = ADVANCED_FACE ( 'NONE', ( #153 ), #76, .F. ) ;
#104 = DIRECTION ( 'NONE',  ( 1.000000000000000000, 0.0000000000000000000, 0.0000000000000000000 ) ) ;
#105 = ADVANCED_FACE ( 'NONE', ( #192 ), #14, .T. ) ;
#106 = DIRECTION ( 'NONE',  ( -0.0000000000000000000, -0.0000000000000000000, -1.000000000000000000 ) ) ;
#107 = PRESENTATION_LAYER_ASSIGNMENT (  '', '', ( #194 ) ) ;
#108 = DIRECTION ( 'NONE',  ( -1.000000000000000000, 0.0000000000000000000, 0.0000000000000000000 ) ) ;
#109 = CARTESIAN_POINT ( 'NONE',  ( -0.1181100000000000066, 0.0000000000000000000, 0.3740159999999999041 ) ) ;
#110 = CIRCLE ( 'NONE', #143, 0.1181100000000000066 ) ;
#111 = DIRECTION ( 'NONE',  ( 1.000000000000000000, 0.0000000000000000000, 0.0000000000000000000 ) ) ;
#112 = CARTESIAN_POINT ( 'NONE',  ( 0.1181100000000000066, 1.446430334472939084E-17, 2.229093999999999465 ) ) ;
#113 = CIRCLE ( 'NONE', #228, 0.02854350000000004800 ) ;
#114 = AXIS2_PLACEMENT_3D ( 'NONE', #163, #291, #111 ) ;
#115 = CYLINDRICAL_SURFACE ( 'NONE', #26, 0.1181100000000000066 ) ;
#116 = ORIENTED_EDGE ( 'NONE', *, *, #86, .T. ) ;
#117 = ORIENTED_EDGE ( 'NONE', *, *, #235, .F. ) ;
#118 = EDGE_CURVE ( 'NONE', #91, #356, #345, .T. ) ;
#119 =( GEOMETRIC_REPRESENTATION_CONTEXT ( 3 ) GLOBAL_UNCERTAINTY_ASSIGNED_CONTEXT ( ( #10 ) ) GLOBAL_UNIT_ASSIGNED_CONTEXT ( ( #270, #3, #350 ) ) REPRESENTATION_CONTEXT ( 'NONE', 'WORKASPACE' ) );
#120 = ORIENTED_EDGE ( 'NONE', *, *, #336, .F. ) ;
#121 = CONICAL_SURFACE ( 'NONE', #38, 0.02952454725000001542, 0.1745329251994330311 ) ;
#122 = VERTEX_POINT ( 'NONE', #308 ) ;
#123 = ORIENTED_EDGE ( 'NONE', *, *, #155, .T. ) ;
#124 = ORIENTED_EDGE ( 'NONE', *, *, #165, .F. ) ;
#125 = CYLINDRICAL_SURFACE ( 'NONE', #269, 0.1181100000000000066 ) ;
#126 = PRODUCT_DEFINITION_FORMATION_WITH_SPECIFIED_SOURCE ( 'ANY', '', #355, .NOT_KNOWN. ) ;
#127 = LINE ( 'NONE', #369, #254 ) ;
#128 = DIMENSIONAL_EXPONENTS ( 1.000000000000000000, 0.0000000000000000000, 0.0000000000000000000, 0.0000000000000000000, 0.0000000000000000000, 0.0000000000000000000, 0.0000000000000000000 ) ;
#129 = CARTESIAN_POINT ( 'NONE',  ( 0.1181100000000000066, 1.446430334472939084E-17, 2.244094000000000033 ) ) ;
#130 = FACE_BOUND ( 'NONE', #259, .T. ) ;
#131 = EDGE_CURVE ( 'NONE', #294, #285, #113, .T. ) ;
#132 = DIRECTION ( 'NONE',  ( -1.000000000000000000, 0.0000000000000000000, 0.0000000000000000000 ) ) ;
#133 = CARTESIAN_POINT ( 'NONE',  ( 0.0000000000000000000, 0.0000000000000000000, 0.3740160000000000151 ) ) ;
#134 = CARTESIAN_POINT ( 'NONE',  ( -0.1031100000000002570, 0.0000000000000000000, 2.244094000000000033 ) ) ;
#135 = CARTESIAN_POINT ( 'NONE',  ( 0.02854350000000004800, 3.495570591146253809E-18, 0.3740160000000000151 ) ) ;
#136 = ORIENTED_EDGE ( 'NONE', *, *, #94, .F. ) ;
#137 = DIRECTION ( 'NONE',  ( -0.0000000000000000000, -0.0000000000000000000, -1.000000000000000000 ) ) ;
#138 = ORIENTED_EDGE ( 'NONE', *, *, #94, .T. ) ;
#139 = ADVANCED_FACE ( 'NONE', ( #45 ), #160, .T. ) ;
#140 = ORIENTED_EDGE ( 'NONE', *, *, #262, .T. ) ;
#141 = LINE ( 'NONE', #221, #88 ) ;
#142 = EDGE_LOOP ( 'NONE', ( #99, #164, #179, #166 ) ) ;
#143 = AXIS2_PLACEMENT_3D ( 'NONE', #50, #277, #251 ) ;
#144 = VERTEX_POINT ( 'NONE', #109 ) ;
#145 = EDGE_CURVE ( 'NONE', #372, #66, #127, .T. ) ;
#146 = ORIENTED_EDGE ( 'NONE', *, *, #363, .F. ) ;
#147 = CARTESIAN_POINT ( 'NONE',  ( 0.0000000000000000000, 0.0000000000000000000, 0.0000000000000000000 ) ) ;
#148 = ORIENTED_EDGE ( 'NONE', *, *, #118, .T. ) ;
#149 = DIMENSIONAL_EXPONENTS ( 1.000000000000000000, 0.0000000000000000000, 0.0000000000000000000, 0.0000000000000000000, 0.0000000000000000000, 0.0000000000000000000, 0.0000000000000000000 ) ;
#150 = FILL_AREA_STYLE ('',( #41 ) ) ;
#151 = LENGTH_MEASURE_WITH_UNIT ( LENGTH_MEASURE( 0.02539999999999999897 ), #266 );
#152 = FACE_OUTER_BOUND ( 'NONE', #142, .T. ) ;
#153 = FACE_OUTER_BOUND ( 'NONE', #320, .T. ) ;
#154 = AXIS2_PLACEMENT_3D ( 'NONE', #367, #365, #312 ) ;
#155 = EDGE_CURVE ( 'NONE', #122, #66, #332, .T. ) ;
#156 = DIRECTION ( 'NONE',  ( -0.0000000000000000000, 0.0000000000000000000, -1.000000000000000000 ) ) ;
#157 = DIRECTION ( 'NONE',  ( -0.0000000000000000000, -0.0000000000000000000, -1.000000000000000000 ) ) ;
#158 = DIRECTION ( 'NONE',  ( 0.7071067811865358044, 8.659560562354788645E-17, -0.7071067811865590080 ) ) ;
#159 = LENGTH_MEASURE_WITH_UNIT ( LENGTH_MEASURE( 0.02539999999999999897 ), #15 );
#160 = CONICAL_SURFACE ( 'NONE', #44, 0.1031100000000002570, 0.7853981633974318477 ) ;
#161 = MECHANICAL_DESIGN_GEOMETRIC_PRESENTATION_REPRESENTATION (  '', ( #194 ), #13 ) ;
#162 = CARTESIAN_POINT ( 'NONE',  ( 0.0000000000000000000, 0.0000000000000000000, 2.244094000000000033 ) ) ;
#163 = CARTESIAN_POINT ( 'NONE',  ( 0.0000000000000000000, 0.0000000000000000000, 2.229093999999999465 ) ) ;
#164 = ORIENTED_EDGE ( 'NONE', *, *, #279, .T. ) ;
#165 = EDGE_CURVE ( 'NONE', #378, #261, #191, .T. ) ;
#166 = ORIENTED_EDGE ( 'NONE', *, *, #87, .F. ) ;
#167 = VECTOR ( 'NONE', #37, 39.37007874015748143 ) ;
#168 = COLOUR_RGB ( '',0.7921568627450980005, 0.8196078431372548767, 0.9333333333333333481 ) ;
#169 = CARTESIAN_POINT ( 'NONE',  ( 0.02952454725000001542, 3.615714228598730888E-18, 0.05905500000000000332 ) ) ;
#170 = CARTESIAN_POINT ( 'NONE',  ( 0.0000000000000000000, 0.0000000000000000000, 0.3740160000000000151 ) ) ;
#171 = ADVANCED_BREP_SHAPE_REPRESENTATION ( 'Micro_SFBM-015-9', ( #78, #19 ), #178 ) ;
#172 = ORIENTED_EDGE ( 'NONE', *, *, #207, .T. ) ;
#173 = AXIS2_PLACEMENT_3D ( 'NONE', #96, #205, #181 ) ;
#174 = AXIS2_PLACEMENT_3D ( 'NONE', #196, #283, #223 ) ;
#175 = ORIENTED_EDGE ( 'NONE', *, *, #377, .F. ) ;
#176 = ORIENTED_EDGE ( 'NONE', *, *, #43, .F. ) ;
#177 = PRESENTATION_LAYER_ASSIGNMENT (  '', '', ( #314 ) ) ;
#178 =( GEOMETRIC_REPRESENTATION_CONTEXT ( 3 ) GLOBAL_UNCERTAINTY_ASSIGNED_CONTEXT ( ( #242 ) ) GLOBAL_UNIT_ASSIGNED_CONTEXT ( ( #100, #68, #327 ) ) REPRESENTATION_CONTEXT ( 'NONE', 'WORKASPACE' ) );
#179 = ORIENTED_EDGE ( 'NONE', *, *, #377, .T. ) ;
#180 = CARTESIAN_POINT ( 'NONE',  ( 0.0000000000000000000, 0.0000000000000000000, 2.244094000000000033 ) ) ;
#181 = DIRECTION ( 'NONE',  ( -1.000000000000000000, 0.0000000000000000000, 0.0000000000000000000 ) ) ;
#182 = PLANE ( 'NONE',  #306 ) ;
#183 =( NAMED_UNIT ( * ) PLANE_ANGLE_UNIT ( ) SI_UNIT ( $, .RADIAN. ) );
#184 = CONICAL_SURFACE ( 'NONE', #193, 0.1031100000000002570, 0.7853981633974318477 ) ;
#185 = CARTESIAN_POINT ( 'NONE',  ( 0.0000000000000000000, 0.0000000000000000000, 0.06461879543311099816 ) ) ;
#186 = AXIS2_PLACEMENT_3D ( 'NONE', #185, #106, #132 ) ;
#187 = FACE_OUTER_BOUND ( 'NONE', #256, .T. ) ;
#188 = DIRECTION ( 'NONE',  ( 0.0000000000000000000, 0.0000000000000000000, -1.000000000000000000 ) ) ;
#189 = CLOSED_SHELL ( 'NONE', ( #295, #105, #275, #31, #379, #313, #240, #139, #216, #364, #46, #67, #103 ) ) ;
#190 = ORIENTED_EDGE ( 'NONE', *, *, #317, .F. ) ;
#191 = LINE ( 'NONE', #48, #81 ) ;
#192 = FACE_OUTER_BOUND ( 'NONE', #225, .T. ) ;
#193 = AXIS2_PLACEMENT_3D ( 'NONE', #359, #32, #297 ) ;
#194 = STYLED_ITEM ( 'NONE', ( #354 ), #171 ) ;
#195 = CARTESIAN_POINT ( 'NONE',  ( 0.0000000000000000000, 0.0000000000000000000, 0.05905500000000000332 ) ) ;
#196 = CARTESIAN_POINT ( 'NONE',  ( 0.0000000000000000000, 0.0000000000000000000, 0.3740159999999999041 ) ) ;
#197 = DIRECTION ( 'NONE',  ( -1.000000000000000000, 0.0000000000000000000, 0.0000000000000000000 ) ) ;
#198 = CARTESIAN_POINT ( 'NONE',  ( 0.0000000000000000000, 0.0000000000000000000, 2.244094000000000033 ) ) ;
#199 = ORIENTED_EDGE ( 'NONE', *, *, #165, .T. ) ;
#200 = DIRECTION ( 'NONE',  ( -0.0000000000000000000, -0.0000000000000000000, -1.000000000000000000 ) ) ;
#201 = FACE_OUTER_BOUND ( 'NONE', #231, .T. ) ;
#202 = CARTESIAN_POINT ( 'NONE',  ( 0.0000000000000000000, 0.0000000000000000000, 2.244094000000000033 ) ) ;
#203 = VERTEX_POINT ( 'NONE', #337 ) ;
#204 = ORIENTED_EDGE ( 'NONE', *, *, #118, .F. ) ;
#205 = DIRECTION ( 'NONE',  ( -0.0000000000000000000, -0.0000000000000000000, -1.000000000000000000 ) ) ;
#206 = DIRECTION ( 'NONE',  ( -0.0000000000000000000, -0.0000000000000000000, -1.000000000000000000 ) ) ;
#207 = EDGE_CURVE ( 'NONE', #378, #227, #61, .T. ) ;
#208 = ORIENTED_EDGE ( 'NONE', *, *, #60, .T. ) ;
#209 = ORIENTED_EDGE ( 'NONE', *, *, #131, .T. ) ;
#210 = CARTESIAN_POINT ( 'NONE',  ( 0.1181100000000000066, 1.446430334472939084E-17, 0.3740159999999999041 ) ) ;
#211 = CIRCLE ( 'NONE', #49, 0.1031100000000002570 ) ;
#212 = ORIENTED_EDGE ( 'NONE', *, *, #232, .F. ) ;
#213 =( NAMED_UNIT ( * ) SI_UNIT ( $, .STERADIAN. ) SOLID_ANGLE_UNIT ( ) );
#214 = FACE_OUTER_BOUND ( 'NONE', #374, .T. ) ;
#215 = CARTESIAN_POINT ( 'NONE',  ( 0.0000000000000000000, 0.0000000000000000000, 0.0000000000000000000 ) ) ;
#216 = ADVANCED_FACE ( 'NONE', ( #130, #248 ), #17, .T. ) ;
#217 = DIRECTION ( 'NONE',  ( -0.0000000000000000000, -0.0000000000000000000, -1.000000000000000000 ) ) ;
#218 = AXIS2_PLACEMENT_3D ( 'NONE', #252, #29, #255 ) ;
#219 = DIRECTION ( 'NONE',  ( -1.000000000000000000, 0.0000000000000000000, 0.0000000000000000000 ) ) ;
#220 = CARTESIAN_POINT ( 'NONE',  ( 0.02854350000000004800, 0.0000000000000000000, 0.3740160000000000151 ) ) ;
#221 = CARTESIAN_POINT ( 'NONE',  ( -0.1181100000000000066, 0.0000000000000000000, 2.244094000000000033 ) ) ;
#222 = PRODUCT_DEFINITION_CONTEXT ( 'detailed design', #79, 'design' ) ;
#223 = DIRECTION ( 'NONE',  ( -1.000000000000000000, 0.0000000000000000000, 0.0000000000000000000 ) ) ;
#224 = DIRECTION ( 'NONE',  ( -1.000000000000000000, 0.0000000000000000000, 0.0000000000000000000 ) ) ;
#225 = EDGE_LOOP ( 'NONE', ( #209, #24, #204, #175 ) ) ;
#226 = DIRECTION ( 'NONE',  ( 0.0000000000000000000, 0.0000000000000000000, 1.000000000000000000 ) ) ;
#227 = VERTEX_POINT ( 'NONE', #75 ) ;
#228 = AXIS2_PLACEMENT_3D ( 'NONE', #133, #339, #219 ) ;
#229 = AXIS2_PLACEMENT_3D ( 'NONE', #323, #53, #18 ) ;
#230 = ORIENTED_EDGE ( 'NONE', *, *, #370, .T. ) ;
#231 = EDGE_LOOP ( 'NONE', ( #1, #83, #36, #322 ) ) ;
#232 = EDGE_CURVE ( 'NONE', #376, #144, #110, .T. ) ;
#233 = CIRCLE ( 'NONE', #341, 0.02854350000000004800 ) ;
#234 = VECTOR ( 'NONE', #287, 39.37007874015748854 ) ;
#235 = EDGE_CURVE ( 'NONE', #227, #378, #211, .T. ) ;
#236 = APPLICATION_CONTEXT ( 'automotive_design' ) ;
#237 = SURFACE_STYLE_USAGE ( .BOTH. , #4 ) ;
#238 = ORIENTED_EDGE ( 'NONE', *, *, #288, .F. ) ;
#239 = SURFACE_STYLE_FILL_AREA ( #150 ) ;
#240 = ADVANCED_FACE ( 'NONE', ( #214 ), #182, .T. ) ;
#241 = DIRECTION ( 'NONE',  ( -0.0000000000000000000, -0.0000000000000000000, -1.000000000000000000 ) ) ;
#242 = UNCERTAINTY_MEASURE_WITH_UNIT (LENGTH_MEASURE( 1.000000000000000082E-05 ), #100, 'distance_accuracy_value', 'NONE');
#243 = VECTOR ( 'NONE', #80, 39.37007874015748143 ) ;
#244 = CIRCLE ( 'NONE', #229, 0.02952454725000001542 ) ;
#245 = FACE_OUTER_BOUND ( 'NONE', #348, .T. ) ;
#246 = DIRECTION ( 'NONE',  ( 1.000000000000000000, 0.0000000000000000000, -0.0000000000000000000 ) ) ;
#247 = CARTESIAN_POINT ( 'NONE',  ( 0.1031100000000002570, 1.354581824536888722E-17, 2.244094000000000033 ) ) ;
#248 = FACE_OUTER_BOUND ( 'NONE', #264, .T. ) ;
#249 = CIRCLE ( 'NONE', #347, 0.02952454725000001542 ) ;
#250 = CARTESIAN_POINT ( 'NONE',  ( 0.0000000000000000000, 0.0000000000000000000, 2.244094000000000033 ) ) ;
#251 = DIRECTION ( 'NONE',  ( -1.000000000000000000, 0.0000000000000000000, 0.0000000000000000000 ) ) ;
#252 = CARTESIAN_POINT ( 'NONE',  ( 0.0000000000000000000, 0.0000000000000000000, 0.0000000000000000000 ) ) ;
#253 = ORIENTED_EDGE ( 'NONE', *, *, #43, .T. ) ;
#254 = VECTOR ( 'NONE', #42, 39.37007874015748143 ) ;
#255 = DIRECTION ( 'NONE',  ( -1.000000000000000000, 0.0000000000000000000, 0.0000000000000000000 ) ) ;
#256 = EDGE_LOOP ( 'NONE', ( #330, #55, #253, #268 ) ) ;
#257 = ORIENTED_EDGE ( 'NONE', *, *, #296, .T. ) ;
#258 = EDGE_CURVE ( 'NONE', #285, #356, #85, .T. ) ;
#259 = EDGE_LOOP ( 'NONE', ( #95, #64 ) ) ;
#260 = VECTOR ( 'NONE', #200, 39.37007874015748143 ) ;
#261 = VERTEX_POINT ( 'NONE', #112 ) ;
#262 = EDGE_CURVE ( 'NONE', #356, #372, #344, .T. ) ;
#263 = ORIENTED_EDGE ( 'NONE', *, *, #232, .T. ) ;
#264 = EDGE_LOOP ( 'NONE', ( #97, #263 ) ) ;
#265 = DIRECTION ( 'NONE',  ( -0.0000000000000000000, -0.0000000000000000000, -1.000000000000000000 ) ) ;
#266 =( LENGTH_UNIT ( ) NAMED_UNIT ( * ) SI_UNIT ( $, .METRE. ) );
#267 = COLOUR_RGB ( '',0.7921568627450980005, 0.8196078431372548767, 0.9333333333333333481 ) ;
#268 = ORIENTED_EDGE ( 'NONE', *, *, #370, .F. ) ;
#269 = AXIS2_PLACEMENT_3D ( 'NONE', #180, #241, #304 ) ;
#270 =( CONVERSION_BASED_UNIT ( 'INCH', #151 ) LENGTH_UNIT ( ) NAMED_UNIT ( #128 ) );
#271 = ORIENTED_EDGE ( 'NONE', *, *, #235, .T. ) ;
#272 = CARTESIAN_POINT ( 'NONE',  ( 0.0000000000000000000, 0.0000000000000000000, 0.0000000000000000000 ) ) ;
#273 = AXIS2_PLACEMENT_3D ( 'NONE', #250, #368, #104 ) ;
#274 = VECTOR ( 'NONE', #82, 39.37007874015748854 ) ;
#275 = ADVANCED_FACE ( 'NONE', ( #57 ), #69, .T. ) ;
#276 = DIRECTION ( 'NONE',  ( -1.000000000000000000, 0.0000000000000000000, 0.0000000000000000000 ) ) ;
#277 = DIRECTION ( 'NONE',  ( -0.0000000000000000000, -0.0000000000000000000, -1.000000000000000000 ) ) ;
#278 = LINE ( 'NONE', #129, #243 ) ;
#279 = EDGE_CURVE ( 'NONE', #285, #294, #233, .T. ) ;
#280 = DIRECTION ( 'NONE',  ( 0.0000000000000000000, 0.0000000000000000000, 1.000000000000000000 ) ) ;
#281 = CIRCLE ( 'NONE', #307, 0.02952454725000001542 ) ;
#282 = DIRECTION ( 'NONE',  ( 0.0000000000000000000, 0.0000000000000000000, 1.000000000000000000 ) ) ;
#283 = DIRECTION ( 'NONE',  ( -0.0000000000000000000, -0.0000000000000000000, -1.000000000000000000 ) ) ;
#284 = CYLINDRICAL_SURFACE ( 'NONE', #218, 0.02952454725000001542 ) ;
#285 = VERTEX_POINT ( 'NONE', #135 ) ;
#286 = UNCERTAINTY_MEASURE_WITH_UNIT (LENGTH_MEASURE( 1.000000000000000082E-05 ), #21, 'distance_accuracy_value', 'NONE');
#287 = DIRECTION ( 'NONE',  ( 0.1736481776669304145, 2.126576849575772531E-17, -0.9848077530122080203 ) ) ;
#288 = EDGE_CURVE ( 'NONE', #373, #261, #293, .T. ) ;
#289 = DIRECTION ( 'NONE',  ( -0.0000000000000000000, -0.0000000000000000000, -1.000000000000000000 ) ) ;
#290 = CARTESIAN_POINT ( 'NONE',  ( -0.02854350000000004800, 0.0000000000000000000, 0.3740160000000000151 ) ) ;
#291 = DIRECTION ( 'NONE',  ( 0.0000000000000000000, 0.0000000000000000000, -1.000000000000000000 ) ) ;
#292 = ORIENTED_EDGE ( 'NONE', *, *, #207, .F. ) ;
#293 = CIRCLE ( 'NONE', #114, 0.1181100000000000066 ) ;
#294 = VERTEX_POINT ( 'NONE', #290 ) ;
#295 = ADVANCED_FACE ( 'NONE', ( #201 ), #284, .T. ) ;
#296 = EDGE_CURVE ( 'NONE', #373, #144, #141, .T. ) ;
#297 = DIRECTION ( 'NONE',  ( -1.000000000000000000, 0.0000000000000000000, 0.0000000000000000000 ) ) ;
#298 = SHAPE_DEFINITION_REPRESENTATION ( #7, #171 ) ;
#299 = LINE ( 'NONE', #34, #167 ) ;
#300 = CIRCLE ( 'NONE', #324, 0.1181100000000000066 ) ;
#301 = VECTOR ( 'NONE', #16, 39.37007874015748143 ) ;
#302 = LINE ( 'NONE', #71, #30 ) ;
#303 = CARTESIAN_POINT ( 'NONE',  ( 0.02952454725000001542, 3.615714228598730888E-18, 0.0000000000000000000 ) ) ;
#304 = DIRECTION ( 'NONE',  ( -1.000000000000000000, 0.0000000000000000000, 0.0000000000000000000 ) ) ;
#305 = DIRECTION ( 'NONE',  ( 0.0000000000000000000, 0.0000000000000000000, 1.000000000000000000 ) ) ;
#306 = AXIS2_PLACEMENT_3D ( 'NONE', #198, #226, #58 ) ;
#307 = AXIS2_PLACEMENT_3D ( 'NONE', #70, #357, #276 ) ;
#308 = CARTESIAN_POINT ( 'NONE',  ( -0.02952454725000001542, 0.0000000000000000000, 0.0000000000000000000 ) ) ;
#309 = CARTESIAN_POINT ( 'NONE',  ( -0.02854350000000003065, 0.0000000000000000000, 0.0000000000000000000 ) ) ;
#310 = DIRECTION ( 'NONE',  ( -1.000000000000000000, 0.0000000000000000000, 0.0000000000000000000 ) ) ;
#311 = DIMENSIONAL_EXPONENTS ( 1.000000000000000000, 0.0000000000000000000, 0.0000000000000000000, 0.0000000000000000000, 0.0000000000000000000, 0.0000000000000000000, 0.0000000000000000000 ) ;
#312 = DIRECTION ( 'NONE',  ( -1.000000000000000000, 0.0000000000000000000, 0.0000000000000000000 ) ) ;
#313 = ADVANCED_FACE ( 'NONE', ( #54 ), #115, .T. ) ;
#314 = STYLED_ITEM ( 'NONE', ( #102 ), #78 ) ;
#315 = DIRECTION ( 'NONE',  ( -1.000000000000000000, 0.0000000000000000000, 0.0000000000000000000 ) ) ;
#316 = LINE ( 'NONE', #309, #301 ) ;
#317 = EDGE_CURVE ( 'NONE', #66, #122, #249, .T. ) ;
#318 = DIRECTION ( 'NONE',  ( -0.0000000000000000000, -0.0000000000000000000, -1.000000000000000000 ) ) ;
#319 = CARTESIAN_POINT ( 'NONE',  ( 0.02854350000000003065, 3.495570591146251498E-18, 0.0000000000000000000 ) ) ;
#320 = EDGE_LOOP ( 'NONE', ( #123, #59 ) ) ;
#321 = EDGE_CURVE ( 'NONE', #144, #376, #56, .T. ) ;
#322 = ORIENTED_EDGE ( 'NONE', *, *, #60, .F. ) ;
#323 = CARTESIAN_POINT ( 'NONE',  ( 0.0000000000000000000, 0.0000000000000000000, 0.05905500000000000332 ) ) ;
#324 = AXIS2_PLACEMENT_3D ( 'NONE', #65, #11, #22 ) ;
#325 = AXIS2_PLACEMENT_3D ( 'NONE', #89, #289, #197 ) ;
#326 = SURFACE_STYLE_USAGE ( .BOTH. , #328 ) ;
#327 =( NAMED_UNIT ( * ) SI_UNIT ( $, .STERADIAN. ) SOLID_ANGLE_UNIT ( ) );
#328 = SURFACE_SIDE_STYLE ('',( #239 ) ) ;
#329 = FILL_AREA_STYLE_COLOUR ( '', #168 ) ;
#330 = ORIENTED_EDGE ( 'NONE', *, *, #262, .F. ) ;
#331 = CYLINDRICAL_SURFACE ( 'NONE', #173, 0.02854350000000003065 ) ;
#332 = CIRCLE ( 'NONE', #375, 0.02952454725000001542 ) ;
#333 = EDGE_LOOP ( 'NONE', ( #349, #138, #346, #39 ) ) ;
#334 = CARTESIAN_POINT ( 'NONE',  ( 0.0000000000000000000, 0.0000000000000000000, 0.0000000000000000000 ) ) ;
#335 = FILL_AREA_STYLE ('',( #329 ) ) ;
#336 = EDGE_CURVE ( 'NONE', #227, #373, #23, .T. ) ;
#337 = CARTESIAN_POINT ( 'NONE',  ( -0.02952454725000001542, 0.0000000000000000000, 0.05905500000000000332 ) ) ;
#338 = AXIS2_PLACEMENT_3D ( 'NONE', #215, #280, #246 ) ;
#339 = DIRECTION ( 'NONE',  ( -0.0000000000000000000, -0.0000000000000000000, -1.000000000000000000 ) ) ;
#340 = CARTESIAN_POINT ( 'NONE',  ( -0.02854350000000000984, 0.0000000000000000000, 0.06461879543311099816 ) ) ;
#341 = AXIS2_PLACEMENT_3D ( 'NONE', #170, #318, #51 ) ;
#342 = DIRECTION ( 'NONE',  ( -0.0000000000000000000, -0.0000000000000000000, -1.000000000000000000 ) ) ;
#343 = CARTESIAN_POINT ( 'NONE',  ( 0.0000000000000000000, 0.0000000000000000000, 0.0000000000000000000 ) ) ;
#344 = LINE ( 'NONE', #169, #234 ) ;
#345 = CIRCLE ( 'NONE', #25, 0.02854350000000000984 ) ;
#346 = ORIENTED_EDGE ( 'NONE', *, *, #321, .F. ) ;
#347 = AXIS2_PLACEMENT_3D ( 'NONE', #343, #265, #2 ) ;
#348 = EDGE_LOOP ( 'NONE', ( #90, #230, #208, #190 ) ) ;
#349 = ORIENTED_EDGE ( 'NONE', *, *, #288, .T. ) ;
#350 =( NAMED_UNIT ( * ) SI_UNIT ( $, .STERADIAN. ) SOLID_ANGLE_UNIT ( ) );
#351 = AXIS2_PLACEMENT_3D ( 'NONE', #147, #206, #63 ) ;
#352 = CARTESIAN_POINT ( 'NONE',  ( 0.02952454725000001542, 3.615714228598730888E-18, 0.05905500000000000332 ) ) ;
#353 = FACE_OUTER_BOUND ( 'NONE', #52, .T. ) ;
#354 = PRESENTATION_STYLE_ASSIGNMENT (( #237 ) ) ;
#355 = PRODUCT ( 'Micro_SFBM-015-9', 'Micro_SFBM-015-9', '', ( #358 ) ) ;
#356 = VERTEX_POINT ( 'NONE', #84 ) ;
#357 = DIRECTION ( 'NONE',  ( -0.0000000000000000000, -0.0000000000000000000, -1.000000000000000000 ) ) ;
#358 = PRODUCT_CONTEXT ( 'NONE', #236, 'mechanical' ) ;
#359 = CARTESIAN_POINT ( 'NONE',  ( 0.0000000000000000000, 0.0000000000000000000, 2.244094000000000033 ) ) ;
#360 = LENGTH_MEASURE_WITH_UNIT ( LENGTH_MEASURE( 0.02539999999999999897 ), #72 );
#361 = CIRCLE ( 'NONE', #186, 0.02854350000000000984 ) ;
#362 = DIRECTION ( 'NONE',  ( -0.1736481776669304145, 0.0000000000000000000, -0.9848077530122080203 ) ) ;
#363 = EDGE_CURVE ( 'NONE', #203, #372, #244, .T. ) ;
#364 = ADVANCED_FACE ( 'NONE', ( #187 ), #121, .T. ) ;
#365 = DIRECTION ( 'NONE',  ( -0.0000000000000000000, -0.0000000000000000000, -1.000000000000000000 ) ) ;
#366 = FACE_OUTER_BOUND ( 'NONE', #333, .T. ) ;
#367 = CARTESIAN_POINT ( 'NONE',  ( 0.0000000000000000000, 0.0000000000000000000, 0.0000000000000000000 ) ) ;
#368 = DIRECTION ( 'NONE',  ( 0.0000000000000000000, 0.0000000000000000000, 1.000000000000000000 ) ) ;
#369 = CARTESIAN_POINT ( 'NONE',  ( 0.02952454725000001542, 3.615714228598730888E-18, 0.0000000000000000000 ) ) ;
#370 = EDGE_CURVE ( 'NONE', #372, #203, #281, .T. ) ;
#371 = MECHANICAL_DESIGN_GEOMETRIC_PRESENTATION_REPRESENTATION (  '', ( #314 ), #119 ) ;
#372 = VERTEX_POINT ( 'NONE', #352 ) ;
#373 = VERTEX_POINT ( 'NONE', #98 ) ;
#374 = EDGE_LOOP ( 'NONE', ( #271, #172 ) ) ;
#375 = AXIS2_PLACEMENT_3D ( 'NONE', #334, #157, #310 ) ;
#376 = VERTEX_POINT ( 'NONE', #210 ) ;
#377 = EDGE_CURVE ( 'NONE', #294, #91, #316, .T. ) ;
#378 = VERTEX_POINT ( 'NONE', #247 ) ;
#379 = ADVANCED_FACE ( 'NONE', ( #366 ), #125, .T. ) ;
ENDSEC;
END-ISO-10303-21;
