ISO-10303-21;
HEADER;
FILE_DESCRIPTION (( 'STEP AP214' ),
    '1' );
FILE_NAME ('59790.STEP',
    '2023-07-24T15:58:02',
    ( '' ),
    ( '' ),
    'SwSTEP 2.0',
    'SolidWorks 2023',
    '' );
FILE_SCHEMA (( 'AUTOMOTIVE_DESIGN' ));
ENDSEC;

DATA;
#1 = PRESENTATION_STYLE_ASSIGNMENT (( #119 ) ) ;
#2 = DIRECTION ( 'NONE',  ( 0.000000000000000000, 0.000000000000000000, -1.000000000000000000 ) ) ;
#3 = COLOUR_RGB ( '',0.7921568627450980005, 0.8196078431372548767, 0.9333333333333333481 ) ;
#4 = ORIENTED_EDGE ( 'NONE', *, *, #265, .F. ) ;
#5 = UNCERTAINTY_MEASURE_WITH_UNIT (LENGTH_MEASURE( 1.000000000000000082E-05 ), #7, 'distance_accuracy_value', 'NONE');
#6 = EDGE_LOOP ( 'NONE', ( #87, #4 ) ) ;
#7 =( LENGTH_UNIT ( ) NAMED_UNIT ( * ) SI_UNIT ( .MILLI., .METRE. ) );
#8 = DIRECTION ( 'NONE',  ( -0.000000000000000000, -1.000000000000000000, -0.000000000000000000 ) ) ;
#9 = ORIENTED_EDGE ( 'NONE', *, *, #136, .F. ) ;
#10 = CARTESIAN_POINT ( 'NONE',  ( 0.000000000000000000, 64.00000000000000000, 0.000000000000000000 ) ) ;
#11 = CYLINDRICAL_SURFACE ( 'NONE', #29, 12.50000000000000000 ) ;
#12 = DIRECTION ( 'NONE',  ( -7.227423732672903446E-17, 1.000000000000000000, -0.000000000000000000 ) ) ;
#13 = AXIS2_PLACEMENT_3D ( 'NONE', #220, #12, #31 ) ;
#14 = EDGE_CURVE ( 'NONE', #217, #269, #86, .T. ) ;
#15 = CARTESIAN_POINT ( 'NONE',  ( 12.50000000000000000, 125.0000000000000000, 1.530808498934191916E-15 ) ) ;
#16 =( NAMED_UNIT ( * ) SI_UNIT ( $, .STERADIAN. ) SOLID_ANGLE_UNIT ( ) );
#17 = CARTESIAN_POINT ( 'NONE',  ( 0.000000000000000000, 64.00000000000000000, 0.000000000000000000 ) ) ;
#18 =( GEOMETRIC_REPRESENTATION_CONTEXT ( 3 ) GLOBAL_UNCERTAINTY_ASSIGNED_CONTEXT ( ( #111 ) ) GLOBAL_UNIT_ASSIGNED_CONTEXT ( ( #76, #59, #33 ) ) REPRESENTATION_CONTEXT ( 'NONE', 'WORKASPACE' ) );
#19 = CARTESIAN_POINT ( 'NONE',  ( 0.000000000000000000, 64.00000000000000000, 0.000000000000000000 ) ) ;
#20 = SURFACE_STYLE_FILL_AREA ( #61 ) ;
#21 = CARTESIAN_POINT ( 'NONE',  ( -4.408728476930470067E-15, 125.0000000000000000, 0.000000000000000000 ) ) ;
#22 = PRESENTATION_STYLE_ASSIGNMENT (( #154 ) ) ;
#23 = ORIENTED_EDGE ( 'NONE', *, *, #14, .T. ) ;
#24 = AXIS2_PLACEMENT_3D ( 'NONE', #190, #270, #52 ) ;
#25 = EDGE_LOOP ( 'NONE', ( #9, #231, #117, #53 ) ) ;
#26 = EDGE_LOOP ( 'NONE', ( #73, #28, #247, #197 ) ) ;
#27 = ADVANCED_FACE ( 'NONE', ( #170 ), #122, .T. ) ;
#28 = ORIENTED_EDGE ( 'NONE', *, *, #136, .T. ) ;
#29 = AXIS2_PLACEMENT_3D ( 'NONE', #281, #126, #204 ) ;
#30 = CYLINDRICAL_SURFACE ( 'NONE', #124, 12.50000000000000000 ) ;
#31 = DIRECTION ( 'NONE',  ( -1.000000000000000000, 0.000000000000000000, 0.000000000000000000 ) ) ;
#32 = DIRECTION ( 'NONE',  ( 0.000000000000000000, 0.000000000000000000, -1.000000000000000000 ) ) ;
#33 =( NAMED_UNIT ( * ) SI_UNIT ( $, .STERADIAN. ) SOLID_ANGLE_UNIT ( ) );
#34 = AXIS2_PLACEMENT_3D ( 'NONE', #21, #209, #245 ) ;
#35 = CARTESIAN_POINT ( 'NONE',  ( -12.50000000000000000, 64.00000000000000000, 0.000000000000000000 ) ) ;
#36 = COLOUR_RGB ( '',1.000000000000000000, 0.000000000000000000, 0.000000000000000000 ) ;
#37 = APPLICATION_CONTEXT ( 'automotive_design' ) ;
#38 = DIRECTION ( 'NONE',  ( -1.000000000000000000, 0.000000000000000000, 0.000000000000000000 ) ) ;
#39 = SURFACE_SIDE_STYLE ('',( #20 ) ) ;
#40 = PRESENTATION_STYLE_ASSIGNMENT (( #241 ) ) ;
#41 = PRESENTATION_STYLE_ASSIGNMENT (( #242 ) ) ;
#42 =( NAMED_UNIT ( * ) PLANE_ANGLE_UNIT ( ) SI_UNIT ( $, .RADIAN. ) );
#43 =( GEOMETRIC_REPRESENTATION_CONTEXT ( 3 ) GLOBAL_UNCERTAINTY_ASSIGNED_CONTEXT ( ( #283 ) ) GLOBAL_UNIT_ASSIGNED_CONTEXT ( ( #200, #42, #262 ) ) REPRESENTATION_CONTEXT ( 'NONE', 'WORKASPACE' ) );
#44 = AXIS2_PLACEMENT_3D ( 'NONE', #17, #184, #282 ) ;
#45 = FACE_OUTER_BOUND ( 'NONE', #173, .T. ) ;
#46 = ORIENTED_EDGE ( 'NONE', *, *, #254, .T. ) ;
#47 = PRODUCT_RELATED_PRODUCT_CATEGORY ( 'part', '', ( #180 ) ) ;
#48 = DIRECTION ( 'NONE',  ( 0.000000000000000000, 0.000000000000000000, -1.000000000000000000 ) ) ;
#49 = ORIENTED_EDGE ( 'NONE', *, *, #183, .T. ) ;
#50 = FACE_OUTER_BOUND ( 'NONE', #6, .T. ) ;
#51 = CIRCLE ( 'NONE', #62, 12.50000000000000000 ) ;
#52 = DIRECTION ( 'NONE',  ( -1.000000000000000000, 0.000000000000000000, 0.000000000000000000 ) ) ;
#53 = ORIENTED_EDGE ( 'NONE', *, *, #254, .F. ) ;
#54 = STYLED_ITEM ( 'NONE', ( #1 ), #82 ) ;
#55 = SHAPE_DEFINITION_REPRESENTATION ( #78, #201 ) ;
#56 = EDGE_LOOP ( 'NONE', ( #138, #95, #196, #97 ) ) ;
#57 = PRESENTATION_LAYER_ASSIGNMENT (  '', '', ( #221 ) ) ;
#58 = PRESENTATION_LAYER_ASSIGNMENT (  '', '', ( #125 ) ) ;
#59 =( NAMED_UNIT ( * ) PLANE_ANGLE_UNIT ( ) SI_UNIT ( $, .RADIAN. ) );
#60 = EDGE_CURVE ( 'NONE', #158, #217, #89, .T. ) ;
#61 = FILL_AREA_STYLE ('',( #132 ) ) ;
#62 = AXIS2_PLACEMENT_3D ( 'NONE', #240, #188, #38 ) ;
#63 =( NAMED_UNIT ( * ) PLANE_ANGLE_UNIT ( ) SI_UNIT ( $, .RADIAN. ) );
#64 = STYLED_ITEM ( 'NONE', ( #22 ), #224 ) ;
#65 = CIRCLE ( 'NONE', #101, 12.50000000000000000 ) ;
#66 = SURFACE_STYLE_FILL_AREA ( #186 ) ;
#67 = CARTESIAN_POINT ( 'NONE',  ( -12.50000000000001066, 125.0000000000000000, 0.000000000000000000 ) ) ;
#68 = ORIENTED_EDGE ( 'NONE', *, *, #145, .T. ) ;
#69 = SURFACE_STYLE_FILL_AREA ( #268 ) ;
#70 = VERTEX_POINT ( 'NONE', #230 ) ;
#71 = CIRCLE ( 'NONE', #255, 12.50000000000000000 ) ;
#72 = AXIS2_PLACEMENT_3D ( 'NONE', #227, #203, #278 ) ;
#73 = ORIENTED_EDGE ( 'NONE', *, *, #177, .T. ) ;
#74 = DIRECTION ( 'NONE',  ( 0.000000000000000000, 0.000000000000000000, 1.000000000000000000 ) ) ;
#75 = DIRECTION ( 'NONE',  ( 0.000000000000000000, 1.000000000000000000, 0.000000000000000000 ) ) ;
#76 =( LENGTH_UNIT ( ) NAMED_UNIT ( * ) SI_UNIT ( .MILLI., .METRE. ) );
#77 = AXIS2_PLACEMENT_3D ( 'NONE', #142, #258, #148 ) ;
#78 = PRODUCT_DEFINITION_SHAPE ( 'NONE', 'NONE',  #131 ) ;
#79 = SURFACE_STYLE_USAGE ( .BOTH. , #156 ) ;
#80 = FILL_AREA_STYLE ('',( #102 ) ) ;
#81 = CLOSED_SHELL ( 'NONE', ( #27, #207, #91, #274 ) ) ;
#82 = ADVANCED_FACE ( 'NONE', ( #253 ), #30, .T. ) ;
#83 = FILL_AREA_STYLE_COLOUR ( '', #3 ) ;
#84 = DIRECTION ( 'NONE',  ( -0.000000000000000000, -1.000000000000000000, -0.000000000000000000 ) ) ;
#85 = UNCERTAINTY_MEASURE_WITH_UNIT (LENGTH_MEASURE( 1.000000000000000082E-05 ), #88, 'distance_accuracy_value', 'NONE');
#86 = CIRCLE ( 'NONE', #77, 12.50000000000000000 ) ;
#87 = ORIENTED_EDGE ( 'NONE', *, *, #183, .F. ) ;
#88 =( LENGTH_UNIT ( ) NAMED_UNIT ( * ) SI_UNIT ( .MILLI., .METRE. ) );
#89 = LINE ( 'NONE', #194, #171 ) ;
#90 = FILL_AREA_STYLE_COLOUR ( '', #36 ) ;
#91 = ADVANCED_FACE ( 'NONE', ( #287 ), #248, .T. ) ;
#92 = LINE ( 'NONE', #123, #260 ) ;
#93 = VECTOR ( 'NONE', #8, 1000.000000000000000 ) ;
#94 = CARTESIAN_POINT ( 'NONE',  ( 0.000000000000000000, 0.000000000000000000, 0.000000000000000000 ) ) ;
#95 = ORIENTED_EDGE ( 'NONE', *, *, #265, .T. ) ;
#96 = FACE_OUTER_BOUND ( 'NONE', #251, .T. ) ;
#97 = ORIENTED_EDGE ( 'NONE', *, *, #99, .F. ) ;
#98 =( NAMED_UNIT ( * ) PLANE_ANGLE_UNIT ( ) SI_UNIT ( $, .RADIAN. ) );
#99 = EDGE_CURVE ( 'NONE', #269, #217, #104, .T. ) ;
#100 = MECHANICAL_DESIGN_GEOMETRIC_PRESENTATION_REPRESENTATION (  '', ( #64 ), #219 ) ;
#101 = AXIS2_PLACEMENT_3D ( 'NONE', #129, #105, #137 ) ;
#102 = FILL_AREA_STYLE_COLOUR ( '', #228 ) ;
#103 = SURFACE_STYLE_FILL_AREA ( #80 ) ;
#104 = CIRCLE ( 'NONE', #271, 12.50000000000000000 ) ;
#105 = DIRECTION ( 'NONE',  ( -7.227423732672903446E-17, 1.000000000000000000, -0.000000000000000000 ) ) ;
#106 =( LENGTH_UNIT ( ) NAMED_UNIT ( * ) SI_UNIT ( .MILLI., .METRE. ) );
#107 =( LENGTH_UNIT ( ) NAMED_UNIT ( * ) SI_UNIT ( .MILLI., .METRE. ) );
#108 = EDGE_CURVE ( 'NONE', #234, #269, #272, .T. ) ;
#109 =( NAMED_UNIT ( * ) PLANE_ANGLE_UNIT ( ) SI_UNIT ( $, .RADIAN. ) );
#110 = DIRECTION ( 'NONE',  ( -7.227423732672903446E-17, 1.000000000000000000, -0.000000000000000000 ) ) ;
#111 = UNCERTAINTY_MEASURE_WITH_UNIT (LENGTH_MEASURE( 1.000000000000000082E-05 ), #76, 'distance_accuracy_value', 'NONE');
#112 = MECHANICAL_DESIGN_GEOMETRIC_PRESENTATION_REPRESENTATION (  '', ( #221 ), #208 ) ;
#113 = FILL_AREA_STYLE ('',( #210 ) ) ;
#114 = MECHANICAL_DESIGN_GEOMETRIC_PRESENTATION_REPRESENTATION (  '', ( #125 ), #202 ) ;
#115 = SURFACE_STYLE_USAGE ( .BOTH. , #229 ) ;
#116 = CARTESIAN_POINT ( 'NONE',  ( 0.000000000000000000, 0.000000000000000000, 0.000000000000000000 ) ) ;
#117 = ORIENTED_EDGE ( 'NONE', *, *, #237, .T. ) ;
#118 = STYLED_ITEM ( 'NONE', ( #212 ), #189 ) ;
#119 = SURFACE_STYLE_USAGE ( .BOTH. , #167 ) ;
#120 = VECTOR ( 'NONE', #110, 1000.000000000000000 ) ;
#121 = PLANE ( 'NONE',  #182 ) ;
#122 = CYLINDRICAL_SURFACE ( 'NONE', #13, 12.50000000000000355 ) ;
#123 = CARTESIAN_POINT ( 'NONE',  ( 12.49999999999999822, 124.9999999999999858, 1.530808498934191916E-15 ) ) ;
#124 = AXIS2_PLACEMENT_3D ( 'NONE', #235, #84, #32 ) ;
#125 = STYLED_ITEM ( 'NONE', ( #40 ), #264 ) ;
#126 = DIRECTION ( 'NONE',  ( -0.000000000000000000, -1.000000000000000000, -0.000000000000000000 ) ) ;
#127 = DIRECTION ( 'NONE',  ( -1.000000000000000000, 0.000000000000000000, 0.000000000000000000 ) ) ;
#128 =( LENGTH_UNIT ( ) NAMED_UNIT ( * ) SI_UNIT ( .MILLI., .METRE. ) );
#129 = CARTESIAN_POINT ( 'NONE',  ( 7.703719777548943412E-31, 64.00000000000000000, 0.000000000000000000 ) ) ;
#130 = LINE ( 'NONE', #135, #120 ) ;
#131 = PRODUCT_DEFINITION ( 'UNKNOWN', '', #236, #161 ) ;
#132 = FILL_AREA_STYLE_COLOUR ( '', #199 ) ;
#133 = MECHANICAL_DESIGN_GEOMETRIC_PRESENTATION_REPRESENTATION (  '', ( #118 ), #18 ) ;
#134 = CARTESIAN_POINT ( 'NONE',  ( 0.000000000000000000, 64.00000000000000000, -12.50000000000000000 ) ) ;
#135 = CARTESIAN_POINT ( 'NONE',  ( -12.50000000000000888, 124.9999999999999858, 0.000000000000000000 ) ) ;
#136 = EDGE_CURVE ( 'NONE', #70, #178, #92, .T. ) ;
#137 = DIRECTION ( 'NONE',  ( -1.000000000000000000, 0.000000000000000000, 0.000000000000000000 ) ) ;
#138 = ORIENTED_EDGE ( 'NONE', *, *, #108, .F. ) ;
#139 = COLOUR_RGB ( '',1.000000000000000000, 0.000000000000000000, 0.000000000000000000 ) ;
#140 = SURFACE_STYLE_FILL_AREA ( #113 ) ;
#141 = EDGE_LOOP ( 'NONE', ( #23, #168 ) ) ;
#142 = CARTESIAN_POINT ( 'NONE',  ( 0.000000000000000000, 0.000000000000000000, 0.000000000000000000 ) ) ;
#143 = PRODUCT_CONTEXT ( 'NONE', #238, 'mechanical' ) ;
#144 = VERTEX_POINT ( 'NONE', #35 ) ;
#145 = EDGE_CURVE ( 'NONE', #160, #178, #249, .T. ) ;
#146 =( NAMED_UNIT ( * ) SI_UNIT ( $, .STERADIAN. ) SOLID_ANGLE_UNIT ( ) );
#147 =( GEOMETRIC_REPRESENTATION_CONTEXT ( 3 ) GLOBAL_UNCERTAINTY_ASSIGNED_CONTEXT ( ( #85 ) ) GLOBAL_UNIT_ASSIGNED_CONTEXT ( ( #88, #98, #146 ) ) REPRESENTATION_CONTEXT ( 'NONE', 'WORKASPACE' ) );
#148 = DIRECTION ( 'NONE',  ( 0.000000000000000000, 0.000000000000000000, -1.000000000000000000 ) ) ;
#149 = FILL_AREA_STYLE ('',( #277 ) ) ;
#150 = FACE_OUTER_BOUND ( 'NONE', #214, .T. ) ;
#151 = CARTESIAN_POINT ( 'NONE',  ( 1.530808498934191521E-15, 0.000000000000000000, 12.50000000000000000 ) ) ;
#152 = SURFACE_SIDE_STYLE ('',( #103 ) ) ;
#153 = PLANE ( 'NONE',  #155 ) ;
#154 = SURFACE_STYLE_USAGE ( .BOTH. , #39 ) ;
#155 = AXIS2_PLACEMENT_3D ( 'NONE', #263, #222, #266 ) ;
#156 = SURFACE_SIDE_STYLE ('',( #243 ) ) ;
#157 =( NAMED_UNIT ( * ) SI_UNIT ( $, .STERADIAN. ) SOLID_ANGLE_UNIT ( ) );
#158 = VERTEX_POINT ( 'NONE', #134 ) ;
#159 =( NAMED_UNIT ( * ) PLANE_ANGLE_UNIT ( ) SI_UNIT ( $, .RADIAN. ) );
#160 = VERTEX_POINT ( 'NONE', #67 ) ;
#161 = PRODUCT_DEFINITION_CONTEXT ( 'detailed design', #37, 'design' ) ;
#162 =( NAMED_UNIT ( * ) SI_UNIT ( $, .STERADIAN. ) SOLID_ANGLE_UNIT ( ) );
#163 = PRESENTATION_LAYER_ASSIGNMENT (  '', '', ( #215 ) ) ;
#164 =( NAMED_UNIT ( * ) PLANE_ANGLE_UNIT ( ) SI_UNIT ( $, .RADIAN. ) );
#165 = ORIENTED_EDGE ( 'NONE', *, *, #273, .F. ) ;
#166 = DIRECTION ( 'NONE',  ( 0.000000000000000000, 0.000000000000000000, -1.000000000000000000 ) ) ;
#167 = SURFACE_SIDE_STYLE ('',( #69 ) ) ;
#168 = ORIENTED_EDGE ( 'NONE', *, *, #99, .T. ) ;
#169 = DIRECTION ( 'NONE',  ( -0.000000000000000000, -1.000000000000000000, -0.000000000000000000 ) ) ;
#170 = FACE_OUTER_BOUND ( 'NONE', #26, .T. ) ;
#171 = VECTOR ( 'NONE', #169, 1000.000000000000000 ) ;
#172 =( NAMED_UNIT ( * ) SI_UNIT ( $, .STERADIAN. ) SOLID_ANGLE_UNIT ( ) );
#173 = EDGE_LOOP ( 'NONE', ( #68, #46 ) ) ;
#174 = DIRECTION ( 'NONE',  ( -7.227423732672903446E-17, 1.000000000000000000, -0.000000000000000000 ) ) ;
#175 = APPLICATION_PROTOCOL_DEFINITION ( 'draft international standard', 'automotive_design', 1998, #238 ) ;
#176 = DIRECTION ( 'NONE',  ( 0.000000000000000000, -0.000000000000000000, 1.000000000000000000 ) ) ;
#177 = EDGE_CURVE ( 'NONE', #144, #70, #51, .T. ) ;
#178 = VERTEX_POINT ( 'NONE', #15 ) ;
#179 = CIRCLE ( 'NONE', #44, 12.50000000000000000 ) ;
#180 = PRODUCT ( '59790', '59790', '', ( #143 ) ) ;
#181 = MANIFOLD_SOLID_BREP ( 'Revolve - Cutting Edge', #185 ) ;
#182 = AXIS2_PLACEMENT_3D ( 'NONE', #10, #75, #176 ) ;
#183 = EDGE_CURVE ( 'NONE', #158, #234, #71, .T. ) ;
#184 = DIRECTION ( 'NONE',  ( -0.000000000000000000, -1.000000000000000000, -0.000000000000000000 ) ) ;
#185 = CLOSED_SHELL ( 'NONE', ( #192, #189, #82, #224 ) ) ;
#186 = FILL_AREA_STYLE ('',( #83 ) ) ;
#187 = UNCERTAINTY_MEASURE_WITH_UNIT (LENGTH_MEASURE( 1.000000000000000082E-05 ), #128, 'distance_accuracy_value', 'NONE');
#188 = DIRECTION ( 'NONE',  ( -7.227423732672903446E-17, 1.000000000000000000, -0.000000000000000000 ) ) ;
#189 = ADVANCED_FACE ( 'NONE', ( #50 ), #121, .T. ) ;
#190 = CARTESIAN_POINT ( 'NONE',  ( -4.408728476930469278E-15, 124.9999999999999858, 0.000000000000000000 ) ) ;
#191 =( GEOMETRIC_REPRESENTATION_CONTEXT ( 3 ) GLOBAL_UNCERTAINTY_ASSIGNED_CONTEXT ( ( #5 ) ) GLOBAL_UNIT_ASSIGNED_CONTEXT ( ( #7, #164, #172 ) ) REPRESENTATION_CONTEXT ( 'NONE', 'WORKASPACE' ) );
#192 = ADVANCED_FACE ( 'NONE', ( #96 ), #11, .T. ) ;
#193 = UNCERTAINTY_MEASURE_WITH_UNIT (LENGTH_MEASURE( 1.000000000000000082E-05 ), #106, 'distance_accuracy_value', 'NONE');
#194 = CARTESIAN_POINT ( 'NONE',  ( 0.000000000000000000, 0.000000000000000000, -12.50000000000000000 ) ) ;
#195 = AXIS2_PLACEMENT_3D ( 'NONE', #275, #280, #127 ) ;
#196 = ORIENTED_EDGE ( 'NONE', *, *, #60, .T. ) ;
#197 = ORIENTED_EDGE ( 'NONE', *, *, #237, .F. ) ;
#198 = CARTESIAN_POINT ( 'NONE',  ( 1.530808498934191521E-15, 0.000000000000000000, 12.50000000000000000 ) ) ;
#199 = COLOUR_RGB ( '',1.000000000000000000, 0.000000000000000000, 0.000000000000000000 ) ;
#200 =( LENGTH_UNIT ( ) NAMED_UNIT ( * ) SI_UNIT ( .MILLI., .METRE. ) );
#201 = ADVANCED_BREP_SHAPE_REPRESENTATION ( '59790', ( #181, #264, #216 ), #147 ) ;
#202 =( GEOMETRIC_REPRESENTATION_CONTEXT ( 3 ) GLOBAL_UNCERTAINTY_ASSIGNED_CONTEXT ( ( #252 ) ) GLOBAL_UNIT_ASSIGNED_CONTEXT ( ( #107, #159, #157 ) ) REPRESENTATION_CONTEXT ( 'NONE', 'WORKASPACE' ) );
#203 = DIRECTION ( 'NONE',  ( 7.227423732672903446E-17, -1.000000000000000000, 0.000000000000000000 ) ) ;
#204 = DIRECTION ( 'NONE',  ( 0.000000000000000000, 0.000000000000000000, -1.000000000000000000 ) ) ;
#205 = PLANE ( 'NONE',  #72 ) ;
#206 = PLANE ( 'NONE',  #261 ) ;
#207 = ADVANCED_FACE ( 'NONE', ( #150 ), #153, .F. ) ;
#208 =( GEOMETRIC_REPRESENTATION_CONTEXT ( 3 ) GLOBAL_UNCERTAINTY_ASSIGNED_CONTEXT ( ( #193 ) ) GLOBAL_UNIT_ASSIGNED_CONTEXT ( ( #106, #109, #162 ) ) REPRESENTATION_CONTEXT ( 'NONE', 'WORKASPACE' ) );
#209 = DIRECTION ( 'NONE',  ( -7.227423732672903446E-17, 1.000000000000000000, -0.000000000000000000 ) ) ;
#210 = FILL_AREA_STYLE_COLOUR ( '', #139 ) ;
#211 = ORIENTED_EDGE ( 'NONE', *, *, #108, .T. ) ;
#212 = PRESENTATION_STYLE_ASSIGNMENT (( #115 ) ) ;
#213 = DIRECTION ( 'NONE',  ( -0.000000000000000000, -1.000000000000000000, -0.000000000000000000 ) ) ;
#214 = EDGE_LOOP ( 'NONE', ( #288, #165 ) ) ;
#215 = STYLED_ITEM ( 'NONE', ( #244 ), #192 ) ;
#216 = AXIS2_PLACEMENT_3D ( 'NONE', #94, #74, #256 ) ;
#217 = VERTEX_POINT ( 'NONE', #226 ) ;
#218 = PRESENTATION_LAYER_ASSIGNMENT (  '', '', ( #118 ) ) ;
#219 =( GEOMETRIC_REPRESENTATION_CONTEXT ( 3 ) GLOBAL_UNCERTAINTY_ASSIGNED_CONTEXT ( ( #187 ) ) GLOBAL_UNIT_ASSIGNED_CONTEXT ( ( #128, #63, #16 ) ) REPRESENTATION_CONTEXT ( 'NONE', 'WORKASPACE' ) );
#220 = CARTESIAN_POINT ( 'NONE',  ( -4.408728476930469278E-15, 124.9999999999999858, 0.000000000000000000 ) ) ;
#221 = STYLED_ITEM ( 'NONE', ( #41 ), #181 ) ;
#222 = DIRECTION ( 'NONE',  ( -7.227423732672903446E-17, 1.000000000000000000, 0.000000000000000000 ) ) ;
#223 = FACE_OUTER_BOUND ( 'NONE', #141, .T. ) ;
#224 = ADVANCED_FACE ( 'NONE', ( #223 ), #206, .T. ) ;
#225 = DIRECTION ( 'NONE',  ( 0.000000000000000000, -1.000000000000000000, -0.000000000000000000 ) ) ;
#226 = CARTESIAN_POINT ( 'NONE',  ( 0.000000000000000000, 0.000000000000000000, -12.50000000000000000 ) ) ;
#227 = CARTESIAN_POINT ( 'NONE',  ( 12.50000000000000000, 125.0000000000000000, 0.000000000000000000 ) ) ;
#228 = COLOUR_RGB ( '',0.7921568627450980005, 0.8196078431372548767, 0.9333333333333333481 ) ;
#229 = SURFACE_SIDE_STYLE ('',( #140 ) ) ;
#230 = CARTESIAN_POINT ( 'NONE',  ( 12.50000000000000000, 64.00000000000000000, 1.530808498934191916E-15 ) ) ;
#231 = ORIENTED_EDGE ( 'NONE', *, *, #273, .T. ) ;
#232 = ORIENTED_EDGE ( 'NONE', *, *, #60, .F. ) ;
#233 = PRESENTATION_LAYER_ASSIGNMENT (  '', '', ( #64 ) ) ;
#234 = VERTEX_POINT ( 'NONE', #286 ) ;
#235 = CARTESIAN_POINT ( 'NONE',  ( 0.000000000000000000, 0.000000000000000000, 0.000000000000000000 ) ) ;
#236 = PRODUCT_DEFINITION_FORMATION_WITH_SPECIFIED_SOURCE ( 'ANY', '', #180, .NOT_KNOWN. ) ;
#237 = EDGE_CURVE ( 'NONE', #144, #160, #130, .T. ) ;
#238 = APPLICATION_CONTEXT ( 'automotive_design' ) ;
#239 = MECHANICAL_DESIGN_GEOMETRIC_PRESENTATION_REPRESENTATION (  '', ( #54 ), #191 ) ;
#240 = CARTESIAN_POINT ( 'NONE',  ( 7.703719777548943412E-31, 64.00000000000000000, 0.000000000000000000 ) ) ;
#241 = SURFACE_STYLE_USAGE ( .BOTH. , #246 ) ;
#242 = SURFACE_STYLE_USAGE ( .BOTH. , #152 ) ;
#243 = SURFACE_STYLE_FILL_AREA ( #149 ) ;
#244 = PRESENTATION_STYLE_ASSIGNMENT (( #79 ) ) ;
#245 = DIRECTION ( 'NONE',  ( -1.000000000000000000, 0.000000000000000000, 0.000000000000000000 ) ) ;
#246 = SURFACE_SIDE_STYLE ('',( #66 ) ) ;
#247 = ORIENTED_EDGE ( 'NONE', *, *, #145, .F. ) ;
#248 = CYLINDRICAL_SURFACE ( 'NONE', #24, 12.50000000000000355 ) ;
#249 = CIRCLE ( 'NONE', #195, 12.50000000000000533 ) ;
#250 = PRESENTATION_LAYER_ASSIGNMENT (  '', '', ( #54 ) ) ;
#251 = EDGE_LOOP ( 'NONE', ( #49, #211, #285, #232 ) ) ;
#252 = UNCERTAINTY_MEASURE_WITH_UNIT (LENGTH_MEASURE( 1.000000000000000082E-05 ), #107, 'distance_accuracy_value', 'NONE');
#253 = FACE_OUTER_BOUND ( 'NONE', #56, .T. ) ;
#254 = EDGE_CURVE ( 'NONE', #178, #160, #276, .T. ) ;
#255 = AXIS2_PLACEMENT_3D ( 'NONE', #19, #267, #48 ) ;
#256 = DIRECTION ( 'NONE',  ( 1.000000000000000000, 0.000000000000000000, 0.000000000000000000 ) ) ;
#257 = APPLICATION_PROTOCOL_DEFINITION ( 'draft international standard', 'automotive_design', 1998, #37 ) ;
#258 = DIRECTION ( 'NONE',  ( -0.000000000000000000, -1.000000000000000000, -0.000000000000000000 ) ) ;
#259 = MECHANICAL_DESIGN_GEOMETRIC_PRESENTATION_REPRESENTATION (  '', ( #215 ), #43 ) ;
#260 = VECTOR ( 'NONE', #174, 1000.000000000000000 ) ;
#261 = AXIS2_PLACEMENT_3D ( 'NONE', #279, #225, #166 ) ;
#262 =( NAMED_UNIT ( * ) SI_UNIT ( $, .STERADIAN. ) SOLID_ANGLE_UNIT ( ) );
#263 = CARTESIAN_POINT ( 'NONE',  ( 3.264728363225220430E-32, 64.00000000000000000, 0.000000000000000000 ) ) ;
#264 = MANIFOLD_SOLID_BREP ( 'Revolve - Tool Body (Straight Shanked)', #81 ) ;
#265 = EDGE_CURVE ( 'NONE', #234, #158, #179, .T. ) ;
#266 = DIRECTION ( 'NONE',  ( -1.000000000000000000, -7.227423732672903446E-17, 0.000000000000000000 ) ) ;
#267 = DIRECTION ( 'NONE',  ( -0.000000000000000000, -1.000000000000000000, -0.000000000000000000 ) ) ;
#268 = FILL_AREA_STYLE ('',( #90 ) ) ;
#269 = VERTEX_POINT ( 'NONE', #151 ) ;
#270 = DIRECTION ( 'NONE',  ( -7.227423732672903446E-17, 1.000000000000000000, -0.000000000000000000 ) ) ;
#271 = AXIS2_PLACEMENT_3D ( 'NONE', #116, #213, #2 ) ;
#272 = LINE ( 'NONE', #198, #93 ) ;
#273 = EDGE_CURVE ( 'NONE', #70, #144, #65, .T. ) ;
#274 = ADVANCED_FACE ( 'NONE', ( #45 ), #205, .F. ) ;
#275 = CARTESIAN_POINT ( 'NONE',  ( -4.408728476930470067E-15, 125.0000000000000000, 0.000000000000000000 ) ) ;
#276 = CIRCLE ( 'NONE', #34, 12.50000000000000533 ) ;
#277 = FILL_AREA_STYLE_COLOUR ( '', #284 ) ;
#278 = DIRECTION ( 'NONE',  ( 1.000000000000000000, 7.227423732672903446E-17, 0.000000000000000000 ) ) ;
#279 = CARTESIAN_POINT ( 'NONE',  ( 0.000000000000000000, 0.000000000000000000, 0.000000000000000000 ) ) ;
#280 = DIRECTION ( 'NONE',  ( -7.227423732672903446E-17, 1.000000000000000000, -0.000000000000000000 ) ) ;
#281 = CARTESIAN_POINT ( 'NONE',  ( 0.000000000000000000, 0.000000000000000000, 0.000000000000000000 ) ) ;
#282 = DIRECTION ( 'NONE',  ( 0.000000000000000000, 0.000000000000000000, -1.000000000000000000 ) ) ;
#283 = UNCERTAINTY_MEASURE_WITH_UNIT (LENGTH_MEASURE( 1.000000000000000082E-05 ), #200, 'distance_accuracy_value', 'NONE');
#284 = COLOUR_RGB ( '',1.000000000000000000, 0.000000000000000000, 0.000000000000000000 ) ;
#285 = ORIENTED_EDGE ( 'NONE', *, *, #14, .F. ) ;
#286 = CARTESIAN_POINT ( 'NONE',  ( 1.530808498934191521E-15, 64.00000000000000000, 12.50000000000000000 ) ) ;
#287 = FACE_OUTER_BOUND ( 'NONE', #25, .T. ) ;
#288 = ORIENTED_EDGE ( 'NONE', *, *, #177, .F. ) ;
ENDSEC;
END-ISO-10303-21;
