ISO-10303-21;
HEADER;
FILE_DESCRIPTION (( 'STEP AP214' ),
    '1' );
FILE_NAME ('Micro_RMEM-018-2.STEP',
    '2021-09-02T00:15:30',
    ( '' ),
    ( '' ),
    'SwSTEP 2.0',
    'SolidWorks 2020',
    '' );
FILE_SCHEMA (( 'AUTOMOTIVE_DESIGN' ));
ENDSEC;

DATA;
#1 = CIRCLE ( 'NONE', #143, 0.05905500000000000332 ) ;
#2 = STYLED_ITEM ( 'NONE', ( #248 ), #267 ) ;
#3 = CARTESIAN_POINT ( 'NONE',  ( 0.05905500000000000332, 7.232151672364695422E-18, 1.496062999999999921 ) ) ;
#4 = PRODUCT_DEFINITION ( 'UNKNOWN', '', #174, #14 ) ;
#5 = DIRECTION ( 'NONE',  ( 1.000000000000000000, 0.0000000000000000000, 0.0000000000000000000 ) ) ;
#6 = CARTESIAN_POINT ( 'NONE',  ( 0.03539756699999999784, 4.334951712415397505E-18, 0.0000000000000000000 ) ) ;
#7 = CIRCLE ( 'NONE', #12, 0.03539756699999999784 ) ;
#8 = LINE ( 'NONE', #125, #127 ) ;
#9 = FACE_OUTER_BOUND ( 'NONE', #169, .T. ) ;
#10 = EDGE_CURVE ( 'NONE', #48, #138, #179, .T. ) ;
#11 = CYLINDRICAL_SURFACE ( 'NONE', #123, 0.03539756699999999784 ) ;
#12 = AXIS2_PLACEMENT_3D ( 'NONE', #188, #281, #80 ) ;
#13 = AXIS2_PLACEMENT_3D ( 'NONE', #254, #272, #230 ) ;
#14 = PRODUCT_DEFINITION_CONTEXT ( 'detailed design', #218, 'design' ) ;
#15 = FACE_OUTER_BOUND ( 'NONE', #96, .T. ) ;
#16 = DIRECTION ( 'NONE',  ( 1.224646799147353207E-16, 0.0000000000000000000, 1.000000000000000000 ) ) ;
#17 = ADVANCED_FACE ( 'NONE', ( #28 ), #11, .T. ) ;
#18 = AXIS2_PLACEMENT_3D ( 'NONE', #234, #170, #124 ) ;
#19 = ORIENTED_EDGE ( 'NONE', *, *, #152, .T. ) ;
#20 = ORIENTED_EDGE ( 'NONE', *, *, #37, .T. ) ;
#21 = ORIENTED_EDGE ( 'NONE', *, *, #258, .F. ) ;
#22 = AXIS2_PLACEMENT_3D ( 'NONE', #157, #249, #222 ) ;
#23 = VERTEX_POINT ( 'NONE', #257 ) ;
#24 = FILL_AREA_STYLE ('',( #203 ) ) ;
#25 = CARTESIAN_POINT ( 'NONE',  ( 0.04405499999999973326, 5.395181473643630390E-18, 1.496062999999999921 ) ) ;
#26 = ORIENTED_EDGE ( 'NONE', *, *, #242, .F. ) ;
#27 = CARTESIAN_POINT ( 'NONE',  ( 0.0000000000000000000, 0.0000000000000000000, 1.481062999999999574 ) ) ;
#28 = FACE_OUTER_BOUND ( 'NONE', #225, .T. ) ;
#29 = CIRCLE ( 'NONE', #22, 0.05905500000000000332 ) ;
#30 = UNCERTAINTY_MEASURE_WITH_UNIT (LENGTH_MEASURE( 1.000000000000000082E-05 ), #135, 'distance_accuracy_value', 'NONE');
#31 = DIRECTION ( 'NONE',  ( -1.224646799147353207E-16, -0.0000000000000000000, -1.000000000000000000 ) ) ;
#32 = ADVANCED_FACE ( 'NONE', ( #9 ), #162, .T. ) ;
#33 = FACE_OUTER_BOUND ( 'NONE', #299, .T. ) ;
#34 = APPLICATION_CONTEXT ( 'automotive_design' ) ;
#35 =( GEOMETRIC_REPRESENTATION_CONTEXT ( 3 ) GLOBAL_UNCERTAINTY_ASSIGNED_CONTEXT ( ( #219 ) ) GLOBAL_UNIT_ASSIGNED_CONTEXT ( ( #161, #63, #40 ) ) REPRESENTATION_CONTEXT ( 'NONE', 'WORKASPACE' ) );
#36 = EDGE_CURVE ( 'NONE', #48, #44, #287, .T. ) ;
#37 = EDGE_CURVE ( 'NONE', #255, #48, #236, .T. ) ;
#38 = PLANE ( 'NONE',  #79 ) ;
#39 = AXIS2_PLACEMENT_3D ( 'NONE', #75, #256, #270 ) ;
#40 =( NAMED_UNIT ( * ) SI_UNIT ( $, .STERADIAN. ) SOLID_ANGLE_UNIT ( ) );
#41 = DIRECTION ( 'NONE',  ( -1.000000000000000000, 0.0000000000000000000, 0.0000000000000000000 ) ) ;
#42 = FACE_OUTER_BOUND ( 'NONE', #112, .T. ) ;
#43 = DIRECTION ( 'NONE',  ( -0.1736481776669311639, 2.126576849575782392E-17, 0.9848077530122080203 ) ) ;
#44 = VERTEX_POINT ( 'NONE', #247 ) ;
#45 =( NAMED_UNIT ( * ) PLANE_ANGLE_UNIT ( ) SI_UNIT ( $, .RADIAN. ) );
#46 = VECTOR ( 'NONE', #173, 39.37007874015748143 ) ;
#47 =( GEOMETRIC_REPRESENTATION_CONTEXT ( 3 ) GLOBAL_UNCERTAINTY_ASSIGNED_CONTEXT ( ( #189 ) ) GLOBAL_UNIT_ASSIGNED_CONTEXT ( ( #209, #45, #160 ) ) REPRESENTATION_CONTEXT ( 'NONE', 'WORKASPACE' ) );
#48 = VERTEX_POINT ( 'NONE', #136 ) ;
#49 = DIRECTION ( 'NONE',  ( -1.000000000000000000, 0.0000000000000000000, 1.224646799147353207E-16 ) ) ;
#50 = ORIENTED_EDGE ( 'NONE', *, *, #205, .F. ) ;
#51 = DIMENSIONAL_EXPONENTS ( 1.000000000000000000, 0.0000000000000000000, 0.0000000000000000000, 0.0000000000000000000, 0.0000000000000000000, 0.0000000000000000000, 0.0000000000000000000 ) ;
#52 = ORIENTED_EDGE ( 'NONE', *, *, #36, .T. ) ;
#53 = CARTESIAN_POINT ( 'NONE',  ( 0.0000000000000000000, 0.0000000000000000000, 1.496062999999999921 ) ) ;
#54 = AXIS2_PLACEMENT_3D ( 'NONE', #151, #212, #104 ) ;
#55 = AXIS2_PLACEMENT_3D ( 'NONE', #192, #260, #5 ) ;
#56 = CYLINDRICAL_SURFACE ( 'NONE', #175, 0.05905500000000000332 ) ;
#57 = DIRECTION ( 'NONE',  ( 1.224646799147353207E-16, 0.0000000000000000000, 1.000000000000000000 ) ) ;
#58 = EDGE_CURVE ( 'NONE', #23, #71, #198, .T. ) ;
#59 = FACE_OUTER_BOUND ( 'NONE', #292, .T. ) ;
#60 = DIRECTION ( 'NONE',  ( -0.0000000000000000000, -0.0000000000000000000, -1.000000000000000000 ) ) ;
#61 = ADVANCED_FACE ( 'NONE', ( #42 ), #38, .T. ) ;
#62 = CARTESIAN_POINT ( 'NONE',  ( -0.03539756699999997008, 5.783551692390045693E-18, 0.2086610000000000131 ) ) ;
#63 =( NAMED_UNIT ( * ) PLANE_ANGLE_UNIT ( ) SI_UNIT ( $, .RADIAN. ) );
#64 = ORIENTED_EDGE ( 'NONE', *, *, #158, .F. ) ;
#65 = DIRECTION ( 'NONE',  ( 0.0000000000000000000, 0.0000000000000000000, -1.000000000000000000 ) ) ;
#66 = PRODUCT_CONTEXT ( 'NONE', #34, 'mechanical' ) ;
#67 = SURFACE_STYLE_FILL_AREA ( #24 ) ;
#68 = DIRECTION ( 'NONE',  ( 1.000000000000000000, 0.0000000000000000000, 0.0000000000000000000 ) ) ;
#69 = ORIENTED_EDGE ( 'NONE', *, *, #152, .F. ) ;
#70 = EDGE_LOOP ( 'NONE', ( #20, #163, #113, #21 ) ) ;
#71 = VERTEX_POINT ( 'NONE', #245 ) ;
#72 =( LENGTH_UNIT ( ) NAMED_UNIT ( * ) SI_UNIT ( $, .METRE. ) );
#73 = DIMENSIONAL_EXPONENTS ( 1.000000000000000000, 0.0000000000000000000, 0.0000000000000000000, 0.0000000000000000000, 0.0000000000000000000, 0.0000000000000000000, 0.0000000000000000000 ) ;
#74 = ORIENTED_EDGE ( 'NONE', *, *, #176, .T. ) ;
#75 = CARTESIAN_POINT ( 'NONE',  ( 2.555360257568858967E-17, 0.0000000000000000000, 0.2086610000000000131 ) ) ;
#76 = SURFACE_STYLE_FILL_AREA ( #276 ) ;
#77 = EDGE_LOOP ( 'NONE', ( #206, #251, #295, #139 ) ) ;
#78 = CARTESIAN_POINT ( 'NONE',  ( -0.05905500000000000332, 0.0000000000000000000, 1.481062999999999574 ) ) ;
#79 = AXIS2_PLACEMENT_3D ( 'NONE', #167, #231, #110 ) ;
#80 = DIRECTION ( 'NONE',  ( -1.000000000000000000, 0.0000000000000000000, 1.224646799147353207E-16 ) ) ;
#81 = EDGE_CURVE ( 'NONE', #255, #273, #134, .T. ) ;
#82 = LINE ( 'NONE', #262, #46 ) ;
#83 = CYLINDRICAL_SURFACE ( 'NONE', #183, 0.03539756699999999784 ) ;
#84 = ADVANCED_FACE ( 'NONE', ( #15 ), #284, .T. ) ;
#85 = AXIS2_PLACEMENT_3D ( 'NONE', #108, #65, #41 ) ;
#86 = CARTESIAN_POINT ( 'NONE',  ( 0.0000000000000000000, 0.0000000000000000000, 0.0000000000000000000 ) ) ;
#87 = DIRECTION ( 'NONE',  ( 1.000000000000000000, 0.0000000000000000000, 0.0000000000000000000 ) ) ;
#88 = AXIS2_PLACEMENT_3D ( 'NONE', #95, #16, #195 ) ;
#89 = CLOSED_SHELL ( 'NONE', ( #168, #32, #84, #107, #200, #61, #91, #191, #17, #238 ) ) ;
#90 = ORIENTED_EDGE ( 'NONE', *, *, #102, .F. ) ;
#91 = ADVANCED_FACE ( 'NONE', ( #197 ), #93, .T. ) ;
#92 = ORIENTED_EDGE ( 'NONE', *, *, #37, .F. ) ;
#93 = CONICAL_SURFACE ( 'NONE', #288, 0.04405499999999973326, 0.7853981633974491672 ) ;
#94 = PRESENTATION_LAYER_ASSIGNMENT (  '', '', ( #213 ) ) ;
#95 = CARTESIAN_POINT ( 'NONE',  ( 2.555360257568858967E-17, 0.0000000000000000000, 0.2086610000000000131 ) ) ;
#96 = EDGE_LOOP ( 'NONE', ( #90, #271, #26, #140 ) ) ;
#97 = ORIENTED_EDGE ( 'NONE', *, *, #176, .F. ) ;
#98 = DIRECTION ( 'NONE',  ( 0.7071067811865482389, 8.659560562354941486E-17, -0.7071067811865469066 ) ) ;
#99 = DIRECTION ( 'NONE',  ( -1.000000000000000000, 0.0000000000000000000, 1.224646799147353207E-16 ) ) ;
#100 = CIRCLE ( 'NONE', #13, 0.03539756699999999784 ) ;
#101 = CARTESIAN_POINT ( 'NONE',  ( -0.03539756699999999784, 0.0000000000000000000, 8.669903424830795010E-18 ) ) ;
#102 = EDGE_CURVE ( 'NONE', #71, #23, #280, .T. ) ;
#103 = CARTESIAN_POINT ( 'NONE',  ( 0.0000000000000000000, 0.0000000000000000000, 1.496062999999999921 ) ) ;
#104 = DIRECTION ( 'NONE',  ( -1.000000000000000000, 0.0000000000000000000, 1.224646799147353207E-16 ) ) ;
#105 = EDGE_CURVE ( 'NONE', #273, #44, #29, .T. ) ;
#106 = EDGE_CURVE ( 'NONE', #71, #155, #142, .T. ) ;
#107 = ADVANCED_FACE ( 'NONE', ( #182 ), #190, .T. ) ;
#108 = CARTESIAN_POINT ( 'NONE',  ( 0.0000000000000000000, 0.0000000000000000000, 1.496062999999999921 ) ) ;
#109 = LENGTH_MEASURE_WITH_UNIT ( LENGTH_MEASURE( 0.02539999999999999897 ), #269 );
#110 = DIRECTION ( 'NONE',  ( 1.000000000000000000, 0.0000000000000000000, -0.0000000000000000000 ) ) ;
#111 = CARTESIAN_POINT ( 'NONE',  ( 0.0000000000000000000, 0.0000000000000000000, 0.0000000000000000000 ) ) ;
#112 = EDGE_LOOP ( 'NONE', ( #141, #208 ) ) ;
#113 = ORIENTED_EDGE ( 'NONE', *, *, #196, .F. ) ;
#114 = ORIENTED_EDGE ( 'NONE', *, *, #10, .F. ) ;
#115 = SURFACE_STYLE_USAGE ( .BOTH. , #266 ) ;
#116 = MECHANICAL_DESIGN_GEOMETRIC_PRESENTATION_REPRESENTATION (  '', ( #2 ), #47 ) ;
#117 = PRESENTATION_LAYER_ASSIGNMENT (  '', '', ( #2 ) ) ;
#118 = SURFACE_SIDE_STYLE ('',( #67 ) ) ;
#119 = CARTESIAN_POINT ( 'NONE',  ( -0.03539756699999997008, 4.334951712415396735E-18, 0.2086610000000000131 ) ) ;
#120 = ORIENTED_EDGE ( 'NONE', *, *, #196, .T. ) ;
#121 = DIRECTION ( 'NONE',  ( 1.000000000000000000, 0.0000000000000000000, 0.0000000000000000000 ) ) ;
#122 = DIRECTION ( 'NONE',  ( 1.000000000000000000, 0.0000000000000000000, 0.0000000000000000000 ) ) ;
#123 = AXIS2_PLACEMENT_3D ( 'NONE', #111, #202, #49 ) ;
#124 = DIRECTION ( 'NONE',  ( -1.000000000000000000, 0.0000000000000000000, 0.0000000000000000000 ) ) ;
#125 = CARTESIAN_POINT ( 'NONE',  ( -0.05905500000000000332, 0.0000000000000000000, 1.496062999999999921 ) ) ;
#126 = LINE ( 'NONE', #3, #228 ) ;
#127 = VECTOR ( 'NONE', #283, 39.37007874015748143 ) ;
#128 = VECTOR ( 'NONE', #214, 39.37007874015748143 ) ;
#129 = DIRECTION ( 'NONE',  ( -1.224646799147353207E-16, -0.0000000000000000000, -1.000000000000000000 ) ) ;
#130 = LENGTH_MEASURE_WITH_UNIT ( LENGTH_MEASURE( 0.02539999999999999897 ), #252 );
#131 = VECTOR ( 'NONE', #43, 39.37007874015747433 ) ;
#132 = DIRECTION ( 'NONE',  ( 0.0000000000000000000, 0.0000000000000000000, -1.000000000000000000 ) ) ;
#133 = PRODUCT ( 'Micro_RMEM-018-2', 'Micro_RMEM-018-2', '', ( #66 ) ) ;
#134 = LINE ( 'NONE', #119, #131 ) ;
#135 =( CONVERSION_BASED_UNIT ( 'INCH', #109 ) LENGTH_UNIT ( ) NAMED_UNIT ( #73 ) );
#136 = CARTESIAN_POINT ( 'NONE',  ( 0.03539756700000001866, 0.0000000000000000000, 0.2086610000000000131 ) ) ;
#137 = AXIS2_PLACEMENT_3D ( 'NONE', #201, #289, #68 ) ;
#138 = VERTEX_POINT ( 'NONE', #6 ) ;
#139 = ORIENTED_EDGE ( 'NONE', *, *, #187, .F. ) ;
#140 = ORIENTED_EDGE ( 'NONE', *, *, #232, .F. ) ;
#141 = ORIENTED_EDGE ( 'NONE', *, *, #58, .T. ) ;
#142 = LINE ( 'NONE', #25, #240 ) ;
#143 = AXIS2_PLACEMENT_3D ( 'NONE', #27, #261, #122 ) ;
#144 = AXIS2_PLACEMENT_3D ( 'NONE', #86, #244, #204 ) ;
#145 = ORIENTED_EDGE ( 'NONE', *, *, #187, .T. ) ;
#146 = CARTESIAN_POINT ( 'NONE',  ( 0.0000000000000000000, 0.0000000000000000000, 0.0000000000000000000 ) ) ;
#147 = DIRECTION ( 'NONE',  ( 1.000000000000000000, 0.0000000000000000000, 0.0000000000000000000 ) ) ;
#148 = CARTESIAN_POINT ( 'NONE',  ( 0.03539756699999999784, 4.334951712415397505E-18, -4.334951712415397505E-18 ) ) ;
#149 = CARTESIAN_POINT ( 'NONE',  ( 0.0000000000000000000, 0.0000000000000000000, 0.0000000000000000000 ) ) ;
#150 = AXIS2_PLACEMENT_3D ( 'NONE', #265, #57, #147 ) ;
#151 = CARTESIAN_POINT ( 'NONE',  ( 5.308784739067854796E-34, 0.0000000000000000000, 4.334951712415397505E-18 ) ) ;
#152 = EDGE_CURVE ( 'NONE', #44, #273, #194, .T. ) ;
#153 = CONICAL_SURFACE ( 'NONE', #150, 0.03539756699999999784, 0.1745329251994338360 ) ;
#154 = CARTESIAN_POINT ( 'NONE',  ( -0.03539756699999999784, 0.0000000000000000000, 4.334951712415397505E-18 ) ) ;
#155 = VERTEX_POINT ( 'NONE', #235 ) ;
#156 = DIRECTION ( 'NONE',  ( 0.1736481776669313304, 0.0000000000000000000, 0.9848077530122077983 ) ) ;
#157 = CARTESIAN_POINT ( 'NONE',  ( 4.198444003634610860E-17, 0.0000000000000000000, 0.3428289696717233825 ) ) ;
#158 = EDGE_CURVE ( 'NONE', #155, #44, #126, .T. ) ;
#159 = ORIENTED_EDGE ( 'NONE', *, *, #58, .F. ) ;
#160 =( NAMED_UNIT ( * ) SI_UNIT ( $, .STERADIAN. ) SOLID_ANGLE_UNIT ( ) );
#161 =( CONVERSION_BASED_UNIT ( 'INCH', #130 ) LENGTH_UNIT ( ) NAMED_UNIT ( #294 ) );
#162 = CONICAL_SURFACE ( 'NONE', #88, 0.03539756699999999784, 0.1745329251994338360 ) ;
#163 = ORIENTED_EDGE ( 'NONE', *, *, #10, .T. ) ;
#164 = APPLICATION_PROTOCOL_DEFINITION ( 'draft international standard', 'automotive_design', 1998, #218 ) ;
#165 = ORIENTED_EDGE ( 'NONE', *, *, #36, .F. ) ;
#166 =( NAMED_UNIT ( * ) PLANE_ANGLE_UNIT ( ) SI_UNIT ( $, .RADIAN. ) );
#167 = CARTESIAN_POINT ( 'NONE',  ( 0.0000000000000000000, 0.0000000000000000000, 1.496062999999999921 ) ) ;
#168 = ADVANCED_FACE ( 'NONE', ( #239 ), #83, .T. ) ;
#169 = EDGE_LOOP ( 'NONE', ( #92, #291, #275, #165 ) ) ;
#170 = DIRECTION ( 'NONE',  ( -0.0000000000000000000, -0.0000000000000000000, -1.000000000000000000 ) ) ;
#171 = FILL_AREA_STYLE_COLOUR ( '', #185 ) ;
#172 = FACE_OUTER_BOUND ( 'NONE', #279, .T. ) ;
#173 = DIRECTION ( 'NONE',  ( -0.7071067811865482389, 0.0000000000000000000, -0.7071067811865469066 ) ) ;
#174 = PRODUCT_DEFINITION_FORMATION_WITH_SPECIFIED_SOURCE ( 'ANY', '', #133, .NOT_KNOWN. ) ;
#175 = AXIS2_PLACEMENT_3D ( 'NONE', #103, #184, #216 ) ;
#176 = EDGE_CURVE ( 'NONE', #155, #211, #1, .T. ) ;
#177 = ORIENTED_EDGE ( 'NONE', *, *, #205, .T. ) ;
#178 = ORIENTED_EDGE ( 'NONE', *, *, #232, .T. ) ;
#179 = LINE ( 'NONE', #148, #128 ) ;
#180 = LENGTH_MEASURE_WITH_UNIT ( LENGTH_MEASURE( 0.02539999999999999897 ), #72 );
#181 = VERTEX_POINT ( 'NONE', #101 ) ;
#182 = FACE_OUTER_BOUND ( 'NONE', #77, .T. ) ;
#183 = AXIS2_PLACEMENT_3D ( 'NONE', #146, #217, #99 ) ;
#184 = DIRECTION ( 'NONE',  ( -0.0000000000000000000, -0.0000000000000000000, -1.000000000000000000 ) ) ;
#185 = COLOUR_RGB ( '',0.7921568627450980005, 0.8196078431372548767, 0.9333333333333333481 ) ;
#186 =( GEOMETRIC_REPRESENTATION_CONTEXT ( 3 ) GLOBAL_UNCERTAINTY_ASSIGNED_CONTEXT ( ( #30 ) ) GLOBAL_UNIT_ASSIGNED_CONTEXT ( ( #135, #166, #224 ) ) REPRESENTATION_CONTEXT ( 'NONE', 'WORKASPACE' ) );
#187 = EDGE_CURVE ( 'NONE', #211, #273, #8, .T. ) ;
#188 = CARTESIAN_POINT ( 'NONE',  ( 5.308784739067854796E-34, 0.0000000000000000000, 4.334951712415397505E-18 ) ) ;
#189 = UNCERTAINTY_MEASURE_WITH_UNIT (LENGTH_MEASURE( 1.000000000000000082E-05 ), #209, 'distance_accuracy_value', 'NONE');
#190 = CYLINDRICAL_SURFACE ( 'NONE', #18, 0.05905500000000000332 ) ;
#191 = ADVANCED_FACE ( 'NONE', ( #33 ), #153, .T. ) ;
#192 = CARTESIAN_POINT ( 'NONE',  ( 0.0000000000000000000, 0.0000000000000000000, 1.481062999999999574 ) ) ;
#193 = AXIS2_PLACEMENT_3D ( 'NONE', #285, #31, #121 ) ;
#194 = CIRCLE ( 'NONE', #193, 0.05905500000000000332 ) ;
#195 = DIRECTION ( 'NONE',  ( 1.000000000000000000, 0.0000000000000000000, 0.0000000000000000000 ) ) ;
#196 = EDGE_CURVE ( 'NONE', #181, #138, #7, .T. ) ;
#197 = FACE_OUTER_BOUND ( 'NONE', #297, .T. ) ;
#198 = CIRCLE ( 'NONE', #274, 0.04405499999999973326 ) ;
#199 = VECTOR ( 'NONE', #129, 39.37007874015748143 ) ;
#200 = ADVANCED_FACE ( 'NONE', ( #172 ), #56, .T. ) ;
#201 = CARTESIAN_POINT ( 'NONE',  ( 0.0000000000000000000, 0.0000000000000000000, 1.496062999999999921 ) ) ;
#202 = DIRECTION ( 'NONE',  ( -1.224646799147353207E-16, -0.0000000000000000000, -1.000000000000000000 ) ) ;
#203 = FILL_AREA_STYLE_COLOUR ( '', #246 ) ;
#204 = DIRECTION ( 'NONE',  ( 1.000000000000000000, 0.0000000000000000000, 0.0000000000000000000 ) ) ;
#205 = EDGE_CURVE ( 'NONE', #138, #181, #263, .T. ) ;
#206 = ORIENTED_EDGE ( 'NONE', *, *, #242, .T. ) ;
#207 = APPLICATION_PROTOCOL_DEFINITION ( 'draft international standard', 'automotive_design', 1998, #34 ) ;
#208 = ORIENTED_EDGE ( 'NONE', *, *, #102, .T. ) ;
#209 =( CONVERSION_BASED_UNIT ( 'INCH', #180 ) LENGTH_UNIT ( ) NAMED_UNIT ( #51 ) );
#210 = SURFACE_STYLE_USAGE ( .BOTH. , #118 ) ;
#211 = VERTEX_POINT ( 'NONE', #78 ) ;
#212 = DIRECTION ( 'NONE',  ( -1.224646799147353207E-16, -0.0000000000000000000, -1.000000000000000000 ) ) ;
#213 = STYLED_ITEM ( 'NONE', ( #227 ), #250 ) ;
#214 = DIRECTION ( 'NONE',  ( -1.224646799147353207E-16, -0.0000000000000000000, -1.000000000000000000 ) ) ;
#215 = DIRECTION ( 'NONE',  ( 0.0000000000000000000, 0.0000000000000000000, 1.000000000000000000 ) ) ;
#216 = DIRECTION ( 'NONE',  ( -1.000000000000000000, 0.0000000000000000000, 0.0000000000000000000 ) ) ;
#217 = DIRECTION ( 'NONE',  ( -1.224646799147353207E-16, -0.0000000000000000000, -1.000000000000000000 ) ) ;
#218 = APPLICATION_CONTEXT ( 'automotive_design' ) ;
#219 = UNCERTAINTY_MEASURE_WITH_UNIT (LENGTH_MEASURE( 1.000000000000000082E-05 ), #161, 'distance_accuracy_value', 'NONE');
#220 = PRODUCT_DEFINITION_SHAPE ( 'NONE', 'NONE',  #4 ) ;
#221 = CARTESIAN_POINT ( 'NONE',  ( 0.03539756700000001866, 0.0000000000000000000, 0.2086610000000000131 ) ) ;
#222 = DIRECTION ( 'NONE',  ( 1.000000000000000000, 0.0000000000000000000, 0.0000000000000000000 ) ) ;
#223 = CIRCLE ( 'NONE', #55, 0.05905500000000000332 ) ;
#224 =( NAMED_UNIT ( * ) SI_UNIT ( $, .STERADIAN. ) SOLID_ANGLE_UNIT ( ) );
#225 = EDGE_LOOP ( 'NONE', ( #114, #226, #233, #50 ) ) ;
#226 = ORIENTED_EDGE ( 'NONE', *, *, #278, .T. ) ;
#227 = PRESENTATION_STYLE_ASSIGNMENT (( #210 ) ) ;
#228 = VECTOR ( 'NONE', #60, 39.37007874015748143 ) ;
#229 = ORIENTED_EDGE ( 'NONE', *, *, #81, .F. ) ;
#230 = DIRECTION ( 'NONE',  ( -1.000000000000000000, 0.0000000000000000000, 0.0000000000000000000 ) ) ;
#231 = DIRECTION ( 'NONE',  ( 0.0000000000000000000, 0.0000000000000000000, 1.000000000000000000 ) ) ;
#232 = EDGE_CURVE ( 'NONE', #23, #211, #82, .T. ) ;
#233 = ORIENTED_EDGE ( 'NONE', *, *, #258, .T. ) ;
#234 = CARTESIAN_POINT ( 'NONE',  ( 0.0000000000000000000, 0.0000000000000000000, 1.496062999999999921 ) ) ;
#235 = CARTESIAN_POINT ( 'NONE',  ( 0.05905500000000000332, 7.232151672364695422E-18, 1.481062999999999574 ) ) ;
#236 = CIRCLE ( 'NONE', #39, 0.03539756699999999784 ) ;
#237 = DIRECTION ( 'NONE',  ( 1.000000000000000000, 0.0000000000000000000, -0.0000000000000000000 ) ) ;
#238 = ADVANCED_FACE ( 'NONE', ( #59 ), #264, .F. ) ;
#239 = FACE_OUTER_BOUND ( 'NONE', #70, .T. ) ;
#240 = VECTOR ( 'NONE', #98, 39.37007874015748143 ) ;
#241 = MECHANICAL_DESIGN_GEOMETRIC_PRESENTATION_REPRESENTATION (  '', ( #213 ), #35 ) ;
#242 = EDGE_CURVE ( 'NONE', #211, #155, #223, .T. ) ;
#243 = LINE ( 'NONE', #154, #199 ) ;
#244 = DIRECTION ( 'NONE',  ( 0.0000000000000000000, 0.0000000000000000000, 1.000000000000000000 ) ) ;
#245 = CARTESIAN_POINT ( 'NONE',  ( 0.04405499999999973326, 6.313666573004162521E-18, 1.496062999999999921 ) ) ;
#246 = COLOUR_RGB ( '',0.7921568627450980005, 0.8196078431372548767, 0.9333333333333333481 ) ;
#247 = CARTESIAN_POINT ( 'NONE',  ( 0.05905500000000004496, 7.232151672364700045E-18, 0.3428289696717233825 ) ) ;
#248 = PRESENTATION_STYLE_ASSIGNMENT (( #115 ) ) ;
#249 = DIRECTION ( 'NONE',  ( -1.224646799147353207E-16, -0.0000000000000000000, -1.000000000000000000 ) ) ;
#250 = ADVANCED_BREP_SHAPE_REPRESENTATION ( 'Micro_RMEM-018-2', ( #267, #144 ), #186 ) ;
#251 = ORIENTED_EDGE ( 'NONE', *, *, #158, .T. ) ;
#252 =( LENGTH_UNIT ( ) NAMED_UNIT ( * ) SI_UNIT ( $, .METRE. ) );
#253 = ORIENTED_EDGE ( 'NONE', *, *, #106, .F. ) ;
#254 = CARTESIAN_POINT ( 'NONE',  ( 2.555360257568858967E-17, 0.0000000000000000000, 0.2086610000000000131 ) ) ;
#255 = VERTEX_POINT ( 'NONE', #62 ) ;
#256 = DIRECTION ( 'NONE',  ( -1.224646799147353207E-16, -0.0000000000000000000, -1.000000000000000000 ) ) ;
#257 = CARTESIAN_POINT ( 'NONE',  ( -0.04405499999999973326, 0.0000000000000000000, 1.496062999999999921 ) ) ;
#258 = EDGE_CURVE ( 'NONE', #255, #181, #243, .T. ) ;
#259 = AXIS2_PLACEMENT_3D ( 'NONE', #149, #215, #237 ) ;
#260 = DIRECTION ( 'NONE',  ( 0.0000000000000000000, 0.0000000000000000000, -1.000000000000000000 ) ) ;
#261 = DIRECTION ( 'NONE',  ( 0.0000000000000000000, 0.0000000000000000000, -1.000000000000000000 ) ) ;
#262 = CARTESIAN_POINT ( 'NONE',  ( -0.04405499999999973326, 0.0000000000000000000, 1.496062999999999921 ) ) ;
#263 = CIRCLE ( 'NONE', #54, 0.03539756699999999784 ) ;
#264 = PLANE ( 'NONE',  #259 ) ;
#265 = CARTESIAN_POINT ( 'NONE',  ( 2.555360257568858967E-17, 0.0000000000000000000, 0.2086610000000000131 ) ) ;
#266 = SURFACE_SIDE_STYLE ('',( #76 ) ) ;
#267 = MANIFOLD_SOLID_BREP ( 'Cut-Revolve1', #89 ) ;
#268 = CARTESIAN_POINT ( 'NONE',  ( 0.0000000000000000000, 0.0000000000000000000, 1.496062999999999921 ) ) ;
#269 =( LENGTH_UNIT ( ) NAMED_UNIT ( * ) SI_UNIT ( $, .METRE. ) );
#270 = DIRECTION ( 'NONE',  ( -1.000000000000000000, 0.0000000000000000000, 0.0000000000000000000 ) ) ;
#271 = ORIENTED_EDGE ( 'NONE', *, *, #106, .T. ) ;
#272 = DIRECTION ( 'NONE',  ( -1.224646799147353207E-16, -0.0000000000000000000, -1.000000000000000000 ) ) ;
#273 = VERTEX_POINT ( 'NONE', #290 ) ;
#274 = AXIS2_PLACEMENT_3D ( 'NONE', #268, #296, #87 ) ;
#275 = ORIENTED_EDGE ( 'NONE', *, *, #105, .T. ) ;
#276 = FILL_AREA_STYLE ('',( #171 ) ) ;
#277 = ORIENTED_EDGE ( 'NONE', *, *, #278, .F. ) ;
#278 = EDGE_CURVE ( 'NONE', #48, #255, #100, .T. ) ;
#279 = EDGE_LOOP ( 'NONE', ( #64, #74, #145, #69 ) ) ;
#280 = CIRCLE ( 'NONE', #137, 0.04405499999999973326 ) ;
#281 = DIRECTION ( 'NONE',  ( -1.224646799147353207E-16, -0.0000000000000000000, -1.000000000000000000 ) ) ;
#282 = PRODUCT_RELATED_PRODUCT_CATEGORY ( 'part', '', ( #133 ) ) ;
#283 = DIRECTION ( 'NONE',  ( -0.0000000000000000000, -0.0000000000000000000, -1.000000000000000000 ) ) ;
#284 = CONICAL_SURFACE ( 'NONE', #85, 0.04405499999999973326, 0.7853981633974491672 ) ;
#285 = CARTESIAN_POINT ( 'NONE',  ( 4.198444003634610860E-17, 0.0000000000000000000, 0.3428289696717233825 ) ) ;
#286 = VECTOR ( 'NONE', #156, 39.37007874015748143 ) ;
#287 = LINE ( 'NONE', #221, #286 ) ;
#288 = AXIS2_PLACEMENT_3D ( 'NONE', #53, #132, #298 ) ;
#289 = DIRECTION ( 'NONE',  ( 0.0000000000000000000, 0.0000000000000000000, 1.000000000000000000 ) ) ;
#290 = CARTESIAN_POINT ( 'NONE',  ( -0.05905499999999996169, 0.0000000000000000000, 0.3428289696717233825 ) ) ;
#291 = ORIENTED_EDGE ( 'NONE', *, *, #81, .T. ) ;
#292 = EDGE_LOOP ( 'NONE', ( #120, #177 ) ) ;
#293 = SHAPE_DEFINITION_REPRESENTATION ( #220, #250 ) ;
#294 = DIMENSIONAL_EXPONENTS ( 1.000000000000000000, 0.0000000000000000000, 0.0000000000000000000, 0.0000000000000000000, 0.0000000000000000000, 0.0000000000000000000, 0.0000000000000000000 ) ;
#295 = ORIENTED_EDGE ( 'NONE', *, *, #105, .F. ) ;
#296 = DIRECTION ( 'NONE',  ( 0.0000000000000000000, 0.0000000000000000000, 1.000000000000000000 ) ) ;
#297 = EDGE_LOOP ( 'NONE', ( #253, #159, #178, #97 ) ) ;
#298 = DIRECTION ( 'NONE',  ( -1.000000000000000000, 0.0000000000000000000, 0.0000000000000000000 ) ) ;
#299 = EDGE_LOOP ( 'NONE', ( #229, #277, #52, #19 ) ) ;
ENDSEC;
END-ISO-10303-21;
