ISO-10303-21;
HEADER;
FILE_DESCRIPTION (( 'STEP AP214' ),
    '1' );
FILE_NAME ('Micro_RDC-30.STEP',
    '2021-08-31T17:00:41',
    ( '' ),
    ( '' ),
    'SwSTEP 2.0',
    'SolidWorks 2020',
    '' );
FILE_SCHEMA (( 'AUTOMOTIVE_DESIGN' ));
ENDSEC;

DATA;
#1 = DIRECTION ( 'NONE',  ( 0.0000000000000000000, 0.0000000000000000000, 1.000000000000000000 ) ) ;
#2 = EDGE_CURVE ( 'NONE', #292, #9, #122, .T. ) ;
#3 = CARTESIAN_POINT ( 'NONE',  ( 0.0000000000000000000, 0.0000000000000000000, 1.500000000000000222 ) ) ;
#4 = VERTEX_POINT ( 'NONE', #205 ) ;
#5 = DIRECTION ( 'NONE',  ( -0.7071067811865456854, 0.0000000000000000000, -0.7071067811865493491 ) ) ;
#6 = ORIENTED_EDGE ( 'NONE', *, *, #144, .T. ) ;
#7 = EDGE_CURVE ( 'NONE', #15, #281, #229, .T. ) ;
#8 = DIRECTION ( 'NONE',  ( -1.224646799147353454E-16, -0.0000000000000000000, -1.000000000000000000 ) ) ;
#9 = VERTEX_POINT ( 'NONE', #159 ) ;
#10 = SURFACE_SIDE_STYLE ('',( #247 ) ) ;
#11 = DIRECTION ( 'NONE',  ( -1.224646799147353454E-16, -0.0000000000000000000, -1.000000000000000000 ) ) ;
#12 = AXIS2_PLACEMENT_3D ( 'NONE', #296, #20, #182 ) ;
#13 = AXIS2_PLACEMENT_3D ( 'NONE', #45, #141, #40 ) ;
#14 = DIRECTION ( 'NONE',  ( 1.000000000000000000, 0.0000000000000000000, 0.0000000000000000000 ) ) ;
#15 = VERTEX_POINT ( 'NONE', #161 ) ;
#16 = CIRCLE ( 'NONE', #60, 0.04750000000000064587 ) ;
#17 = VECTOR ( 'NONE', #198, 39.37007874015748143 ) ;
#18 = SURFACE_STYLE_FILL_AREA ( #291 ) ;
#19 = ORIENTED_EDGE ( 'NONE', *, *, #2, .F. ) ;
#20 = DIRECTION ( 'NONE',  ( -1.224646799147353454E-16, -0.0000000000000000000, -1.000000000000000000 ) ) ;
#21 = AXIS2_PLACEMENT_3D ( 'NONE', #202, #295, #89 ) ;
#22 = ORIENTED_EDGE ( 'NONE', *, *, #165, .T. ) ;
#23 = FACE_OUTER_BOUND ( 'NONE', #78, .T. ) ;
#24 = EDGE_CURVE ( 'NONE', #292, #179, #66, .T. ) ;
#25 = DIRECTION ( 'NONE',  ( 1.000000000000000000, 0.0000000000000000000, 0.0000000000000000000 ) ) ;
#26 = ADVANCED_BREP_SHAPE_REPRESENTATION ( 'Micro_RDC-30', ( #71, #13 ), #299 ) ;
#27 = FACE_OUTER_BOUND ( 'NONE', #154, .T. ) ;
#28 = CYLINDRICAL_SURFACE ( 'NONE', #63, 0.06250000000000000000 ) ;
#29 = EDGE_LOOP ( 'NONE', ( #47, #62, #38, #22 ) ) ;
#30 = CARTESIAN_POINT ( 'NONE',  ( 0.04750000000000064587, 6.735557395310482421E-18, 1.500000000000000222 ) ) ;
#31 = AXIS2_PLACEMENT_3D ( 'NONE', #57, #151, #109 ) ;
#32 = PRODUCT ( 'Micro_RDC-30', 'Micro_RDC-30', '', ( #227 ) ) ;
#33 =( NAMED_UNIT ( * ) PLANE_ANGLE_UNIT ( ) SI_UNIT ( $, .RADIAN. ) );
#34 = EDGE_CURVE ( 'NONE', #237, #9, #266, .T. ) ;
#35 = CIRCLE ( 'NONE', #209, 0.06250000000000000000 ) ;
#36 = CIRCLE ( 'NONE', #44, 0.06250000000000000000 ) ;
#37 = DIRECTION ( 'NONE',  ( -1.224646799147353454E-16, -0.0000000000000000000, -1.000000000000000000 ) ) ;
#38 = ORIENTED_EDGE ( 'NONE', *, *, #2, .T. ) ;
#39 = ADVANCED_FACE ( 'NONE', ( #42 ), #163, .T. ) ;
#40 = DIRECTION ( 'NONE',  ( 1.000000000000000000, 0.0000000000000000000, 0.0000000000000000000 ) ) ;
#41 = CARTESIAN_POINT ( 'NONE',  ( 0.0000000000000000000, 0.0000000000000000000, 1.500000000000000222 ) ) ;
#42 = FACE_OUTER_BOUND ( 'NONE', #221, .T. ) ;
#43 = AXIS2_PLACEMENT_3D ( 'NONE', #72, #253, #211 ) ;
#44 = AXIS2_PLACEMENT_3D ( 'NONE', #260, #61, #107 ) ;
#45 = CARTESIAN_POINT ( 'NONE',  ( 0.0000000000000000000, 0.0000000000000000000, 0.0000000000000000000 ) ) ;
#46 = ADVANCED_FACE ( 'NONE', ( #178 ), #160, .T. ) ;
#47 = ORIENTED_EDGE ( 'NONE', *, *, #7, .F. ) ;
#48 = FILL_AREA_STYLE_COLOUR ( '', #218 ) ;
#49 = VECTOR ( 'NONE', #76, 39.37007874015748143 ) ;
#50 = FACE_OUTER_BOUND ( 'NONE', #102, .T. ) ;
#51 = EDGE_CURVE ( 'NONE', #281, #9, #136, .T. ) ;
#52 = CARTESIAN_POINT ( 'NONE',  ( 6.123233995736767268E-17, 0.0000000000000000000, 0.5000000000000000000 ) ) ;
#53 = FACE_OUTER_BOUND ( 'NONE', #29, .T. ) ;
#54 = UNCERTAINTY_MEASURE_WITH_UNIT (LENGTH_MEASURE( 1.000000000000000082E-05 ), #215, 'distance_accuracy_value', 'NONE');
#55 = CIRCLE ( 'NONE', #88, 0.06243749999999999994 ) ;
#56 = CARTESIAN_POINT ( 'NONE',  ( 0.0000000000000000000, 0.0000000000000000000, 1.485000000000000764 ) ) ;
#57 = CARTESIAN_POINT ( 'NONE',  ( 0.0000000000000000000, 0.0000000000000000000, 0.0000000000000000000 ) ) ;
#58 = VERTEX_POINT ( 'NONE', #140 ) ;
#59 = ORIENTED_EDGE ( 'NONE', *, *, #165, .F. ) ;
#60 = AXIS2_PLACEMENT_3D ( 'NONE', #111, #195, #14 ) ;
#61 = DIRECTION ( 'NONE',  ( 0.0000000000000000000, 0.0000000000000000000, -1.000000000000000000 ) ) ;
#62 = ORIENTED_EDGE ( 'NONE', *, *, #230, .F. ) ;
#63 = AXIS2_PLACEMENT_3D ( 'NONE', #252, #257, #167 ) ;
#64 = DIMENSIONAL_EXPONENTS ( 1.000000000000000000, 0.0000000000000000000, 0.0000000000000000000, 0.0000000000000000000, 0.0000000000000000000, 0.0000000000000000000, 0.0000000000000000000 ) ;
#65 = DIRECTION ( 'NONE',  ( -1.224646799147353454E-16, -0.0000000000000000000, -1.000000000000000000 ) ) ;
#66 = LINE ( 'NONE', #181, #271 ) ;
#67 = MECHANICAL_DESIGN_GEOMETRIC_PRESENTATION_REPRESENTATION (  '', ( #168 ), #213 ) ;
#68 =( CONVERSION_BASED_UNIT ( 'INCH', #206 ) LENGTH_UNIT ( ) NAMED_UNIT ( #267 ) );
#69 = PLANE ( 'NONE',  #155 ) ;
#70 = ORIENTED_EDGE ( 'NONE', *, *, #268, .T. ) ;
#71 = MANIFOLD_SOLID_BREP ( 'Cut-Revolve1', #113 ) ;
#72 = CARTESIAN_POINT ( 'NONE',  ( 0.0000000000000000000, 0.0000000000000000000, 1.500000000000000222 ) ) ;
#73 = DIRECTION ( 'NONE',  ( 0.0000000000000000000, 0.0000000000000000000, 1.000000000000000000 ) ) ;
#74 = DIRECTION ( 'NONE',  ( -1.224646799147353454E-16, -0.0000000000000000000, -1.000000000000000000 ) ) ;
#75 = ORIENTED_EDGE ( 'NONE', *, *, #51, .T. ) ;
#76 = DIRECTION ( 'NONE',  ( -0.0000000000000000000, -0.0000000000000000000, -1.000000000000000000 ) ) ;
#77 = EDGE_LOOP ( 'NONE', ( #263, #129, #172, #264 ) ) ;
#78 = EDGE_LOOP ( 'NONE', ( #275, #133 ) ) ;
#79 = ADVANCED_FACE ( 'NONE', ( #23 ), #69, .T. ) ;
#80 = ADVANCED_FACE ( 'NONE', ( #50 ), #234, .T. ) ;
#81 = CARTESIAN_POINT ( 'NONE',  ( 6.123233995736767268E-17, 0.0000000000000000000, 0.5000000000000000000 ) ) ;
#82 = CIRCLE ( 'NONE', #131, 0.06250000000000000000 ) ;
#83 = ORIENTED_EDGE ( 'NONE', *, *, #135, .F. ) ;
#84 = CIRCLE ( 'NONE', #120, 0.06243749999999999994 ) ;
#85 = SURFACE_SIDE_STYLE ('',( #18 ) ) ;
#86 = ORIENTED_EDGE ( 'NONE', *, *, #241, .T. ) ;
#87 = VERTEX_POINT ( 'NONE', #236 ) ;
#88 = AXIS2_PLACEMENT_3D ( 'NONE', #123, #74, #97 ) ;
#89 = DIRECTION ( 'NONE',  ( 1.000000000000000000, 0.0000000000000000000, 0.0000000000000000000 ) ) ;
#90 = EDGE_CURVE ( 'NONE', #15, #87, #164, .T. ) ;
#91 = CARTESIAN_POINT ( 'NONE',  ( 0.06243750000000006933, 0.0000000000000000000, 0.5000000000000000000 ) ) ;
#92 = CARTESIAN_POINT ( 'NONE',  ( 6.127574818941427268E-17, 0.0000000000000000000, 0.5003544551137260044 ) ) ;
#93 = AXIS2_PLACEMENT_3D ( 'NONE', #196, #37, #134 ) ;
#94 = CYLINDRICAL_SURFACE ( 'NONE', #239, 0.06243750000000001382 ) ;
#95 = UNCERTAINTY_MEASURE_WITH_UNIT (LENGTH_MEASURE( 1.000000000000000082E-05 ), #177, 'distance_accuracy_value', 'NONE');
#96 = ADVANCED_FACE ( 'NONE', ( #99 ), #149, .T. ) ;
#97 = DIRECTION ( 'NONE',  ( -1.000000000000000000, 0.0000000000000000000, 1.224646799147353700E-16 ) ) ;
#98 = ORIENTED_EDGE ( 'NONE', *, *, #241, .F. ) ;
#99 = FACE_OUTER_BOUND ( 'NONE', #235, .T. ) ;
#100 = EDGE_LOOP ( 'NONE', ( #98, #269, #6, #249 ) ) ;
#101 = DIRECTION ( 'NONE',  ( 0.0000000000000000000, 0.0000000000000000000, -1.000000000000000000 ) ) ;
#102 = EDGE_LOOP ( 'NONE', ( #112, #86, #83, #118 ) ) ;
#103 = CARTESIAN_POINT ( 'NONE',  ( 0.06243750000000006933, 0.0000000000000000000, 0.5000000000000000000 ) ) ;
#104 = EDGE_CURVE ( 'NONE', #87, #179, #55, .T. ) ;
#105 =( NAMED_UNIT ( * ) SI_UNIT ( $, .STERADIAN. ) SOLID_ANGLE_UNIT ( ) );
#106 = AXIS2_PLACEMENT_3D ( 'NONE', #276, #233, #191 ) ;
#107 = DIRECTION ( 'NONE',  ( 1.000000000000000000, 0.0000000000000000000, 0.0000000000000000000 ) ) ;
#108 = ADVANCED_FACE ( 'NONE', ( #272 ), #297, .T. ) ;
#109 = DIRECTION ( 'NONE',  ( 1.000000000000000000, 0.0000000000000000000, -0.0000000000000000000 ) ) ;
#110 = DIMENSIONAL_EXPONENTS ( 1.000000000000000000, 0.0000000000000000000, 0.0000000000000000000, 0.0000000000000000000, 0.0000000000000000000, 0.0000000000000000000, 0.0000000000000000000 ) ;
#111 = CARTESIAN_POINT ( 'NONE',  ( 0.0000000000000000000, 0.0000000000000000000, 1.500000000000000222 ) ) ;
#112 = ORIENTED_EDGE ( 'NONE', *, *, #225, .F. ) ;
#113 = CLOSED_SHELL ( 'NONE', ( #39, #96, #80, #108, #152, #79, #46, #121, #184, #187 ) ) ;
#114 = VERTEX_POINT ( 'NONE', #30 ) ;
#115 = CIRCLE ( 'NONE', #169, 0.06243750000000001382 ) ;
#116 = SURFACE_STYLE_USAGE ( .BOTH. , #85 ) ;
#117 = CARTESIAN_POINT ( 'NONE',  ( -0.06243749999999995137, 7.646388452176288915E-18, 0.5000000000000000000 ) ) ;
#118 = ORIENTED_EDGE ( 'NONE', *, *, #144, .F. ) ;
#119 = VECTOR ( 'NONE', #270, 39.37007874015748854 ) ;
#120 = AXIS2_PLACEMENT_3D ( 'NONE', #261, #282, #193 ) ;
#121 = ADVANCED_FACE ( 'NONE', ( #53 ), #200, .T. ) ;
#122 = LINE ( 'NONE', #91, #246 ) ;
#123 = CARTESIAN_POINT ( 'NONE',  ( 9.364125142994977476E-34, 0.0000000000000000000, 7.646388452176288915E-18 ) ) ;
#124 = PRODUCT_DEFINITION_CONTEXT ( 'detailed design', #201, 'design' ) ;
#125 = CARTESIAN_POINT ( 'NONE',  ( 0.06243749999999999994, 7.646388452176287375E-18, -9.478001694819074349E-34 ) ) ;
#126 = PLANE ( 'NONE',  #31 ) ;
#127 = PRODUCT_DEFINITION ( 'UNKNOWN', '', #174, #124 ) ;
#128 = FACE_OUTER_BOUND ( 'NONE', #248, .T. ) ;
#129 = ORIENTED_EDGE ( 'NONE', *, *, #230, .T. ) ;
#130 = DIRECTION ( 'NONE',  ( 1.224646799147353454E-16, 0.0000000000000000000, 1.000000000000000000 ) ) ;
#131 = AXIS2_PLACEMENT_3D ( 'NONE', #92, #232, #25 ) ;
#132 = LENGTH_MEASURE_WITH_UNIT ( LENGTH_MEASURE( 0.02539999999999999897 ), #220 );
#133 = ORIENTED_EDGE ( 'NONE', *, *, #225, .T. ) ;
#134 = DIRECTION ( 'NONE',  ( -1.000000000000000000, 0.0000000000000000000, 0.0000000000000000000 ) ) ;
#135 = EDGE_CURVE ( 'NONE', #58, #237, #35, .T. ) ;
#136 = CIRCLE ( 'NONE', #21, 0.06250000000000000000 ) ;
#137 = SURFACE_STYLE_USAGE ( .BOTH. , #10 ) ;
#138 = APPLICATION_PROTOCOL_DEFINITION ( 'draft international standard', 'automotive_design', 1998, #201 ) ;
#139 = EDGE_CURVE ( 'NONE', #58, #281, #279, .T. ) ;
#140 = CARTESIAN_POINT ( 'NONE',  ( -0.06250000000000000000, 0.0000000000000000000, 1.485000000000000764 ) ) ;
#141 = DIRECTION ( 'NONE',  ( 0.0000000000000000000, 0.0000000000000000000, 1.000000000000000000 ) ) ;
#142 = DIRECTION ( 'NONE',  ( 0.1736481776669312749, 0.0000000000000000000, 0.9848077530122077983 ) ) ;
#143 =( NAMED_UNIT ( * ) PLANE_ANGLE_UNIT ( ) SI_UNIT ( $, .RADIAN. ) );
#144 = EDGE_CURVE ( 'NONE', #4, #58, #147, .T. ) ;
#145 =( LENGTH_UNIT ( ) NAMED_UNIT ( * ) SI_UNIT ( $, .METRE. ) );
#146 = DIRECTION ( 'NONE',  ( 1.000000000000000000, 0.0000000000000000000, 0.0000000000000000000 ) ) ;
#147 = LINE ( 'NONE', #274, #157 ) ;
#148 = DIRECTION ( 'NONE',  ( -1.000000000000000000, 0.0000000000000000000, 1.224646799147353207E-16 ) ) ;
#149 = CONICAL_SURFACE ( 'NONE', #180, 0.06243750000000001382, 0.1745329251994337805 ) ;
#150 = CARTESIAN_POINT ( 'NONE',  ( 0.0000000000000000000, 0.0000000000000000000, 1.500000000000000222 ) ) ;
#151 = DIRECTION ( 'NONE',  ( 0.0000000000000000000, 0.0000000000000000000, 1.000000000000000000 ) ) ;
#152 = ADVANCED_FACE ( 'NONE', ( #128 ), #28, .T. ) ;
#153 = ORIENTED_EDGE ( 'NONE', *, *, #51, .F. ) ;
#154 = EDGE_LOOP ( 'NONE', ( #216, #240 ) ) ;
#155 = AXIS2_PLACEMENT_3D ( 'NONE', #3, #1, #254 ) ;
#156 = FILL_AREA_STYLE_COLOUR ( '', #219 ) ;
#157 = VECTOR ( 'NONE', #5, 39.37007874015748143 ) ;
#158 =( GEOMETRIC_REPRESENTATION_CONTEXT ( 3 ) GLOBAL_UNCERTAINTY_ASSIGNED_CONTEXT ( ( #54 ) ) GLOBAL_UNIT_ASSIGNED_CONTEXT ( ( #215, #33, #105 ) ) REPRESENTATION_CONTEXT ( 'NONE', 'WORKASPACE' ) );
#159 = CARTESIAN_POINT ( 'NONE',  ( 0.06250000000000005551, 7.654042494670962167E-18, 0.5003544551137260044 ) ) ;
#160 = CONICAL_SURFACE ( 'NONE', #194, 0.04750000000000064587, 0.7853981633974457255 ) ;
#161 = CARTESIAN_POINT ( 'NONE',  ( -0.06243749999999995137, 7.650215473423623230E-18, 0.5000000000000000000 ) ) ;
#162 = DIRECTION ( 'NONE',  ( 0.0000000000000000000, 0.0000000000000000000, -1.000000000000000000 ) ) ;
#163 = CYLINDRICAL_SURFACE ( 'NONE', #12, 0.06243750000000001382 ) ;
#164 = LINE ( 'NONE', #231, #189 ) ;
#165 = EDGE_CURVE ( 'NONE', #9, #281, #82, .T. ) ;
#166 = DIRECTION ( 'NONE',  ( -1.224646799147353454E-16, -0.0000000000000000000, -1.000000000000000000 ) ) ;
#167 = DIRECTION ( 'NONE',  ( -1.000000000000000000, 0.0000000000000000000, 0.0000000000000000000 ) ) ;
#168 = STYLED_ITEM ( 'NONE', ( #203 ), #71 ) ;
#169 = AXIS2_PLACEMENT_3D ( 'NONE', #81, #11, #259 ) ;
#170 = DIRECTION ( 'NONE',  ( 1.224646799147353454E-16, 0.0000000000000000000, 1.000000000000000000 ) ) ;
#171 =( LENGTH_UNIT ( ) NAMED_UNIT ( * ) SI_UNIT ( $, .METRE. ) );
#172 = ORIENTED_EDGE ( 'NONE', *, *, #90, .T. ) ;
#173 = PRESENTATION_LAYER_ASSIGNMENT (  '', '', ( #168 ) ) ;
#174 = PRODUCT_DEFINITION_FORMATION_WITH_SPECIFIED_SOURCE ( 'ANY', '', #32, .NOT_KNOWN. ) ;
#175 = EDGE_CURVE ( 'NONE', #4, #114, #228, .T. ) ;
#176 = LINE ( 'NONE', #285, #17 ) ;
#177 =( CONVERSION_BASED_UNIT ( 'INCH', #242 ) LENGTH_UNIT ( ) NAMED_UNIT ( #110 ) );
#178 = FACE_OUTER_BOUND ( 'NONE', #100, .T. ) ;
#179 = VERTEX_POINT ( 'NONE', #125 ) ;
#180 = AXIS2_PLACEMENT_3D ( 'NONE', #188, #130, #210 ) ;
#181 = CARTESIAN_POINT ( 'NONE',  ( 0.06243750000000001382, 7.646388452176288915E-18, -7.646388452176288915E-18 ) ) ;
#182 = DIRECTION ( 'NONE',  ( -1.000000000000000000, 0.0000000000000000000, 1.224646799147353207E-16 ) ) ;
#183 =( NAMED_UNIT ( * ) SI_UNIT ( $, .STERADIAN. ) SOLID_ANGLE_UNIT ( ) );
#184 = ADVANCED_FACE ( 'NONE', ( #208 ), #94, .T. ) ;
#185 = CARTESIAN_POINT ( 'NONE',  ( 0.0000000000000000000, 0.0000000000000000000, 0.0000000000000000000 ) ) ;
#186 = DIRECTION ( 'NONE',  ( 1.000000000000000000, 0.0000000000000000000, 0.0000000000000000000 ) ) ;
#187 = ADVANCED_FACE ( 'NONE', ( #27 ), #126, .F. ) ;
#188 = CARTESIAN_POINT ( 'NONE',  ( 6.123233995736767268E-17, 0.0000000000000000000, 0.5000000000000000000 ) ) ;
#189 = VECTOR ( 'NONE', #8, 39.37007874015748143 ) ;
#190 = ORIENTED_EDGE ( 'NONE', *, *, #135, .T. ) ;
#191 = DIRECTION ( 'NONE',  ( -1.000000000000000000, 0.0000000000000000000, 0.0000000000000000000 ) ) ;
#192 = ORIENTED_EDGE ( 'NONE', *, *, #294, .T. ) ;
#193 = DIRECTION ( 'NONE',  ( -1.000000000000000000, 0.0000000000000000000, 1.224646799147353700E-16 ) ) ;
#194 = AXIS2_PLACEMENT_3D ( 'NONE', #41, #162, #293 ) ;
#195 = DIRECTION ( 'NONE',  ( 0.0000000000000000000, 0.0000000000000000000, 1.000000000000000000 ) ) ;
#196 = CARTESIAN_POINT ( 'NONE',  ( 6.123233995736767268E-17, 0.0000000000000000000, 0.5000000000000000000 ) ) ;
#197 = ORIENTED_EDGE ( 'NONE', *, *, #34, .F. ) ;
#198 = DIRECTION ( 'NONE',  ( 0.7071067811865456854, 8.659560562354911904E-17, -0.7071067811865493491 ) ) ;
#199 = ORIENTED_EDGE ( 'NONE', *, *, #139, .T. ) ;
#200 = CONICAL_SURFACE ( 'NONE', #255, 0.06243750000000001382, 0.1745329251994337805 ) ;
#201 = APPLICATION_CONTEXT ( 'automotive_design' ) ;
#202 = CARTESIAN_POINT ( 'NONE',  ( 6.127574818941427268E-17, 0.0000000000000000000, 0.5003544551137260044 ) ) ;
#203 = PRESENTATION_STYLE_ASSIGNMENT (( #116 ) ) ;
#204 = DIRECTION ( 'NONE',  ( -0.0000000000000000000, -0.0000000000000000000, -1.000000000000000000 ) ) ;
#205 = CARTESIAN_POINT ( 'NONE',  ( -0.04750000000000064587, 0.0000000000000000000, 1.500000000000000222 ) ) ;
#206 = LENGTH_MEASURE_WITH_UNIT ( LENGTH_MEASURE( 0.02539999999999999897 ), #145 );
#207 = CARTESIAN_POINT ( 'NONE',  ( -0.06250000000000000000, 0.0000000000000000000, 1.500000000000000222 ) ) ;
#208 = FACE_OUTER_BOUND ( 'NONE', #77, .T. ) ;
#209 = AXIS2_PLACEMENT_3D ( 'NONE', #56, #101, #212 ) ;
#210 = DIRECTION ( 'NONE',  ( 1.000000000000000000, 0.0000000000000000000, 0.0000000000000000000 ) ) ;
#211 = DIRECTION ( 'NONE',  ( -1.000000000000000000, 0.0000000000000000000, 0.0000000000000000000 ) ) ;
#212 = DIRECTION ( 'NONE',  ( 1.000000000000000000, 0.0000000000000000000, 0.0000000000000000000 ) ) ;
#213 =( GEOMETRIC_REPRESENTATION_CONTEXT ( 3 ) GLOBAL_UNCERTAINTY_ASSIGNED_CONTEXT ( ( #298 ) ) GLOBAL_UNIT_ASSIGNED_CONTEXT ( ( #68, #143, #183 ) ) REPRESENTATION_CONTEXT ( 'NONE', 'WORKASPACE' ) );
#214 = MECHANICAL_DESIGN_GEOMETRIC_PRESENTATION_REPRESENTATION (  '', ( #284 ), #158 ) ;
#215 =( CONVERSION_BASED_UNIT ( 'INCH', #132 ) LENGTH_UNIT ( ) NAMED_UNIT ( #64 ) );
#216 = ORIENTED_EDGE ( 'NONE', *, *, #104, .T. ) ;
#217 = FILL_AREA_STYLE ('',( #156 ) ) ;
#218 = COLOUR_RGB ( '',0.7921568627450980005, 0.8196078431372548767, 0.9333333333333333481 ) ;
#219 = COLOUR_RGB ( '',0.7921568627450980005, 0.8196078431372548767, 0.9333333333333333481 ) ;
#220 =( LENGTH_UNIT ( ) NAMED_UNIT ( * ) SI_UNIT ( $, .METRE. ) );
#221 = EDGE_LOOP ( 'NONE', ( #70, #278, #224, #256 ) ) ;
#222 = ORIENTED_EDGE ( 'NONE', *, *, #34, .T. ) ;
#223 = CIRCLE ( 'NONE', #93, 0.06243750000000001382 ) ;
#224 = ORIENTED_EDGE ( 'NONE', *, *, #104, .F. ) ;
#225 = EDGE_CURVE ( 'NONE', #114, #4, #16, .T. ) ;
#226 = CARTESIAN_POINT ( 'NONE',  ( 0.06250000000000000000, 7.654042494670956004E-18, 1.500000000000000222 ) ) ;
#227 = PRODUCT_CONTEXT ( 'NONE', #244, 'mechanical' ) ;
#228 = CIRCLE ( 'NONE', #290, 0.04750000000000064587 ) ;
#229 = LINE ( 'NONE', #117, #119 ) ;
#230 = EDGE_CURVE ( 'NONE', #292, #15, #223, .T. ) ;
#231 = CARTESIAN_POINT ( 'NONE',  ( -0.06243750000000001382, 0.0000000000000000000, 7.646388452176288915E-18 ) ) ;
#232 = DIRECTION ( 'NONE',  ( -1.224646799147353454E-16, -0.0000000000000000000, -1.000000000000000000 ) ) ;
#233 = DIRECTION ( 'NONE',  ( 0.0000000000000000000, 0.0000000000000000000, -1.000000000000000000 ) ) ;
#234 = CONICAL_SURFACE ( 'NONE', #106, 0.04750000000000064587, 0.7853981633974457255 ) ;
#235 = EDGE_LOOP ( 'NONE', ( #289, #251, #75, #19 ) ) ;
#236 = CARTESIAN_POINT ( 'NONE',  ( -0.06243749999999999994, 0.0000000000000000000, 1.529277690435257783E-17 ) ) ;
#237 = VERTEX_POINT ( 'NONE', #288 ) ;
#238 =( NAMED_UNIT ( * ) SI_UNIT ( $, .STERADIAN. ) SOLID_ANGLE_UNIT ( ) );
#239 = AXIS2_PLACEMENT_3D ( 'NONE', #185, #166, #148 ) ;
#240 = ORIENTED_EDGE ( 'NONE', *, *, #280, .T. ) ;
#241 = EDGE_CURVE ( 'NONE', #114, #237, #176, .T. ) ;
#242 = LENGTH_MEASURE_WITH_UNIT ( LENGTH_MEASURE( 0.02539999999999999897 ), #171 );
#243 = APPLICATION_PROTOCOL_DEFINITION ( 'draft international standard', 'automotive_design', 1998, #244 ) ;
#244 = APPLICATION_CONTEXT ( 'automotive_design' ) ;
#245 = PRESENTATION_STYLE_ASSIGNMENT (( #137 ) ) ;
#246 = VECTOR ( 'NONE', #142, 39.37007874015748143 ) ;
#247 = SURFACE_STYLE_FILL_AREA ( #217 ) ;
#248 = EDGE_LOOP ( 'NONE', ( #197, #192, #199, #59 ) ) ;
#249 = ORIENTED_EDGE ( 'NONE', *, *, #294, .F. ) ;
#250 = SHAPE_DEFINITION_REPRESENTATION ( #273, #26 ) ;
#251 = ORIENTED_EDGE ( 'NONE', *, *, #7, .T. ) ;
#252 = CARTESIAN_POINT ( 'NONE',  ( 0.0000000000000000000, 0.0000000000000000000, 1.500000000000000222 ) ) ;
#253 = DIRECTION ( 'NONE',  ( -0.0000000000000000000, -0.0000000000000000000, -1.000000000000000000 ) ) ;
#254 = DIRECTION ( 'NONE',  ( 1.000000000000000000, 0.0000000000000000000, -0.0000000000000000000 ) ) ;
#255 = AXIS2_PLACEMENT_3D ( 'NONE', #52, #170, #186 ) ;
#256 = ORIENTED_EDGE ( 'NONE', *, *, #90, .F. ) ;
#257 = DIRECTION ( 'NONE',  ( -0.0000000000000000000, -0.0000000000000000000, -1.000000000000000000 ) ) ;
#258 = EDGE_LOOP ( 'NONE', ( #190, #222, #153, #287 ) ) ;
#259 = DIRECTION ( 'NONE',  ( -1.000000000000000000, 0.0000000000000000000, 0.0000000000000000000 ) ) ;
#260 = CARTESIAN_POINT ( 'NONE',  ( 0.0000000000000000000, 0.0000000000000000000, 1.485000000000000764 ) ) ;
#261 = CARTESIAN_POINT ( 'NONE',  ( 9.364125142994977476E-34, 0.0000000000000000000, 7.646388452176288915E-18 ) ) ;
#262 =( NAMED_UNIT ( * ) PLANE_ANGLE_UNIT ( ) SI_UNIT ( $, .RADIAN. ) );
#263 = ORIENTED_EDGE ( 'NONE', *, *, #24, .F. ) ;
#264 = ORIENTED_EDGE ( 'NONE', *, *, #280, .F. ) ;
#265 = PRODUCT_RELATED_PRODUCT_CATEGORY ( 'part', '', ( #32 ) ) ;
#266 = LINE ( 'NONE', #226, #283 ) ;
#267 = DIMENSIONAL_EXPONENTS ( 1.000000000000000000, 0.0000000000000000000, 0.0000000000000000000, 0.0000000000000000000, 0.0000000000000000000, 0.0000000000000000000, 0.0000000000000000000 ) ;
#268 = EDGE_CURVE ( 'NONE', #15, #292, #115, .T. ) ;
#269 = ORIENTED_EDGE ( 'NONE', *, *, #175, .F. ) ;
#270 = DIRECTION ( 'NONE',  ( -0.1736481776669310528, 2.126576849575781776E-17, 0.9848077530122080203 ) ) ;
#271 = VECTOR ( 'NONE', #65, 39.37007874015748143 ) ;
#272 = FACE_OUTER_BOUND ( 'NONE', #258, .T. ) ;
#273 = PRODUCT_DEFINITION_SHAPE ( 'NONE', 'NONE',  #127 ) ;
#274 = CARTESIAN_POINT ( 'NONE',  ( -0.04750000000000064587, 0.0000000000000000000, 1.500000000000000222 ) ) ;
#275 = ORIENTED_EDGE ( 'NONE', *, *, #175, .T. ) ;
#276 = CARTESIAN_POINT ( 'NONE',  ( 0.0000000000000000000, 0.0000000000000000000, 1.500000000000000222 ) ) ;
#277 = PRESENTATION_LAYER_ASSIGNMENT (  '', '', ( #284 ) ) ;
#278 = ORIENTED_EDGE ( 'NONE', *, *, #24, .T. ) ;
#279 = LINE ( 'NONE', #207, #49 ) ;
#280 = EDGE_CURVE ( 'NONE', #179, #87, #84, .T. ) ;
#281 = VERTEX_POINT ( 'NONE', #286 ) ;
#282 = DIRECTION ( 'NONE',  ( -1.224646799147353454E-16, -0.0000000000000000000, -1.000000000000000000 ) ) ;
#283 = VECTOR ( 'NONE', #204, 39.37007874015748143 ) ;
#284 = STYLED_ITEM ( 'NONE', ( #245 ), #26 ) ;
#285 = CARTESIAN_POINT ( 'NONE',  ( 0.04750000000000064587, 5.817072295950006528E-18, 1.500000000000000222 ) ) ;
#286 = CARTESIAN_POINT ( 'NONE',  ( -0.06249999999999993755, 0.0000000000000000000, 0.5003544551137260044 ) ) ;
#287 = ORIENTED_EDGE ( 'NONE', *, *, #139, .F. ) ;
#288 = CARTESIAN_POINT ( 'NONE',  ( 0.06250000000000000000, 7.654042494670956004E-18, 1.485000000000000764 ) ) ;
#289 = ORIENTED_EDGE ( 'NONE', *, *, #268, .F. ) ;
#290 = AXIS2_PLACEMENT_3D ( 'NONE', #150, #73, #146 ) ;
#291 = FILL_AREA_STYLE ('',( #48 ) ) ;
#292 = VERTEX_POINT ( 'NONE', #103 ) ;
#293 = DIRECTION ( 'NONE',  ( -1.000000000000000000, 0.0000000000000000000, 0.0000000000000000000 ) ) ;
#294 = EDGE_CURVE ( 'NONE', #237, #58, #36, .T. ) ;
#295 = DIRECTION ( 'NONE',  ( -1.224646799147353454E-16, -0.0000000000000000000, -1.000000000000000000 ) ) ;
#296 = CARTESIAN_POINT ( 'NONE',  ( 0.0000000000000000000, 0.0000000000000000000, 0.0000000000000000000 ) ) ;
#297 = CYLINDRICAL_SURFACE ( 'NONE', #43, 0.06250000000000000000 ) ;
#298 = UNCERTAINTY_MEASURE_WITH_UNIT (LENGTH_MEASURE( 1.000000000000000082E-05 ), #68, 'distance_accuracy_value', 'NONE');
#299 =( GEOMETRIC_REPRESENTATION_CONTEXT ( 3 ) GLOBAL_UNCERTAINTY_ASSIGNED_CONTEXT ( ( #95 ) ) GLOBAL_UNIT_ASSIGNED_CONTEXT ( ( #177, #262, #238 ) ) REPRESENTATION_CONTEXT ( 'NONE', 'WORKASPACE' ) );
ENDSEC;
END-ISO-10303-21;
