ISO-10303-21;
HEADER;
FILE_DESCRIPTION (( 'STEP AP214' ),
    '1' );
FILE_NAME ('59440.STEP',
    '2023-06-30T22:16:27',
    ( '' ),
    ( '' ),
    'SwSTEP 2.0',
    'SolidWorks 2023',
    '' );
FILE_SCHEMA (( 'AUTOMOTIVE_DESIGN' ));
ENDSEC;

DATA;
#1 = ORIENTED_EDGE ( 'NONE', *, *, #317, .F. ) ;
#2 = EDGE_CURVE ( 'NONE', #370, #343, #28, .T. ) ;
#3 = AXIS2_PLACEMENT_3D ( 'NONE', #336, #284, #168 ) ;
#4 = ORIENTED_EDGE ( 'NONE', *, *, #187, .T. ) ;
#5 = CIRCLE ( 'NONE', #285, 0.1562500000000000000 ) ;
#6 = FILL_AREA_STYLE ('',( #15 ) ) ;
#7 = FILL_AREA_STYLE_COLOUR ( '', #130 ) ;
#8 = VECTOR ( 'NONE', #347, 39.37007874015748143 ) ;
#9 = CARTESIAN_POINT ( 'NONE',  ( 1.530808498934191078E-16, 0.7499999999999998890, 0.000000000000000000 ) ) ;
#10 = CARTESIAN_POINT ( 'NONE',  ( -1.913510623667739463E-17, 0.1562500000000000000, 0.000000000000000000 ) ) ;
#11 = DIRECTION ( 'NONE',  ( 1.000000000000000000, 0.000000000000000000, 0.000000000000000000 ) ) ;
#12 = CLOSED_SHELL ( 'NONE', ( #109, #44, #287, #97 ) ) ;
#13 = PRESENTATION_STYLE_ASSIGNMENT (( #247 ) ) ;
#14 = AXIS2_PLACEMENT_3D ( 'NONE', #250, #361, #218 ) ;
#15 = FILL_AREA_STYLE_COLOUR ( '', #81 ) ;
#16 = DIRECTION ( 'NONE',  ( 0.000000000000000000, 0.000000000000000000, -1.000000000000000000 ) ) ;
#17 = PRESENTATION_STYLE_ASSIGNMENT (( #316 ) ) ;
#18 = DIMENSIONAL_EXPONENTS ( 1.000000000000000000, 0.000000000000000000, 0.000000000000000000, 0.000000000000000000, 0.000000000000000000, 0.000000000000000000, 0.000000000000000000 ) ;
#19 = PRESENTATION_STYLE_ASSIGNMENT (( #167 ) ) ;
#20 = CARTESIAN_POINT ( 'NONE',  ( 0.1562499999999998057, 2.500000000000000000, 1.913510623667737923E-17 ) ) ;
#21 = CARTESIAN_POINT ( 'NONE',  ( 0.000000000000000000, 0.1562500000000000278, 0.000000000000000000 ) ) ;
#22 = PLANE ( 'NONE',  #169 ) ;
#23 = CARTESIAN_POINT ( 'NONE',  ( -0.1562499999999999445, 2.500000000000000000, 0.000000000000000000 ) ) ;
#24 = DIRECTION ( 'NONE',  ( -1.224646799147352961E-16, 1.000000000000000000, 0.000000000000000000 ) ) ;
#25 = ADVANCED_FACE ( 'NONE', ( #180 ), #298, .T. ) ;
#26 = DIRECTION ( 'NONE',  ( 0.000000000000000000, 1.000000000000000000, 0.000000000000000000 ) ) ;
#27 = ORIENTED_EDGE ( 'NONE', *, *, #333, .T. ) ;
#28 = CIRCLE ( 'NONE', #266, 0.1562500000000000000 ) ;
#29 = ADVANCED_FACE ( 'NONE', ( #186 ), #156, .T. ) ;
#30 = PRODUCT_DEFINITION_FORMATION_WITH_SPECIFIED_SOURCE ( 'ANY', '', #227, .NOT_KNOWN. ) ;
#31 = EDGE_LOOP ( 'NONE', ( #153, #288, #1, #32 ) ) ;
#32 = ORIENTED_EDGE ( 'NONE', *, *, #255, .F. ) ;
#33 =( GEOMETRIC_REPRESENTATION_CONTEXT ( 3 ) GLOBAL_UNCERTAINTY_ASSIGNED_CONTEXT ( ( #112 ) ) GLOBAL_UNIT_ASSIGNED_CONTEXT ( ( #48, #290, #367 ) ) REPRESENTATION_CONTEXT ( 'NONE', 'WORKASPACE' ) );
#34 = CIRCLE ( 'NONE', #332, 0.1562500000000000000 ) ;
#35 = DIRECTION ( 'NONE',  ( -0.000000000000000000, -1.000000000000000000, -0.000000000000000000 ) ) ;
#36 =( LENGTH_UNIT ( ) NAMED_UNIT ( * ) SI_UNIT ( $, .METRE. ) );
#37 = CARTESIAN_POINT ( 'NONE',  ( 0.000000000000000000, 0.000000000000000000, 0.000000000000000000 ) ) ;
#38 = SURFACE_STYLE_FILL_AREA ( #182 ) ;
#39 = ADVANCED_FACE ( 'NONE', ( #304 ), #131, .T. ) ;
#40 =( NAMED_UNIT ( * ) SI_UNIT ( $, .STERADIAN. ) SOLID_ANGLE_UNIT ( ) );
#41 = CYLINDRICAL_SURFACE ( 'NONE', #214, 0.1562499999999998612 ) ;
#42 = AXIS2_PLACEMENT_3D ( 'NONE', #75, #225, #338 ) ;
#43 = DIMENSIONAL_EXPONENTS ( 1.000000000000000000, 0.000000000000000000, 0.000000000000000000, 0.000000000000000000, 0.000000000000000000, 0.000000000000000000, 0.000000000000000000 ) ;
#44 = ADVANCED_FACE ( 'NONE', ( #308 ), #22, .F. ) ;
#45 = LENGTH_MEASURE_WITH_UNIT ( LENGTH_MEASURE( 0.02539999999999999897 ), #135 );
#46 = CARTESIAN_POINT ( 'NONE',  ( 0.000000000000000000, 0.000000000000000000, 0.000000000000000000 ) ) ;
#47 = PRESENTATION_STYLE_ASSIGNMENT (( #73 ) ) ;
#48 =( CONVERSION_BASED_UNIT ( 'INCH', #194 ) LENGTH_UNIT ( ) NAMED_UNIT ( #88 ) );
#49 =( GEOMETRIC_REPRESENTATION_CONTEXT ( 3 ) GLOBAL_UNCERTAINTY_ASSIGNED_CONTEXT ( ( #253 ) ) GLOBAL_UNIT_ASSIGNED_CONTEXT ( ( #101, #276, #159 ) ) REPRESENTATION_CONTEXT ( 'NONE', 'WORKASPACE' ) );
#50 = EDGE_CURVE ( 'NONE', #172, #233, #147, .T. ) ;
#51 = ORIENTED_EDGE ( 'NONE', *, *, #317, .T. ) ;
#52 = CARTESIAN_POINT ( 'NONE',  ( 1.913510623667738539E-17, 0.000000000000000000, 0.1562499999999999445 ) ) ;
#53 = DIRECTION ( 'NONE',  ( -0.000000000000000000, -1.000000000000000000, -0.000000000000000000 ) ) ;
#54 = PRODUCT_CONTEXT ( 'NONE', #126, 'mechanical' ) ;
#55 =( GEOMETRIC_REPRESENTATION_CONTEXT ( 3 ) GLOBAL_UNCERTAINTY_ASSIGNED_CONTEXT ( ( #150 ) ) GLOBAL_UNIT_ASSIGNED_CONTEXT ( ( #110, #145, #197 ) ) REPRESENTATION_CONTEXT ( 'NONE', 'WORKASPACE' ) );
#56 = ORIENTED_EDGE ( 'NONE', *, *, #84, .F. ) ;
#57 =( CONVERSION_BASED_UNIT ( 'INCH', #86 ) LENGTH_UNIT ( ) NAMED_UNIT ( #120 ) );
#58 = SURFACE_STYLE_FILL_AREA ( #6 ) ;
#59 =( NAMED_UNIT ( * ) SI_UNIT ( $, .STERADIAN. ) SOLID_ANGLE_UNIT ( ) );
#60 = MECHANICAL_DESIGN_GEOMETRIC_PRESENTATION_REPRESENTATION (  '', ( #210 ), #260 ) ;
#61 = COLOUR_RGB ( '',1.000000000000000000, 0.000000000000000000, 0.000000000000000000 ) ;
#62 = DIRECTION ( 'NONE',  ( 1.224646799147352961E-16, -1.000000000000000000, 0.000000000000000000 ) ) ;
#63 = DIRECTION ( 'NONE',  ( -0.000000000000000000, -1.000000000000000000, -0.000000000000000000 ) ) ;
#64 = MECHANICAL_DESIGN_GEOMETRIC_PRESENTATION_REPRESENTATION (  '', ( #139 ), #33 ) ;
#65 = CARTESIAN_POINT ( 'NONE',  ( -0.1562500000000000278, 2.500000000000000000, 0.000000000000000000 ) ) ;
#66 = CARTESIAN_POINT ( 'NONE',  ( -1.913510623667739463E-17, 0.1562500000000000000, 0.000000000000000000 ) ) ;
#67 = SURFACE_SIDE_STYLE ('',( #38 ) ) ;
#68 =( LENGTH_UNIT ( ) NAMED_UNIT ( * ) SI_UNIT ( $, .METRE. ) );
#69 = SURFACE_SIDE_STYLE ('',( #331 ) ) ;
#70 =( NAMED_UNIT ( * ) PLANE_ANGLE_UNIT ( ) SI_UNIT ( $, .RADIAN. ) );
#71 = VECTOR ( 'NONE', #369, 39.37007874015748143 ) ;
#72 = EDGE_CURVE ( 'NONE', #85, #315, #146, .T. ) ;
#73 = SURFACE_STYLE_USAGE ( .BOTH. , #69 ) ;
#74 = PRESENTATION_LAYER_ASSIGNMENT (  '', '', ( #151 ) ) ;
#75 = CARTESIAN_POINT ( 'NONE',  ( 0.000000000000000000, 0.1562500000000000278, 0.000000000000000000 ) ) ;
#76 =( LENGTH_UNIT ( ) NAMED_UNIT ( * ) SI_UNIT ( $, .METRE. ) );
#77 =( NAMED_UNIT ( * ) SI_UNIT ( $, .STERADIAN. ) SOLID_ANGLE_UNIT ( ) );
#78 = DIMENSIONAL_EXPONENTS ( 1.000000000000000000, 0.000000000000000000, 0.000000000000000000, 0.000000000000000000, 0.000000000000000000, 0.000000000000000000, 0.000000000000000000 ) ;
#79 = EDGE_CURVE ( 'NONE', #216, #115, #87, .T. ) ;
#80 =( LENGTH_UNIT ( ) NAMED_UNIT ( * ) SI_UNIT ( $, .METRE. ) );
#81 = COLOUR_RGB ( '',1.000000000000000000, 0.000000000000000000, 0.000000000000000000 ) ;
#82 = SURFACE_SIDE_STYLE ('',( #224 ) ) ;
#83 = CARTESIAN_POINT ( 'NONE',  ( 1.530808498934191571E-16, 0.7500000000000001110, 0.000000000000000000 ) ) ;
#84 = EDGE_CURVE ( 'NONE', #370, #315, #211, .T. ) ;
#85 = VERTEX_POINT ( 'NONE', #108 ) ;
#86 = LENGTH_MEASURE_WITH_UNIT ( LENGTH_MEASURE( 0.02539999999999999897 ), #76 );
#87 = LINE ( 'NONE', #20, #71 ) ;
#88 = DIMENSIONAL_EXPONENTS ( 1.000000000000000000, 0.000000000000000000, 0.000000000000000000, 0.000000000000000000, 0.000000000000000000, 0.000000000000000000, 0.000000000000000000 ) ;
#89 = ORIENTED_EDGE ( 'NONE', *, *, #84, .T. ) ;
#90 = DIRECTION ( 'NONE',  ( 0.000000000000000000, 0.000000000000000000, 1.000000000000000000 ) ) ;
#91 = ORIENTED_EDGE ( 'NONE', *, *, #354, .F. ) ;
#92 = COLOUR_RGB ( '',0.7921568627450980005, 0.8196078431372548767, 0.9333333333333333481 ) ;
#93 = ORIENTED_EDGE ( 'NONE', *, *, #342, .T. ) ;
#94 = CARTESIAN_POINT ( 'NONE',  ( -0.1562500000000000000, 0.1562500000000000278, 1.913510623667738847E-17 ) ) ;
#95 = DIRECTION ( 'NONE',  ( 1.224646799147353207E-16, -0.000000000000000000, 1.000000000000000000 ) ) ;
#96 = MANIFOLD_SOLID_BREP ( 'Revolve - Cutting Edge', #226 ) ;
#97 = ADVANCED_FACE ( 'NONE', ( #203 ), #220, .F. ) ;
#98 = PRESENTATION_LAYER_ASSIGNMENT (  '', '', ( #139 ) ) ;
#99 = AXIS2_PLACEMENT_3D ( 'NONE', #242, #301, #274 ) ;
#100 =( CONVERSION_BASED_UNIT ( 'INCH', #325 ) LENGTH_UNIT ( ) NAMED_UNIT ( #292 ) );
#101 =( CONVERSION_BASED_UNIT ( 'INCH', #303 ) LENGTH_UNIT ( ) NAMED_UNIT ( #18 ) );
#102 = DIRECTION ( 'NONE',  ( -1.000000000000000000, 0.000000000000000000, 0.000000000000000000 ) ) ;
#103 = MECHANICAL_DESIGN_GEOMETRIC_PRESENTATION_REPRESENTATION (  '', ( #352 ), #55 ) ;
#104 = FILL_AREA_STYLE ('',( #358 ) ) ;
#105 = CARTESIAN_POINT ( 'NONE',  ( -6.123233995736766036E-17, 2.500000000000000000, 0.000000000000000000 ) ) ;
#106 = ORIENTED_EDGE ( 'NONE', *, *, #255, .T. ) ;
#107 = DIRECTION ( 'NONE',  ( -1.224646799147352961E-16, 1.000000000000000000, -0.000000000000000000 ) ) ;
#108 = CARTESIAN_POINT ( 'NONE',  ( 0.000000000000000000, 0.7500000000000001110, -0.1562499999999999167 ) ) ;
#109 = ADVANCED_FACE ( 'NONE', ( #353 ), #355, .T. ) ;
#110 =( CONVERSION_BASED_UNIT ( 'INCH', #191 ) LENGTH_UNIT ( ) NAMED_UNIT ( #78 ) );
#111 = AXIS2_PLACEMENT_3D ( 'NONE', #318, #238, #262 ) ;
#112 = UNCERTAINTY_MEASURE_WITH_UNIT (LENGTH_MEASURE( 1.000000000000000082E-05 ), #48, 'distance_accuracy_value', 'NONE');
#113 = SPHERICAL_SURFACE ( 'NONE', #118, 0.1562500000000000000 ) ;
#114 = MECHANICAL_DESIGN_GEOMETRIC_PRESENTATION_REPRESENTATION (  '', ( #305 ), #162 ) ;
#115 = VERTEX_POINT ( 'NONE', #161 ) ;
#116 = CARTESIAN_POINT ( 'NONE',  ( -6.123233995736766036E-17, 2.500000000000000000, 0.000000000000000000 ) ) ;
#117 = PRODUCT_DEFINITION_SHAPE ( 'NONE', 'NONE',  #232 ) ;
#118 = AXIS2_PLACEMENT_3D ( 'NONE', #137, #230, #309 ) ;
#119 = AXIS2_PLACEMENT_3D ( 'NONE', #349, #90, #202 ) ;
#120 = DIMENSIONAL_EXPONENTS ( 1.000000000000000000, 0.000000000000000000, 0.000000000000000000, 0.000000000000000000, 0.000000000000000000, 0.000000000000000000, 0.000000000000000000 ) ;
#121 = ORIENTED_EDGE ( 'NONE', *, *, #333, .F. ) ;
#122 = EDGE_CURVE ( 'NONE', #216, #359, #141, .T. ) ;
#123 = ORIENTED_EDGE ( 'NONE', *, *, #193, .T. ) ;
#124 = DIRECTION ( 'NONE',  ( -0.000000000000000000, -1.000000000000000000, -0.000000000000000000 ) ) ;
#125 = AXIS2_PLACEMENT_3D ( 'NONE', #171, #26, #286 ) ;
#126 = APPLICATION_CONTEXT ( 'automotive_design' ) ;
#127 = VECTOR ( 'NONE', #107, 39.37007874015748143 ) ;
#128 = SURFACE_SIDE_STYLE ('',( #58 ) ) ;
#129 = CARTESIAN_POINT ( 'NONE',  ( 0.1562499999999999167, 2.500000000000000000, 0.000000000000000000 ) ) ;
#130 = COLOUR_RGB ( '',1.000000000000000000, 0.000000000000000000, 0.000000000000000000 ) ;
#131 = PLANE ( 'NONE',  #125 ) ;
#132 = CIRCLE ( 'NONE', #196, 0.1562499999999999722 ) ;
#133 = CARTESIAN_POINT ( 'NONE',  ( 0.000000000000000000, 0.7500000000000001110, 0.000000000000000000 ) ) ;
#134 = FILL_AREA_STYLE_COLOUR ( '', #207 ) ;
#135 =( LENGTH_UNIT ( ) NAMED_UNIT ( * ) SI_UNIT ( $, .METRE. ) );
#136 = VERTEX_POINT ( 'NONE', #65 ) ;
#137 = CARTESIAN_POINT ( 'NONE',  ( -1.913510623667739463E-17, 0.1562500000000000000, 0.000000000000000000 ) ) ;
#138 = SURFACE_SIDE_STYLE ('',( #200 ) ) ;
#139 = STYLED_ITEM ( 'NONE', ( #254 ), #39 ) ;
#140 =( LENGTH_UNIT ( ) NAMED_UNIT ( * ) SI_UNIT ( $, .METRE. ) );
#141 = CIRCLE ( 'NONE', #339, 0.1562499999999997780 ) ;
#142 = DIRECTION ( 'NONE',  ( -1.000000000000000000, 0.000000000000000000, 0.000000000000000000 ) ) ;
#143 = UNCERTAINTY_MEASURE_WITH_UNIT (LENGTH_MEASURE( 1.000000000000000082E-05 ), #248, 'distance_accuracy_value', 'NONE');
#144 = ORIENTED_EDGE ( 'NONE', *, *, #221, .T. ) ;
#145 =( NAMED_UNIT ( * ) PLANE_ANGLE_UNIT ( ) SI_UNIT ( $, .RADIAN. ) );
#146 = LINE ( 'NONE', #257, #350 ) ;
#147 = CIRCLE ( 'NONE', #3, 0.1562500000000000000 ) ;
#148 = EDGE_LOOP ( 'NONE', ( #27, #373, #236, #263 ) ) ;
#149 = LINE ( 'NONE', #52, #8 ) ;
#150 = UNCERTAINTY_MEASURE_WITH_UNIT (LENGTH_MEASURE( 1.000000000000000082E-05 ), #110, 'distance_accuracy_value', 'NONE');
#151 = STYLED_ITEM ( 'NONE', ( #17 ), #96 ) ;
#152 = EDGE_CURVE ( 'NONE', #313, #85, #229, .T. ) ;
#153 = ORIENTED_EDGE ( 'NONE', *, *, #354, .T. ) ;
#154 = COLOUR_RGB ( '',1.000000000000000000, 0.000000000000000000, 0.000000000000000000 ) ;
#155 = PRESENTATION_LAYER_ASSIGNMENT (  '', '', ( #352 ) ) ;
#156 = SPHERICAL_SURFACE ( 'NONE', #344, 0.1562500000000000000 ) ;
#157 = PRESENTATION_STYLE_ASSIGNMENT (( #240 ) ) ;
#158 = DIRECTION ( 'NONE',  ( 1.000000000000000000, 1.224646799147352961E-16, 0.000000000000000000 ) ) ;
#159 =( NAMED_UNIT ( * ) SI_UNIT ( $, .STERADIAN. ) SOLID_ANGLE_UNIT ( ) );
#160 = AXIS2_PLACEMENT_3D ( 'NONE', #105, #212, #102 ) ;
#161 = CARTESIAN_POINT ( 'NONE',  ( 0.1562499999999999167, 2.500000000000000000, 1.913510623667738231E-17 ) ) ;
#162 =( GEOMETRIC_REPRESENTATION_CONTEXT ( 3 ) GLOBAL_UNCERTAINTY_ASSIGNED_CONTEXT ( ( #335 ) ) GLOBAL_UNIT_ASSIGNED_CONTEXT ( ( #100, #70, #40 ) ) REPRESENTATION_CONTEXT ( 'NONE', 'WORKASPACE' ) );
#163 =( GEOMETRIC_REPRESENTATION_CONTEXT ( 3 ) GLOBAL_UNCERTAINTY_ASSIGNED_CONTEXT ( ( #356 ) ) GLOBAL_UNIT_ASSIGNED_CONTEXT ( ( #57, #265, #205 ) ) REPRESENTATION_CONTEXT ( 'NONE', 'WORKASPACE' ) );
#164 = PRODUCT_RELATED_PRODUCT_CATEGORY ( 'part', '', ( #227 ) ) ;
#165 = CARTESIAN_POINT ( 'NONE',  ( 1.913510623667738231E-17, 0.7500000000000001110, 0.1562499999999999167 ) ) ;
#166 = PRODUCT_DEFINITION_CONTEXT ( 'detailed design', #231, 'design' ) ;
#167 = SURFACE_STYLE_USAGE ( .BOTH. , #82 ) ;
#168 = DIRECTION ( 'NONE',  ( 0.000000000000000000, 0.000000000000000000, -1.000000000000000000 ) ) ;
#169 = AXIS2_PLACEMENT_3D ( 'NONE', #83, #24, #371 ) ;
#170 = FACE_OUTER_BOUND ( 'NONE', #228, .T. ) ;
#171 = CARTESIAN_POINT ( 'NONE',  ( 0.000000000000000000, 0.7500000000000001110, 0.000000000000000000 ) ) ;
#172 = VERTEX_POINT ( 'NONE', #184 ) ;
#173 = FACE_OUTER_BOUND ( 'NONE', #264, .T. ) ;
#174 = SURFACE_STYLE_USAGE ( .BOTH. , #312 ) ;
#175 = ORIENTED_EDGE ( 'NONE', *, *, #122, .T. ) ;
#176 = CARTESIAN_POINT ( 'NONE',  ( -9.567553118338697316E-18, 0.000000000000000000, 0.000000000000000000 ) ) ;
#177 = PRESENTATION_LAYER_ASSIGNMENT (  '', '', ( #237 ) ) ;
#178 = ORIENTED_EDGE ( 'NONE', *, *, #122, .F. ) ;
#179 = APPLICATION_PROTOCOL_DEFINITION ( 'draft international standard', 'automotive_design', 1998, #126 ) ;
#180 = FACE_OUTER_BOUND ( 'NONE', #208, .T. ) ;
#181 = MECHANICAL_DESIGN_GEOMETRIC_PRESENTATION_REPRESENTATION (  '', ( #237 ), #49 ) ;
#182 = FILL_AREA_STYLE ('',( #299 ) ) ;
#183 = COLOUR_RGB ( '',1.000000000000000000, 0.000000000000000000, 0.000000000000000000 ) ;
#184 = CARTESIAN_POINT ( 'NONE',  ( 0.1562500000000000000, 0.1562500000000000278, 0.000000000000000000 ) ) ;
#185 = CARTESIAN_POINT ( 'NONE',  ( -1.913510623667739463E-17, 0.1562500000000000000, 0.000000000000000000 ) ) ;
#186 = FACE_OUTER_BOUND ( 'NONE', #322, .T. ) ;
#187 = EDGE_CURVE ( 'NONE', #115, #136, #261, .T. ) ;
#188 = AXIS2_PLACEMENT_3D ( 'NONE', #190, #124, #234 ) ;
#189 = CYLINDRICAL_SURFACE ( 'NONE', #365, 0.1562499999999999445 ) ;
#190 = CARTESIAN_POINT ( 'NONE',  ( 0.000000000000000000, 0.1562500000000000278, 0.000000000000000000 ) ) ;
#191 = LENGTH_MEASURE_WITH_UNIT ( LENGTH_MEASURE( 0.02539999999999999897 ), #140 );
#192 = UNCERTAINTY_MEASURE_WITH_UNIT (LENGTH_MEASURE( 1.000000000000000082E-05 ), #269, 'distance_accuracy_value', 'NONE');
#193 = EDGE_CURVE ( 'NONE', #172, #343, #5, .T. ) ;
#194 = LENGTH_MEASURE_WITH_UNIT ( LENGTH_MEASURE( 0.02539999999999999897 ), #80 );
#195 = ORIENTED_EDGE ( 'NONE', *, *, #152, .T. ) ;
#196 = AXIS2_PLACEMENT_3D ( 'NONE', #116, #281, #142 ) ;
#197 =( NAMED_UNIT ( * ) SI_UNIT ( $, .STERADIAN. ) SOLID_ANGLE_UNIT ( ) );
#198 = FILL_AREA_STYLE_COLOUR ( '', #92 ) ;
#199 = ORIENTED_EDGE ( 'NONE', *, *, #79, .F. ) ;
#200 = SURFACE_STYLE_FILL_AREA ( #314 ) ;
#201 = ORIENTED_EDGE ( 'NONE', *, *, #2, .F. ) ;
#202 = DIRECTION ( 'NONE',  ( 1.000000000000000000, 0.000000000000000000, 0.000000000000000000 ) ) ;
#203 = FACE_OUTER_BOUND ( 'NONE', #294, .T. ) ;
#204 = ORIENTED_EDGE ( 'NONE', *, *, #187, .F. ) ;
#205 =( NAMED_UNIT ( * ) SI_UNIT ( $, .STERADIAN. ) SOLID_ANGLE_UNIT ( ) );
#206 = ADVANCED_FACE ( 'NONE', ( #217 ), #113, .T. ) ;
#207 = COLOUR_RGB ( '',0.7921568627450980005, 0.8196078431372548767, 0.9333333333333333481 ) ;
#208 = EDGE_LOOP ( 'NONE', ( #319, #195, #235, #56, #121 ) ) ;
#209 =( NAMED_UNIT ( * ) PLANE_ANGLE_UNIT ( ) SI_UNIT ( $, .RADIAN. ) );
#210 = STYLED_ITEM ( 'NONE', ( #351 ), #25 ) ;
#211 = CIRCLE ( 'NONE', #42, 0.1562500000000000000 ) ;
#212 = DIRECTION ( 'NONE',  ( -1.224646799147352961E-16, 1.000000000000000000, -0.000000000000000000 ) ) ;
#213 = DIRECTION ( 'NONE',  ( -1.224646799147352961E-16, 1.000000000000000000, -0.000000000000000000 ) ) ;
#214 = AXIS2_PLACEMENT_3D ( 'NONE', #289, #222, #307 ) ;
#215 = CARTESIAN_POINT ( 'NONE',  ( 0.1562499999999999167, 0.7499999999999998890, 1.913510623667738231E-17 ) ) ;
#216 = VERTEX_POINT ( 'NONE', #215 ) ;
#217 = FACE_OUTER_BOUND ( 'NONE', #148, .T. ) ;
#218 = DIRECTION ( 'NONE',  ( 0.000000000000000000, 0.000000000000000000, -1.000000000000000000 ) ) ;
#219 = MECHANICAL_DESIGN_GEOMETRIC_PRESENTATION_REPRESENTATION (  '', ( #151 ), #320 ) ;
#220 = PLANE ( 'NONE',  #267 ) ;
#221 = EDGE_CURVE ( 'NONE', #85, #313, #300, .T. ) ;
#222 = DIRECTION ( 'NONE',  ( -1.224646799147352961E-16, 1.000000000000000000, -0.000000000000000000 ) ) ;
#223 = ORIENTED_EDGE ( 'NONE', *, *, #152, .F. ) ;
#224 = SURFACE_STYLE_FILL_AREA ( #249 ) ;
#225 = DIRECTION ( 'NONE',  ( -0.000000000000000000, -1.000000000000000000, -0.000000000000000000 ) ) ;
#226 = CLOSED_SHELL ( 'NONE', ( #206, #244, #39, #25, #29 ) ) ;
#227 = PRODUCT ( '59440', '59440', '', ( #54 ) ) ;
#228 = EDGE_LOOP ( 'NONE', ( #144, #363, #293, #372, #280 ) ) ;
#229 = CIRCLE ( 'NONE', #346, 0.1562499999999999167 ) ;
#230 = DIRECTION ( 'NONE',  ( 0.000000000000000000, 0.000000000000000000, 1.000000000000000000 ) ) ;
#231 = APPLICATION_CONTEXT ( 'automotive_design' ) ;
#232 = PRODUCT_DEFINITION ( 'UNKNOWN', '', #30, #166 ) ;
#233 = VERTEX_POINT ( 'NONE', #252 ) ;
#234 = DIRECTION ( 'NONE',  ( 0.000000000000000000, 0.000000000000000000, -1.000000000000000000 ) ) ;
#235 = ORIENTED_EDGE ( 'NONE', *, *, #72, .T. ) ;
#236 = ORIENTED_EDGE ( 'NONE', *, *, #193, .F. ) ;
#237 = STYLED_ITEM ( 'NONE', ( #13 ), #206 ) ;
#238 = DIRECTION ( 'NONE',  ( -1.224646799147352961E-16, 1.000000000000000000, -0.000000000000000000 ) ) ;
#239 =( GEOMETRIC_REPRESENTATION_CONTEXT ( 3 ) GLOBAL_UNCERTAINTY_ASSIGNED_CONTEXT ( ( #192 ) ) GLOBAL_UNIT_ASSIGNED_CONTEXT ( ( #269, #209, #59 ) ) REPRESENTATION_CONTEXT ( 'NONE', 'WORKASPACE' ) );
#240 = SURFACE_STYLE_USAGE ( .BOTH. , #360 ) ;
#241 =( LENGTH_UNIT ( ) NAMED_UNIT ( * ) SI_UNIT ( $, .METRE. ) );
#242 = CARTESIAN_POINT ( 'NONE',  ( -6.123233995736766036E-17, 2.500000000000000000, 0.000000000000000000 ) ) ;
#243 = CIRCLE ( 'NONE', #188, 0.1562500000000000000 ) ;
#244 = ADVANCED_FACE ( 'NONE', ( #170 ), #189, .T. ) ;
#245 = DIRECTION ( 'NONE',  ( 0.000000000000000000, 0.000000000000000000, -1.000000000000000000 ) ) ;
#246 = STYLED_ITEM ( 'NONE', ( #19 ), #337 ) ;
#247 = SURFACE_STYLE_USAGE ( .BOTH. , #67 ) ;
#248 =( CONVERSION_BASED_UNIT ( 'INCH', #296 ) LENGTH_UNIT ( ) NAMED_UNIT ( #368 ) );
#249 = FILL_AREA_STYLE ('',( #134 ) ) ;
#250 = CARTESIAN_POINT ( 'NONE',  ( 0.000000000000000000, 0.7500000000000001110, 0.000000000000000000 ) ) ;
#251 =( CONVERSION_BASED_UNIT ( 'INCH', #45 ) LENGTH_UNIT ( ) NAMED_UNIT ( #310 ) );
#252 = CARTESIAN_POINT ( 'NONE',  ( 1.913510623667739463E-17, 0.1562500000000000278, 0.1562500000000000000 ) ) ;
#253 = UNCERTAINTY_MEASURE_WITH_UNIT (LENGTH_MEASURE( 1.000000000000000082E-05 ), #101, 'distance_accuracy_value', 'NONE');
#254 = PRESENTATION_STYLE_ASSIGNMENT (( #174 ) ) ;
#255 = EDGE_CURVE ( 'NONE', #359, #136, #306, .T. ) ;
#256 = DIRECTION ( 'NONE',  ( -0.000000000000000000, -1.000000000000000000, -0.000000000000000000 ) ) ;
#257 = CARTESIAN_POINT ( 'NONE',  ( 0.000000000000000000, 0.000000000000000000, -0.1562499999999999445 ) ) ;
#258 = EDGE_LOOP ( 'NONE', ( #91, #178 ) ) ;
#259 = DIRECTION ( 'NONE',  ( 0.000000000000000000, 0.000000000000000000, -1.000000000000000000 ) ) ;
#260 =( GEOMETRIC_REPRESENTATION_CONTEXT ( 3 ) GLOBAL_UNCERTAINTY_ASSIGNED_CONTEXT ( ( #143 ) ) GLOBAL_UNIT_ASSIGNED_CONTEXT ( ( #248, #324, #348 ) ) REPRESENTATION_CONTEXT ( 'NONE', 'WORKASPACE' ) );
#261 = CIRCLE ( 'NONE', #99, 0.1562499999999999722 ) ;
#262 = DIRECTION ( 'NONE',  ( -1.000000000000000000, 0.000000000000000000, 0.000000000000000000 ) ) ;
#263 = ORIENTED_EDGE ( 'NONE', *, *, #50, .T. ) ;
#264 = EDGE_LOOP ( 'NONE', ( #199, #175, #106, #204 ) ) ;
#265 =( NAMED_UNIT ( * ) PLANE_ANGLE_UNIT ( ) SI_UNIT ( $, .RADIAN. ) );
#266 = AXIS2_PLACEMENT_3D ( 'NONE', #185, #95, #277 ) ;
#267 = AXIS2_PLACEMENT_3D ( 'NONE', #129, #62, #158 ) ;
#268 = FILL_AREA_STYLE ('',( #7 ) ) ;
#269 =( CONVERSION_BASED_UNIT ( 'INCH', #295 ) LENGTH_UNIT ( ) NAMED_UNIT ( #43 ) );
#270 = SURFACE_STYLE_FILL_AREA ( #268 ) ;
#271 =( LENGTH_UNIT ( ) NAMED_UNIT ( * ) SI_UNIT ( $, .METRE. ) );
#272 = CIRCLE ( 'NONE', #111, 0.1562499999999997780 ) ;
#273 = DIRECTION ( 'NONE',  ( -1.000000000000000000, 0.000000000000000000, 0.000000000000000000 ) ) ;
#274 = DIRECTION ( 'NONE',  ( -1.000000000000000000, 0.000000000000000000, 0.000000000000000000 ) ) ;
#275 = PRESENTATION_LAYER_ASSIGNMENT (  '', '', ( #305 ) ) ;
#276 =( NAMED_UNIT ( * ) PLANE_ANGLE_UNIT ( ) SI_UNIT ( $, .RADIAN. ) );
#277 = DIRECTION ( 'NONE',  ( 1.000000000000000000, 0.000000000000000000, -1.224646799147353207E-16 ) ) ;
#278 = PRESENTATION_LAYER_ASSIGNMENT (  '', '', ( #246 ) ) ;
#279 = ADVANCED_BREP_SHAPE_REPRESENTATION ( '59440', ( #96, #337, #119 ), #239 ) ;
#280 = ORIENTED_EDGE ( 'NONE', *, *, #72, .F. ) ;
#281 = DIRECTION ( 'NONE',  ( -1.224646799147352961E-16, 1.000000000000000000, -0.000000000000000000 ) ) ;
#282 = DIRECTION ( 'NONE',  ( -0.000000000000000000, -1.000000000000000000, -0.000000000000000000 ) ) ;
#283 = FILL_AREA_STYLE ('',( #366 ) ) ;
#284 = DIRECTION ( 'NONE',  ( -0.000000000000000000, -1.000000000000000000, -0.000000000000000000 ) ) ;
#285 = AXIS2_PLACEMENT_3D ( 'NONE', #10, #357, #330 ) ;
#286 = DIRECTION ( 'NONE',  ( 0.000000000000000000, -0.000000000000000000, 1.000000000000000000 ) ) ;
#287 = ADVANCED_FACE ( 'NONE', ( #173 ), #41, .T. ) ;
#288 = ORIENTED_EDGE ( 'NONE', *, *, #79, .T. ) ;
#289 = CARTESIAN_POINT ( 'NONE',  ( -6.123233995736766036E-17, 2.500000000000000000, 0.000000000000000000 ) ) ;
#290 =( NAMED_UNIT ( * ) PLANE_ANGLE_UNIT ( ) SI_UNIT ( $, .RADIAN. ) );
#291 = UNCERTAINTY_MEASURE_WITH_UNIT (LENGTH_MEASURE( 1.000000000000000082E-05 ), #251, 'distance_accuracy_value', 'NONE');
#292 = DIMENSIONAL_EXPONENTS ( 1.000000000000000000, 0.000000000000000000, 0.000000000000000000, 0.000000000000000000, 0.000000000000000000, 0.000000000000000000, 0.000000000000000000 ) ;
#293 = ORIENTED_EDGE ( 'NONE', *, *, #50, .F. ) ;
#294 = EDGE_LOOP ( 'NONE', ( #51, #4 ) ) ;
#295 = LENGTH_MEASURE_WITH_UNIT ( LENGTH_MEASURE( 0.02539999999999999897 ), #36 );
#296 = LENGTH_MEASURE_WITH_UNIT ( LENGTH_MEASURE( 0.02539999999999999897 ), #241 );
#297 = APPLICATION_PROTOCOL_DEFINITION ( 'draft international standard', 'automotive_design', 1998, #231 ) ;
#298 = CYLINDRICAL_SURFACE ( 'NONE', #311, 0.1562499999999999445 ) ;
#299 = FILL_AREA_STYLE_COLOUR ( '', #183 ) ;
#300 = CIRCLE ( 'NONE', #14, 0.1562499999999999167 ) ;
#301 = DIRECTION ( 'NONE',  ( -1.224646799147352961E-16, 1.000000000000000000, -0.000000000000000000 ) ) ;
#302 = DIRECTION ( 'NONE',  ( 0.000000000000000000, 0.000000000000000000, 1.000000000000000000 ) ) ;
#303 = LENGTH_MEASURE_WITH_UNIT ( LENGTH_MEASURE( 0.02539999999999999897 ), #271 );
#304 = FACE_OUTER_BOUND ( 'NONE', #345, .T. ) ;
#305 = STYLED_ITEM ( 'NONE', ( #157 ), #29 ) ;
#306 = LINE ( 'NONE', #23, #127 ) ;
#307 = DIRECTION ( 'NONE',  ( -1.000000000000000000, 0.000000000000000000, 0.000000000000000000 ) ) ;
#308 = FACE_OUTER_BOUND ( 'NONE', #258, .T. ) ;
#309 = DIRECTION ( 'NONE',  ( 1.000000000000000000, 0.000000000000000000, 0.000000000000000000 ) ) ;
#310 = DIMENSIONAL_EXPONENTS ( 1.000000000000000000, 0.000000000000000000, 0.000000000000000000, 0.000000000000000000, 0.000000000000000000, 0.000000000000000000, 0.000000000000000000 ) ;
#311 = AXIS2_PLACEMENT_3D ( 'NONE', #37, #35, #245 ) ;
#312 = SURFACE_SIDE_STYLE ('',( #362 ) ) ;
#313 = VERTEX_POINT ( 'NONE', #165 ) ;
#314 = FILL_AREA_STYLE ('',( #198 ) ) ;
#315 = VERTEX_POINT ( 'NONE', #334 ) ;
#316 = SURFACE_STYLE_USAGE ( .BOTH. , #138 ) ;
#317 = EDGE_CURVE ( 'NONE', #136, #115, #132, .T. ) ;
#318 = CARTESIAN_POINT ( 'NONE',  ( 1.530808498934191078E-16, 0.7499999999999998890, 0.000000000000000000 ) ) ;
#319 = ORIENTED_EDGE ( 'NONE', *, *, #340, .F. ) ;
#320 =( GEOMETRIC_REPRESENTATION_CONTEXT ( 3 ) GLOBAL_UNCERTAINTY_ASSIGNED_CONTEXT ( ( #291 ) ) GLOBAL_UNIT_ASSIGNED_CONTEXT ( ( #251, #364, #77 ) ) REPRESENTATION_CONTEXT ( 'NONE', 'WORKASPACE' ) );
#321 = SHAPE_DEFINITION_REPRESENTATION ( #117, #279 ) ;
#322 = EDGE_LOOP ( 'NONE', ( #201, #89, #93, #123 ) ) ;
#323 = CARTESIAN_POINT ( 'NONE',  ( -0.1562499999999996392, 0.7499999999999998890, 0.000000000000000000 ) ) ;
#324 =( NAMED_UNIT ( * ) PLANE_ANGLE_UNIT ( ) SI_UNIT ( $, .RADIAN. ) );
#325 = LENGTH_MEASURE_WITH_UNIT ( LENGTH_MEASURE( 0.02539999999999999897 ), #68 );
#326 = PRESENTATION_LAYER_ASSIGNMENT (  '', '', ( #210 ) ) ;
#327 = MECHANICAL_DESIGN_GEOMETRIC_PRESENTATION_REPRESENTATION (  '', ( #246 ), #163 ) ;
#328 = DIRECTION ( 'NONE',  ( 0.000000000000000000, 0.000000000000000000, -1.000000000000000000 ) ) ;
#329 = SURFACE_STYLE_USAGE ( .BOTH. , #128 ) ;
#330 = DIRECTION ( 'NONE',  ( -1.000000000000000000, 0.000000000000000000, 0.000000000000000000 ) ) ;
#331 = SURFACE_STYLE_FILL_AREA ( #283 ) ;
#332 = AXIS2_PLACEMENT_3D ( 'NONE', #21, #256, #16 ) ;
#333 = EDGE_CURVE ( 'NONE', #233, #370, #34, .T. ) ;
#334 = CARTESIAN_POINT ( 'NONE',  ( 0.000000000000000000, 0.1562500000000000278, -0.1562500000000000000 ) ) ;
#335 = UNCERTAINTY_MEASURE_WITH_UNIT (LENGTH_MEASURE( 1.000000000000000082E-05 ), #100, 'distance_accuracy_value', 'NONE');
#336 = CARTESIAN_POINT ( 'NONE',  ( 0.000000000000000000, 0.1562500000000000278, 0.000000000000000000 ) ) ;
#337 = MANIFOLD_SOLID_BREP ( 'Revolve - Tool Body (Straight Shanked)', #12 ) ;
#338 = DIRECTION ( 'NONE',  ( 0.000000000000000000, 0.000000000000000000, -1.000000000000000000 ) ) ;
#339 = AXIS2_PLACEMENT_3D ( 'NONE', #9, #213, #273 ) ;
#340 = EDGE_CURVE ( 'NONE', #313, #233, #149, .T. ) ;
#341 = ORIENTED_EDGE ( 'NONE', *, *, #221, .F. ) ;
#342 = EDGE_CURVE ( 'NONE', #315, #172, #243, .T. ) ;
#343 = VERTEX_POINT ( 'NONE', #176 ) ;
#344 = AXIS2_PLACEMENT_3D ( 'NONE', #66, #302, #11 ) ;
#345 = EDGE_LOOP ( 'NONE', ( #341, #223 ) ) ;
#346 = AXIS2_PLACEMENT_3D ( 'NONE', #133, #63, #328 ) ;
#347 = DIRECTION ( 'NONE',  ( -0.000000000000000000, -1.000000000000000000, -0.000000000000000000 ) ) ;
#348 =( NAMED_UNIT ( * ) SI_UNIT ( $, .STERADIAN. ) SOLID_ANGLE_UNIT ( ) );
#349 = CARTESIAN_POINT ( 'NONE',  ( 0.000000000000000000, 0.000000000000000000, 0.000000000000000000 ) ) ;
#350 = VECTOR ( 'NONE', #53, 39.37007874015748143 ) ;
#351 = PRESENTATION_STYLE_ASSIGNMENT (( #329 ) ) ;
#352 = STYLED_ITEM ( 'NONE', ( #47 ), #244 ) ;
#353 = FACE_OUTER_BOUND ( 'NONE', #31, .T. ) ;
#354 = EDGE_CURVE ( 'NONE', #359, #216, #272, .T. ) ;
#355 = CYLINDRICAL_SURFACE ( 'NONE', #160, 0.1562499999999998612 ) ;
#356 = UNCERTAINTY_MEASURE_WITH_UNIT (LENGTH_MEASURE( 1.000000000000000082E-05 ), #57, 'distance_accuracy_value', 'NONE');
#357 = DIRECTION ( 'NONE',  ( 0.000000000000000000, 0.000000000000000000, -1.000000000000000000 ) ) ;
#358 = FILL_AREA_STYLE_COLOUR ( '', #154 ) ;
#359 = VERTEX_POINT ( 'NONE', #323 ) ;
#360 = SURFACE_SIDE_STYLE ('',( #270 ) ) ;
#361 = DIRECTION ( 'NONE',  ( -0.000000000000000000, -1.000000000000000000, -0.000000000000000000 ) ) ;
#362 = SURFACE_STYLE_FILL_AREA ( #104 ) ;
#363 = ORIENTED_EDGE ( 'NONE', *, *, #340, .T. ) ;
#364 =( NAMED_UNIT ( * ) PLANE_ANGLE_UNIT ( ) SI_UNIT ( $, .RADIAN. ) );
#365 = AXIS2_PLACEMENT_3D ( 'NONE', #46, #282, #259 ) ;
#366 = FILL_AREA_STYLE_COLOUR ( '', #61 ) ;
#367 =( NAMED_UNIT ( * ) SI_UNIT ( $, .STERADIAN. ) SOLID_ANGLE_UNIT ( ) );
#368 = DIMENSIONAL_EXPONENTS ( 1.000000000000000000, 0.000000000000000000, 0.000000000000000000, 0.000000000000000000, 0.000000000000000000, 0.000000000000000000, 0.000000000000000000 ) ;
#369 = DIRECTION ( 'NONE',  ( -1.224646799147352961E-16, 1.000000000000000000, -0.000000000000000000 ) ) ;
#370 = VERTEX_POINT ( 'NONE', #94 ) ;
#371 = DIRECTION ( 'NONE',  ( -1.000000000000000000, -1.224646799147352961E-16, 0.000000000000000000 ) ) ;
#372 = ORIENTED_EDGE ( 'NONE', *, *, #342, .F. ) ;
#373 = ORIENTED_EDGE ( 'NONE', *, *, #2, .T. ) ;
ENDSEC;
END-ISO-10303-21;
