ISO-10303-21;
HEADER;
FILE_DESCRIPTION (( 'STEP AP214' ),
    '1' );
FILE_NAME ('59683.STEP',
    '2023-07-24T15:23:35',
    ( '' ),
    ( '' ),
    'SwSTEP 2.0',
    'SolidWorks 2023',
    '' );
FILE_SCHEMA (( 'AUTOMOTIVE_DESIGN' ));
ENDSEC;

DATA;
#1 = DIRECTION ( 'NONE',  ( -1.895813576284393923E-16, 1.000000000000000000, -0.000000000000000000 ) ) ;
#2 = STYLED_ITEM ( 'NONE', ( #163 ), #149 ) ;
#3 = CARTESIAN_POINT ( 'NONE',  ( 1.408343819019456176E-15, 1.000000000000000000, 11.50000000000000000 ) ) ;
#4 = EDGE_CURVE ( 'NONE', #173, #356, #291, .T. ) ;
#5 = PRESENTATION_STYLE_ASSIGNMENT (( #265 ) ) ;
#6 = ORIENTED_EDGE ( 'NONE', *, *, #19, .T. ) ;
#7 = DIRECTION ( 'NONE',  ( -1.895813576284393923E-16, 1.000000000000000000, -0.000000000000000000 ) ) ;
#8 = AXIS2_PLACEMENT_3D ( 'NONE', #324, #70, #244 ) ;
#9 = FILL_AREA_STYLE ('',( #11 ) ) ;
#10 =( LENGTH_UNIT ( ) NAMED_UNIT ( * ) SI_UNIT ( .MILLI., .METRE. ) );
#11 = FILL_AREA_STYLE_COLOUR ( '', #144 ) ;
#12 = FACE_OUTER_BOUND ( 'NONE', #109, .T. ) ;
#13 = UNCERTAINTY_MEASURE_WITH_UNIT (LENGTH_MEASURE( 1.000000000000000082E-05 ), #104, 'distance_accuracy_value', 'NONE');
#14 = ORIENTED_EDGE ( 'NONE', *, *, #68, .F. ) ;
#15 = CIRCLE ( 'NONE', #154, 12.50000000000000533 ) ;
#16 = SURFACE_STYLE_FILL_AREA ( #275 ) ;
#17 = UNCERTAINTY_MEASURE_WITH_UNIT (LENGTH_MEASURE( 1.000000000000000082E-05 ), #292, 'distance_accuracy_value', 'NONE');
#18 =( NAMED_UNIT ( * ) SI_UNIT ( $, .STERADIAN. ) SOLID_ANGLE_UNIT ( ) );
#19 = EDGE_CURVE ( 'NONE', #285, #158, #72, .T. ) ;
#20 = PLANE ( 'NONE',  #27 ) ;
#21 = DIRECTION ( 'NONE',  ( 1.000000000000000000, 0.000000000000000000, 0.000000000000000000 ) ) ;
#22 = CIRCLE ( 'NONE', #64, 1.000000000000000888 ) ;
#23 =( NAMED_UNIT ( * ) SI_UNIT ( $, .STERADIAN. ) SOLID_ANGLE_UNIT ( ) );
#24 = EDGE_CURVE ( 'NONE', #147, #69, #176, .T. ) ;
#25 = DIRECTION ( 'NONE',  ( -0.000000000000000000, -1.000000000000000000, -0.000000000000000000 ) ) ;
#26 = FILL_AREA_STYLE_COLOUR ( '', #76 ) ;
#27 = AXIS2_PLACEMENT_3D ( 'NONE', #231, #283, #112 ) ;
#28 = ORIENTED_EDGE ( 'NONE', *, *, #4, .F. ) ;
#29 = LINE ( 'NONE', #229, #234 ) ;
#30 = SURFACE_STYLE_USAGE ( .BOTH. , #54 ) ;
#31 = SURFACE_SIDE_STYLE ('',( #287 ) ) ;
#32 = AXIS2_PLACEMENT_3D ( 'NONE', #99, #46, #161 ) ;
#33 = COLOUR_RGB ( '',1.000000000000000000, 0.000000000000000000, 0.000000000000000000 ) ;
#34 = MECHANICAL_DESIGN_GEOMETRIC_PRESENTATION_REPRESENTATION (  '', ( #332 ), #350 ) ;
#35 = DIRECTION ( 'NONE',  ( -1.000000000000000000, 0.000000000000000000, 0.000000000000000000 ) ) ;
#36 = CARTESIAN_POINT ( 'NONE',  ( -4.408728476930471644E-15, 125.0000000000000000, 0.000000000000000000 ) ) ;
#37 = CARTESIAN_POINT ( 'NONE',  ( 0.000000000000000000, 0.000000000000000000, -12.50000000000000000 ) ) ;
#38 = ORIENTED_EDGE ( 'NONE', *, *, #193, .F. ) ;
#39 = LINE ( 'NONE', #211, #192 ) ;
#40 = AXIS2_PLACEMENT_3D ( 'NONE', #133, #25, #130 ) ;
#41 = DIRECTION ( 'NONE',  ( -1.895813576284393923E-16, 1.000000000000000000, -0.000000000000000000 ) ) ;
#42 = VERTEX_POINT ( 'NONE', #123 ) ;
#43 = APPLICATION_CONTEXT ( 'automotive_design' ) ;
#44 = CYLINDRICAL_SURFACE ( 'NONE', #198, 12.50000000000000000 ) ;
#45 =( GEOMETRIC_REPRESENTATION_CONTEXT ( 3 ) GLOBAL_UNCERTAINTY_ASSIGNED_CONTEXT ( ( #188 ) ) GLOBAL_UNIT_ASSIGNED_CONTEXT ( ( #78, #75, #359 ) ) REPRESENTATION_CONTEXT ( 'NONE', 'WORKASPACE' ) );
#46 = DIRECTION ( 'NONE',  ( -0.000000000000000000, -1.000000000000000000, -0.000000000000000000 ) ) ;
#47 = CARTESIAN_POINT ( 'NONE',  ( 0.000000000000000000, 0.000000000000000000, 0.000000000000000000 ) ) ;
#48 = DIRECTION ( 'NONE',  ( -0.000000000000000000, -1.000000000000000000, -0.000000000000000000 ) ) ;
#49 = SURFACE_STYLE_USAGE ( .BOTH. , #337 ) ;
#50 = PRESENTATION_LAYER_ASSIGNMENT (  '', '', ( #2 ) ) ;
#51 = PRODUCT_DEFINITION_FORMATION_WITH_SPECIFIED_SOURCE ( 'ANY', '', #232, .NOT_KNOWN. ) ;
#52 =( NAMED_UNIT ( * ) PLANE_ANGLE_UNIT ( ) SI_UNIT ( $, .RADIAN. ) );
#53 = PRESENTATION_STYLE_ASSIGNMENT (( #79 ) ) ;
#54 = SURFACE_SIDE_STYLE ('',( #142 ) ) ;
#55 = EDGE_CURVE ( 'NONE', #42, #117, #15, .T. ) ;
#56 = CARTESIAN_POINT ( 'NONE',  ( 0.000000000000000000, 0.000000000000000000, -11.50000000000000000 ) ) ;
#57 = AXIS2_PLACEMENT_3D ( 'NONE', #36, #151, #67 ) ;
#58 = DIRECTION ( 'NONE',  ( 1.895813576284393923E-16, -1.000000000000000000, 0.000000000000000000 ) ) ;
#59 = CARTESIAN_POINT ( 'NONE',  ( 0.000000000000000000, 64.00000000000000000, -12.50000000000000000 ) ) ;
#60 = VERTEX_POINT ( 'NONE', #152 ) ;
#61 = CARTESIAN_POINT ( 'NONE',  ( 0.000000000000000000, 1.000000000000000000, -11.50000000000000000 ) ) ;
#62 = MANIFOLD_SOLID_BREP ( 'Revolve - Tool Body (Straight Shanked)', #132 ) ;
#63 = CIRCLE ( 'NONE', #40, 11.50000000000000000 ) ;
#64 = AXIS2_PLACEMENT_3D ( 'NONE', #61, #311, #235 ) ;
#65 = MANIFOLD_SOLID_BREP ( 'Revolve - Cutting Edge', #184 ) ;
#66 = EDGE_LOOP ( 'NONE', ( #237, #85, #126, #309 ) ) ;
#67 = DIRECTION ( 'NONE',  ( -1.000000000000000000, 0.000000000000000000, 0.000000000000000000 ) ) ;
#68 = EDGE_CURVE ( 'NONE', #243, #60, #63, .T. ) ;
#69 = VERTEX_POINT ( 'NONE', #97 ) ;
#70 = DIRECTION ( 'NONE',  ( -1.895813576284393923E-16, 1.000000000000000000, -0.000000000000000000 ) ) ;
#71 = ORIENTED_EDGE ( 'NONE', *, *, #259, .F. ) ;
#72 = CIRCLE ( 'NONE', #312, 12.49999999999999289 ) ;
#73 = MECHANICAL_DESIGN_GEOMETRIC_PRESENTATION_REPRESENTATION (  '', ( #202 ), #169 ) ;
#74 = ORIENTED_EDGE ( 'NONE', *, *, #119, .T. ) ;
#75 =( NAMED_UNIT ( * ) PLANE_ANGLE_UNIT ( ) SI_UNIT ( $, .RADIAN. ) );
#76 = COLOUR_RGB ( '',1.000000000000000000, 0.000000000000000000, 0.000000000000000000 ) ;
#77 = CIRCLE ( 'NONE', #96, 12.50000000000000000 ) ;
#78 =( LENGTH_UNIT ( ) NAMED_UNIT ( * ) SI_UNIT ( .MILLI., .METRE. ) );
#79 = SURFACE_STYLE_USAGE ( .BOTH. , #333 ) ;
#80 = SURFACE_SIDE_STYLE ('',( #364 ) ) ;
#81 = DIRECTION ( 'NONE',  ( 0.000000000000000000, 0.000000000000000000, -1.000000000000000000 ) ) ;
#82 = EDGE_CURVE ( 'NONE', #173, #147, #208, .T. ) ;
#83 = DIRECTION ( 'NONE',  ( -0.000000000000000000, -1.000000000000000000, -0.000000000000000000 ) ) ;
#84 = DIRECTION ( 'NONE',  ( -1.895813576284393923E-16, 1.000000000000000000, 0.000000000000000000 ) ) ;
#85 = ORIENTED_EDGE ( 'NONE', *, *, #355, .T. ) ;
#86 = FACE_OUTER_BOUND ( 'NONE', #91, .T. ) ;
#87 = ORIENTED_EDGE ( 'NONE', *, *, #55, .T. ) ;
#88 = VECTOR ( 'NONE', #181, 1000.000000000000000 ) ;
#89 = PRESENTATION_LAYER_ASSIGNMENT (  '', '', ( #320 ) ) ;
#90 = AXIS2_PLACEMENT_3D ( 'NONE', #369, #58, #319 ) ;
#91 = EDGE_LOOP ( 'NONE', ( #87, #294 ) ) ;
#92 = ORIENTED_EDGE ( 'NONE', *, *, #24, .F. ) ;
#93 = EDGE_LOOP ( 'NONE', ( #92, #205, #246, #239 ) ) ;
#94 = DIRECTION ( 'NONE',  ( -1.895813576284393923E-16, 1.000000000000000000, -0.000000000000000000 ) ) ;
#95 = UNCERTAINTY_MEASURE_WITH_UNIT (LENGTH_MEASURE( 1.000000000000000082E-05 ), #171, 'distance_accuracy_value', 'NONE');
#96 = AXIS2_PLACEMENT_3D ( 'NONE', #207, #83, #315 ) ;
#97 = CARTESIAN_POINT ( 'NONE',  ( 1.530808498934191521E-15, 1.000000000000000000, 12.50000000000000000 ) ) ;
#98 = ADVANCED_FACE ( 'NONE', ( #254 ), #44, .T. ) ;
#99 = CARTESIAN_POINT ( 'NONE',  ( 0.000000000000000000, 1.000000000000000000, 0.000000000000000000 ) ) ;
#100 = PRESENTATION_STYLE_ASSIGNMENT (( #278 ) ) ;
#101 = MECHANICAL_DESIGN_GEOMETRIC_PRESENTATION_REPRESENTATION (  '', ( #127 ), #45 ) ;
#102 =( NAMED_UNIT ( * ) PLANE_ANGLE_UNIT ( ) SI_UNIT ( $, .RADIAN. ) );
#103 = SURFACE_SIDE_STYLE ('',( #16 ) ) ;
#104 =( LENGTH_UNIT ( ) NAMED_UNIT ( * ) SI_UNIT ( .MILLI., .METRE. ) );
#105 = FACE_OUTER_BOUND ( 'NONE', #66, .T. ) ;
#106 = DIRECTION ( 'NONE',  ( 0.000000000000000000, 0.000000000000000000, -1.000000000000000000 ) ) ;
#107 = MECHANICAL_DESIGN_GEOMETRIC_PRESENTATION_REPRESENTATION (  '', ( #273 ), #344 ) ;
#108 = AXIS2_PLACEMENT_3D ( 'NONE', #317, #260, #286 ) ;
#109 = EDGE_LOOP ( 'NONE', ( #6, #318, #213, #71 ) ) ;
#110 = PLANE ( 'NONE',  #321 ) ;
#111 = FACE_OUTER_BOUND ( 'NONE', #272, .T. ) ;
#112 = DIRECTION ( 'NONE',  ( 0.000000000000000000, 0.000000000000000000, -1.000000000000000000 ) ) ;
#113 = COLOUR_RGB ( '',0.7921568627450980005, 0.8196078431372548767, 0.9333333333333333481 ) ;
#114 = DIRECTION ( 'NONE',  ( -1.895813576284393923E-16, 1.000000000000000000, -0.000000000000000000 ) ) ;
#115 = TOROIDAL_SURFACE ( 'NONE', #108, 11.50000000000000000, 1.000000000000000444 ) ;
#116 = DIRECTION ( 'NONE',  ( 1.000000000000000000, 0.000000000000000000, -1.224646799147353207E-16 ) ) ;
#117 = VERTEX_POINT ( 'NONE', #300 ) ;
#118 = EDGE_LOOP ( 'NONE', ( #316, #187 ) ) ;
#119 = EDGE_CURVE ( 'NONE', #356, #69, #186, .T. ) ;
#120 = DIRECTION ( 'NONE',  ( -1.000000000000000000, 0.000000000000000000, 0.000000000000000000 ) ) ;
#121 = MECHANICAL_DESIGN_GEOMETRIC_PRESENTATION_REPRESENTATION (  '', ( #2 ), #306 ) ;
#122 = CIRCLE ( 'NONE', #224, 11.50000000000000000 ) ;
#123 = CARTESIAN_POINT ( 'NONE',  ( -12.50000000000001066, 125.0000000000000000, 0.000000000000000000 ) ) ;
#124 =( NAMED_UNIT ( * ) PLANE_ANGLE_UNIT ( ) SI_UNIT ( $, .RADIAN. ) );
#125 = EDGE_LOOP ( 'NONE', ( #74, #230, #14, #215 ) ) ;
#126 = ORIENTED_EDGE ( 'NONE', *, *, #225, .T. ) ;
#127 = STYLED_ITEM ( 'NONE', ( #100 ), #65 ) ;
#128 = AXIS2_PLACEMENT_3D ( 'NONE', #347, #1, #310 ) ;
#129 =( NAMED_UNIT ( * ) PLANE_ANGLE_UNIT ( ) SI_UNIT ( $, .RADIAN. ) );
#130 = DIRECTION ( 'NONE',  ( 0.000000000000000000, 0.000000000000000000, -1.000000000000000000 ) ) ;
#131 =( NAMED_UNIT ( * ) PLANE_ANGLE_UNIT ( ) SI_UNIT ( $, .RADIAN. ) );
#132 = CLOSED_SHELL ( 'NONE', ( #314, #167, #221, #206 ) ) ;
#133 = CARTESIAN_POINT ( 'NONE',  ( 0.000000000000000000, 0.000000000000000000, 0.000000000000000000 ) ) ;
#134 = CARTESIAN_POINT ( 'NONE',  ( 1.530808498934191521E-15, 64.00000000000000000, 12.50000000000000000 ) ) ;
#135 =( NAMED_UNIT ( * ) SI_UNIT ( $, .STERADIAN. ) SOLID_ANGLE_UNIT ( ) );
#136 =( NAMED_UNIT ( * ) SI_UNIT ( $, .STERADIAN. ) SOLID_ANGLE_UNIT ( ) );
#137 = ADVANCED_FACE ( 'NONE', ( #105 ), #233, .T. ) ;
#138 = PRESENTATION_STYLE_ASSIGNMENT (( #30 ) ) ;
#139 = PRESENTATION_LAYER_ASSIGNMENT (  '', '', ( #332 ) ) ;
#140 = ORIENTED_EDGE ( 'NONE', *, *, #82, .F. ) ;
#141 = ADVANCED_FACE ( 'NONE', ( #255 ), #302, .T. ) ;
#142 = SURFACE_STYLE_FILL_AREA ( #290 ) ;
#143 = FILL_AREA_STYLE_COLOUR ( '', #313 ) ;
#144 = COLOUR_RGB ( '',0.7921568627450980005, 0.8196078431372548767, 0.9333333333333333481 ) ;
#145 = SURFACE_STYLE_USAGE ( .BOTH. , #31 ) ;
#146 = CIRCLE ( 'NONE', #170, 12.49999999999999289 ) ;
#147 = VERTEX_POINT ( 'NONE', #134 ) ;
#148 = CARTESIAN_POINT ( 'NONE',  ( 0.000000000000000000, 1.000000000000000000, 0.000000000000000000 ) ) ;
#149 = ADVANCED_FACE ( 'NONE', ( #282 ), #20, .T. ) ;
#150 = ORIENTED_EDGE ( 'NONE', *, *, #24, .T. ) ;
#151 = DIRECTION ( 'NONE',  ( -1.895813576284393923E-16, 1.000000000000000000, -0.000000000000000000 ) ) ;
#152 = CARTESIAN_POINT ( 'NONE',  ( 1.469576158976823947E-15, 0.000000000000000000, 11.50000000000000000 ) ) ;
#153 = CYLINDRICAL_SURFACE ( 'NONE', #8, 12.50000000000000000 ) ;
#154 = AXIS2_PLACEMENT_3D ( 'NONE', #289, #293, #35 ) ;
#155 = SURFACE_STYLE_FILL_AREA ( #9 ) ;
#156 = PRODUCT_DEFINITION ( 'UNKNOWN', '', #51, #219 ) ;
#157 = UNCERTAINTY_MEASURE_WITH_UNIT (LENGTH_MEASURE( 1.000000000000000082E-05 ), #195, 'distance_accuracy_value', 'NONE');
#158 = VERTEX_POINT ( 'NONE', #366 ) ;
#159 = CARTESIAN_POINT ( 'NONE',  ( 0.000000000000000000, 0.000000000000000000, 0.000000000000000000 ) ) ;
#160 =( GEOMETRIC_REPRESENTATION_CONTEXT ( 3 ) GLOBAL_UNCERTAINTY_ASSIGNED_CONTEXT ( ( #297 ) ) GLOBAL_UNIT_ASSIGNED_CONTEXT ( ( #331, #129, #256 ) ) REPRESENTATION_CONTEXT ( 'NONE', 'WORKASPACE' ) );
#161 = DIRECTION ( 'NONE',  ( 0.000000000000000000, 0.000000000000000000, -1.000000000000000000 ) ) ;
#162 = SHAPE_DEFINITION_REPRESENTATION ( #345, #363 ) ;
#163 = PRESENTATION_STYLE_ASSIGNMENT (( #49 ) ) ;
#164 = SURFACE_SIDE_STYLE ('',( #194 ) ) ;
#165 = FILL_AREA_STYLE_COLOUR ( '', #33 ) ;
#166 = FILL_AREA_STYLE_COLOUR ( '', #113 ) ;
#167 = ADVANCED_FACE ( 'NONE', ( #172 ), #110, .F. ) ;
#168 =( NAMED_UNIT ( * ) SI_UNIT ( $, .STERADIAN. ) SOLID_ANGLE_UNIT ( ) );
#169 =( GEOMETRIC_REPRESENTATION_CONTEXT ( 3 ) GLOBAL_UNCERTAINTY_ASSIGNED_CONTEXT ( ( #157 ) ) GLOBAL_UNIT_ASSIGNED_CONTEXT ( ( #195, #102, #18 ) ) REPRESENTATION_CONTEXT ( 'NONE', 'WORKASPACE' ) );
#170 = AXIS2_PLACEMENT_3D ( 'NONE', #180, #94, #120 ) ;
#171 =( LENGTH_UNIT ( ) NAMED_UNIT ( * ) SI_UNIT ( .MILLI., .METRE. ) );
#172 = FACE_OUTER_BOUND ( 'NONE', #298, .T. ) ;
#173 = VERTEX_POINT ( 'NONE', #59 ) ;
#174 = FILL_AREA_STYLE ('',( #143 ) ) ;
#175 = MECHANICAL_DESIGN_GEOMETRIC_PRESENTATION_REPRESENTATION (  '', ( #320 ), #160 ) ;
#176 = LINE ( 'NONE', #210, #339 ) ;
#177 =( GEOMETRIC_REPRESENTATION_CONTEXT ( 3 ) GLOBAL_UNCERTAINTY_ASSIGNED_CONTEXT ( ( #330 ) ) GLOBAL_UNIT_ASSIGNED_CONTEXT ( ( #10, #124, #354 ) ) REPRESENTATION_CONTEXT ( 'NONE', 'WORKASPACE' ) );
#178 = PLANE ( 'NONE',  #90 ) ;
#179 = ORIENTED_EDGE ( 'NONE', *, *, #299, .F. ) ;
#180 = CARTESIAN_POINT ( 'NONE',  ( 7.155734338404330842E-15, 64.00000000000000000, 0.000000000000000000 ) ) ;
#181 = DIRECTION ( 'NONE',  ( -0.000000000000000000, -1.000000000000000000, -0.000000000000000000 ) ) ;
#182 = DIRECTION ( 'NONE',  ( -0.000000000000000000, -1.000000000000000000, -0.000000000000000000 ) ) ;
#183 = ORIENTED_EDGE ( 'NONE', *, *, #119, .F. ) ;
#184 = CLOSED_SHELL ( 'NONE', ( #98, #263, #149, #137, #141, #276 ) ) ;
#185 = DIRECTION ( 'NONE',  ( -0.000000000000000000, -1.000000000000000000, -0.000000000000000000 ) ) ;
#186 = CIRCLE ( 'NONE', #32, 12.50000000000000000 ) ;
#187 = ORIENTED_EDGE ( 'NONE', *, *, #368, .T. ) ;
#188 = UNCERTAINTY_MEASURE_WITH_UNIT (LENGTH_MEASURE( 1.000000000000000082E-05 ), #78, 'distance_accuracy_value', 'NONE');
#189 = DIRECTION ( 'NONE',  ( 0.000000000000000000, 0.000000000000000000, -1.000000000000000000 ) ) ;
#190 = UNCERTAINTY_MEASURE_WITH_UNIT (LENGTH_MEASURE( 1.000000000000000082E-05 ), #250, 'distance_accuracy_value', 'NONE');
#191 =( GEOMETRIC_REPRESENTATION_CONTEXT ( 3 ) GLOBAL_UNCERTAINTY_ASSIGNED_CONTEXT ( ( #13 ) ) GLOBAL_UNIT_ASSIGNED_CONTEXT ( ( #104, #131, #23 ) ) REPRESENTATION_CONTEXT ( 'NONE', 'WORKASPACE' ) );
#192 = VECTOR ( 'NONE', #7, 1000.000000000000000 ) ;
#193 = EDGE_CURVE ( 'NONE', #147, #173, #77, .T. ) ;
#194 = SURFACE_STYLE_FILL_AREA ( #334 ) ;
#195 =( LENGTH_UNIT ( ) NAMED_UNIT ( * ) SI_UNIT ( .MILLI., .METRE. ) );
#196 = PRODUCT_CONTEXT ( 'NONE', #249, 'mechanical' ) ;
#197 =( LENGTH_UNIT ( ) NAMED_UNIT ( * ) SI_UNIT ( .MILLI., .METRE. ) );
#198 = AXIS2_PLACEMENT_3D ( 'NONE', #159, #248, #189 ) ;
#199 = AXIS2_PLACEMENT_3D ( 'NONE', #148, #185, #240 ) ;
#200 = FILL_AREA_STYLE ('',( #280 ) ) ;
#201 = FACE_OUTER_BOUND ( 'NONE', #322, .T. ) ;
#202 = STYLED_ITEM ( 'NONE', ( #5 ), #62 ) ;
#203 = PLANE ( 'NONE',  #288 ) ;
#204 = ORIENTED_EDGE ( 'NONE', *, *, #308, .T. ) ;
#205 = ORIENTED_EDGE ( 'NONE', *, *, #193, .T. ) ;
#206 = ADVANCED_FACE ( 'NONE', ( #86 ), #178, .F. ) ;
#207 = CARTESIAN_POINT ( 'NONE',  ( 0.000000000000000000, 64.00000000000000000, 0.000000000000000000 ) ) ;
#208 = CIRCLE ( 'NONE', #252, 12.50000000000000000 ) ;
#209 = CIRCLE ( 'NONE', #57, 12.50000000000000533 ) ;
#210 = CARTESIAN_POINT ( 'NONE',  ( 1.530808498934191521E-15, 0.000000000000000000, 12.50000000000000000 ) ) ;
#211 = CARTESIAN_POINT ( 'NONE',  ( 12.49999999999999467, 124.9999999999999858, 1.530808498934191521E-15 ) ) ;
#212 = EDGE_CURVE ( 'NONE', #69, #60, #301, .T. ) ;
#213 = ORIENTED_EDGE ( 'NONE', *, *, #55, .F. ) ;
#214 = DIRECTION ( 'NONE',  ( 0.000000000000000000, -0.000000000000000000, 1.000000000000000000 ) ) ;
#215 = ORIENTED_EDGE ( 'NONE', *, *, #225, .F. ) ;
#216 = CARTESIAN_POINT ( 'NONE',  ( 0.000000000000000000, 1.000000000000000000, -12.50000000000000000 ) ) ;
#217 =( NAMED_UNIT ( * ) PLANE_ANGLE_UNIT ( ) SI_UNIT ( $, .RADIAN. ) );
#218 = APPLICATION_PROTOCOL_DEFINITION ( 'draft international standard', 'automotive_design', 1998, #249 ) ;
#219 = PRODUCT_DEFINITION_CONTEXT ( 'detailed design', #43, 'design' ) ;
#220 = CARTESIAN_POINT ( 'NONE',  ( 0.000000000000000000, 64.00000000000000000, 0.000000000000000000 ) ) ;
#221 = ADVANCED_FACE ( 'NONE', ( #201 ), #370, .T. ) ;
#222 = DIRECTION ( 'NONE',  ( -0.000000000000000000, -1.000000000000000000, -0.000000000000000000 ) ) ;
#223 = STYLED_ITEM ( 'NONE', ( #53 ), #141 ) ;
#224 = AXIS2_PLACEMENT_3D ( 'NONE', #352, #182, #358 ) ;
#225 = EDGE_CURVE ( 'NONE', #356, #243, #22, .T. ) ;
#226 = DIRECTION ( 'NONE',  ( 0.000000000000000000, 0.000000000000000000, 1.000000000000000000 ) ) ;
#227 = FILL_AREA_STYLE ('',( #338 ) ) ;
#228 = PRESENTATION_LAYER_ASSIGNMENT (  '', '', ( #127 ) ) ;
#229 = CARTESIAN_POINT ( 'NONE',  ( -12.50000000000000533, 124.9999999999999858, 0.000000000000000000 ) ) ;
#230 = ORIENTED_EDGE ( 'NONE', *, *, #212, .T. ) ;
#231 = CARTESIAN_POINT ( 'NONE',  ( 0.000000000000000000, 0.000000000000000000, 0.000000000000000000 ) ) ;
#232 = PRODUCT ( '59683', '59683', '', ( #196 ) ) ;
#233 = TOROIDAL_SURFACE ( 'NONE', #281, 11.50000000000000000, 1.000000000000000444 ) ;
#234 = VECTOR ( 'NONE', #114, 1000.000000000000000 ) ;
#235 = DIRECTION ( 'NONE',  ( 0.000000000000000000, 0.000000000000000000, 1.000000000000000000 ) ) ;
#236 = DIRECTION ( 'NONE',  ( -1.224646799147353454E-16, 0.000000000000000000, -1.000000000000000000 ) ) ;
#237 = ORIENTED_EDGE ( 'NONE', *, *, #212, .F. ) ;
#238 = MECHANICAL_DESIGN_GEOMETRIC_PRESENTATION_REPRESENTATION (  '', ( #223 ), #191 ) ;
#239 = ORIENTED_EDGE ( 'NONE', *, *, #355, .F. ) ;
#240 = DIRECTION ( 'NONE',  ( 0.000000000000000000, 0.000000000000000000, -1.000000000000000000 ) ) ;
#241 = PRODUCT_RELATED_PRODUCT_CATEGORY ( 'part', '', ( #232 ) ) ;
#242 = ORIENTED_EDGE ( 'NONE', *, *, #303, .F. ) ;
#243 = VERTEX_POINT ( 'NONE', #56 ) ;
#244 = DIRECTION ( 'NONE',  ( -1.000000000000000000, 0.000000000000000000, 0.000000000000000000 ) ) ;
#245 = UNCERTAINTY_MEASURE_WITH_UNIT (LENGTH_MEASURE( 1.000000000000000082E-05 ), #197, 'distance_accuracy_value', 'NONE');
#246 = ORIENTED_EDGE ( 'NONE', *, *, #4, .T. ) ;
#247 = STYLED_ITEM ( 'NONE', ( #264 ), #276 ) ;
#248 = DIRECTION ( 'NONE',  ( -0.000000000000000000, -1.000000000000000000, -0.000000000000000000 ) ) ;
#249 = APPLICATION_CONTEXT ( 'automotive_design' ) ;
#250 =( LENGTH_UNIT ( ) NAMED_UNIT ( * ) SI_UNIT ( .MILLI., .METRE. ) );
#251 = SURFACE_STYLE_FILL_AREA ( #360 ) ;
#252 = AXIS2_PLACEMENT_3D ( 'NONE', #220, #48, #304 ) ;
#253 = AXIS2_PLACEMENT_3D ( 'NONE', #279, #226, #21 ) ;
#254 = FACE_OUTER_BOUND ( 'NONE', #325, .T. ) ;
#255 = FACE_OUTER_BOUND ( 'NONE', #93, .T. ) ;
#256 =( NAMED_UNIT ( * ) SI_UNIT ( $, .STERADIAN. ) SOLID_ANGLE_UNIT ( ) );
#257 = PRESENTATION_LAYER_ASSIGNMENT (  '', '', ( #223 ) ) ;
#258 = PRESENTATION_LAYER_ASSIGNMENT (  '', '', ( #247 ) ) ;
#259 = EDGE_CURVE ( 'NONE', #285, #42, #29, .T. ) ;
#260 = DIRECTION ( 'NONE',  ( -0.000000000000000000, -1.000000000000000000, -0.000000000000000000 ) ) ;
#261 = ORIENTED_EDGE ( 'NONE', *, *, #82, .T. ) ;
#262 = DIRECTION ( 'NONE',  ( -1.000000000000000000, -1.895813576284393923E-16, 0.000000000000000000 ) ) ;
#263 = ADVANCED_FACE ( 'NONE', ( #341 ), #115, .T. ) ;
#264 = PRESENTATION_STYLE_ASSIGNMENT (( #145 ) ) ;
#265 = SURFACE_STYLE_USAGE ( .BOTH. , #270 ) ;
#266 = CARTESIAN_POINT ( 'NONE',  ( 7.155734338404330842E-15, 64.00000000000000000, 0.000000000000000000 ) ) ;
#267 = DIRECTION ( 'NONE',  ( 0.000000000000000000, 1.000000000000000000, 0.000000000000000000 ) ) ;
#268 = PRESENTATION_LAYER_ASSIGNMENT (  '', '', ( #202 ) ) ;
#269 = COLOUR_RGB ( '',1.000000000000000000, 0.000000000000000000, 0.000000000000000000 ) ;
#270 = SURFACE_SIDE_STYLE ('',( #155 ) ) ;
#271 =( NAMED_UNIT ( * ) SI_UNIT ( $, .STERADIAN. ) SOLID_ANGLE_UNIT ( ) );
#272 = EDGE_LOOP ( 'NONE', ( #140, #38 ) ) ;
#273 = STYLED_ITEM ( 'NONE', ( #336 ), #98 ) ;
#274 = APPLICATION_PROTOCOL_DEFINITION ( 'draft international standard', 'automotive_design', 1998, #43 ) ;
#275 = FILL_AREA_STYLE ('',( #166 ) ) ;
#276 = ADVANCED_FACE ( 'NONE', ( #111 ), #203, .T. ) ;
#277 = DIRECTION ( 'NONE',  ( -0.000000000000000000, -1.000000000000000000, -0.000000000000000000 ) ) ;
#278 = SURFACE_STYLE_USAGE ( .BOTH. , #103 ) ;
#279 = CARTESIAN_POINT ( 'NONE',  ( 0.000000000000000000, 0.000000000000000000, 0.000000000000000000 ) ) ;
#280 = FILL_AREA_STYLE_COLOUR ( '', #327 ) ;
#281 = AXIS2_PLACEMENT_3D ( 'NONE', #305, #222, #81 ) ;
#282 = FACE_OUTER_BOUND ( 'NONE', #118, .T. ) ;
#283 = DIRECTION ( 'NONE',  ( 0.000000000000000000, -1.000000000000000000, -0.000000000000000000 ) ) ;
#284 = AXIS2_PLACEMENT_3D ( 'NONE', #47, #277, #106 ) ;
#285 = VERTEX_POINT ( 'NONE', #329 ) ;
#286 = DIRECTION ( 'NONE',  ( 0.000000000000000000, 0.000000000000000000, -1.000000000000000000 ) ) ;
#287 = SURFACE_STYLE_FILL_AREA ( #174 ) ;
#288 = AXIS2_PLACEMENT_3D ( 'NONE', #296, #267, #214 ) ;
#289 = CARTESIAN_POINT ( 'NONE',  ( -4.408728476930471644E-15, 125.0000000000000000, 0.000000000000000000 ) ) ;
#290 = FILL_AREA_STYLE ('',( #346 ) ) ;
#291 = LINE ( 'NONE', #37, #88 ) ;
#292 =( LENGTH_UNIT ( ) NAMED_UNIT ( * ) SI_UNIT ( .MILLI., .METRE. ) );
#293 = DIRECTION ( 'NONE',  ( -1.895813576284393923E-16, 1.000000000000000000, -0.000000000000000000 ) ) ;
#294 = ORIENTED_EDGE ( 'NONE', *, *, #303, .T. ) ;
#295 =( GEOMETRIC_REPRESENTATION_CONTEXT ( 3 ) GLOBAL_UNCERTAINTY_ASSIGNED_CONTEXT ( ( #17 ) ) GLOBAL_UNIT_ASSIGNED_CONTEXT ( ( #292, #326, #271 ) ) REPRESENTATION_CONTEXT ( 'NONE', 'WORKASPACE' ) );
#296 = CARTESIAN_POINT ( 'NONE',  ( 0.000000000000000000, 64.00000000000000000, 0.000000000000000000 ) ) ;
#297 = UNCERTAINTY_MEASURE_WITH_UNIT (LENGTH_MEASURE( 1.000000000000000082E-05 ), #331, 'distance_accuracy_value', 'NONE');
#298 = EDGE_LOOP ( 'NONE', ( #353, #323 ) ) ;
#299 = EDGE_CURVE ( 'NONE', #158, #117, #39, .T. ) ;
#300 = CARTESIAN_POINT ( 'NONE',  ( 12.50000000000000000, 125.0000000000000000, 1.530808498934191916E-15 ) ) ;
#301 = CIRCLE ( 'NONE', #361, 1.000000000000000888 ) ;
#302 = CYLINDRICAL_SURFACE ( 'NONE', #284, 12.50000000000000000 ) ;
#303 = EDGE_CURVE ( 'NONE', #117, #42, #209, .T. ) ;
#304 = DIRECTION ( 'NONE',  ( 0.000000000000000000, 0.000000000000000000, -1.000000000000000000 ) ) ;
#305 = CARTESIAN_POINT ( 'NONE',  ( 0.000000000000000000, 1.000000000000000000, 0.000000000000000000 ) ) ;
#306 =( GEOMETRIC_REPRESENTATION_CONTEXT ( 3 ) GLOBAL_UNCERTAINTY_ASSIGNED_CONTEXT ( ( #245 ) ) GLOBAL_UNIT_ASSIGNED_CONTEXT ( ( #197, #52, #136 ) ) REPRESENTATION_CONTEXT ( 'NONE', 'WORKASPACE' ) );
#307 = PRESENTATION_STYLE_ASSIGNMENT (( #340 ) ) ;
#308 = EDGE_CURVE ( 'NONE', #158, #285, #146, .T. ) ;
#309 = ORIENTED_EDGE ( 'NONE', *, *, #368, .F. ) ;
#310 = DIRECTION ( 'NONE',  ( -1.000000000000000000, 0.000000000000000000, 0.000000000000000000 ) ) ;
#311 = DIRECTION ( 'NONE',  ( -1.000000000000000000, 0.000000000000000000, 0.000000000000000000 ) ) ;
#312 = AXIS2_PLACEMENT_3D ( 'NONE', #266, #41, #351 ) ;
#313 = COLOUR_RGB ( '',1.000000000000000000, 0.000000000000000000, 0.000000000000000000 ) ;
#314 = ADVANCED_FACE ( 'NONE', ( #12 ), #153, .T. ) ;
#315 = DIRECTION ( 'NONE',  ( 0.000000000000000000, 0.000000000000000000, -1.000000000000000000 ) ) ;
#316 = ORIENTED_EDGE ( 'NONE', *, *, #68, .T. ) ;
#317 = CARTESIAN_POINT ( 'NONE',  ( 0.000000000000000000, 1.000000000000000000, 0.000000000000000000 ) ) ;
#318 = ORIENTED_EDGE ( 'NONE', *, *, #299, .T. ) ;
#319 = DIRECTION ( 'NONE',  ( 1.000000000000000000, 1.895813576284393923E-16, 0.000000000000000000 ) ) ;
#320 = STYLED_ITEM ( 'NONE', ( #307 ), #137 ) ;
#321 = AXIS2_PLACEMENT_3D ( 'NONE', #342, #84, #262 ) ;
#322 = EDGE_LOOP ( 'NONE', ( #179, #204, #348, #242 ) ) ;
#323 = ORIENTED_EDGE ( 'NONE', *, *, #308, .F. ) ;
#324 = CARTESIAN_POINT ( 'NONE',  ( -4.408728476930469278E-15, 124.9999999999999858, 0.000000000000000000 ) ) ;
#325 = EDGE_LOOP ( 'NONE', ( #261, #150, #183, #28 ) ) ;
#326 =( NAMED_UNIT ( * ) PLANE_ANGLE_UNIT ( ) SI_UNIT ( $, .RADIAN. ) );
#327 = COLOUR_RGB ( '',1.000000000000000000, 0.000000000000000000, 0.000000000000000000 ) ;
#328 = DIRECTION ( 'NONE',  ( -0.000000000000000000, -1.000000000000000000, -0.000000000000000000 ) ) ;
#329 = CARTESIAN_POINT ( 'NONE',  ( -12.49999999999998757, 64.00000000000000000, 0.000000000000000000 ) ) ;
#330 = UNCERTAINTY_MEASURE_WITH_UNIT (LENGTH_MEASURE( 1.000000000000000082E-05 ), #10, 'distance_accuracy_value', 'NONE');
#331 =( LENGTH_UNIT ( ) NAMED_UNIT ( * ) SI_UNIT ( .MILLI., .METRE. ) );
#332 = STYLED_ITEM ( 'NONE', ( #138 ), #263 ) ;
#333 = SURFACE_SIDE_STYLE ('',( #335 ) ) ;
#334 = FILL_AREA_STYLE ('',( #165 ) ) ;
#335 = SURFACE_STYLE_FILL_AREA ( #200 ) ;
#336 = PRESENTATION_STYLE_ASSIGNMENT (( #362 ) ) ;
#337 = SURFACE_SIDE_STYLE ('',( #251 ) ) ;
#338 = FILL_AREA_STYLE_COLOUR ( '', #365 ) ;
#339 = VECTOR ( 'NONE', #328, 1000.000000000000000 ) ;
#340 = SURFACE_STYLE_USAGE ( .BOTH. , #80 ) ;
#341 = FACE_OUTER_BOUND ( 'NONE', #125, .T. ) ;
#342 = CARTESIAN_POINT ( 'NONE',  ( 7.155734338404329264E-15, 64.00000000000000000, 0.000000000000000000 ) ) ;
#343 =( NAMED_UNIT ( * ) PLANE_ANGLE_UNIT ( ) SI_UNIT ( $, .RADIAN. ) );
#344 =( GEOMETRIC_REPRESENTATION_CONTEXT ( 3 ) GLOBAL_UNCERTAINTY_ASSIGNED_CONTEXT ( ( #190 ) ) GLOBAL_UNIT_ASSIGNED_CONTEXT ( ( #250, #217, #135 ) ) REPRESENTATION_CONTEXT ( 'NONE', 'WORKASPACE' ) );
#345 = PRODUCT_DEFINITION_SHAPE ( 'NONE', 'NONE',  #156 ) ;
#346 = FILL_AREA_STYLE_COLOUR ( '', #269 ) ;
#347 = CARTESIAN_POINT ( 'NONE',  ( -4.408728476930469278E-15, 124.9999999999999858, 0.000000000000000000 ) ) ;
#348 = ORIENTED_EDGE ( 'NONE', *, *, #259, .T. ) ;
#349 = PRESENTATION_LAYER_ASSIGNMENT (  '', '', ( #273 ) ) ;
#350 =( GEOMETRIC_REPRESENTATION_CONTEXT ( 3 ) GLOBAL_UNCERTAINTY_ASSIGNED_CONTEXT ( ( #95 ) ) GLOBAL_UNIT_ASSIGNED_CONTEXT ( ( #171, #343, #168 ) ) REPRESENTATION_CONTEXT ( 'NONE', 'WORKASPACE' ) );
#351 = DIRECTION ( 'NONE',  ( -1.000000000000000000, 0.000000000000000000, 0.000000000000000000 ) ) ;
#352 = CARTESIAN_POINT ( 'NONE',  ( 0.000000000000000000, 0.000000000000000000, 0.000000000000000000 ) ) ;
#353 = ORIENTED_EDGE ( 'NONE', *, *, #19, .F. ) ;
#354 =( NAMED_UNIT ( * ) SI_UNIT ( $, .STERADIAN. ) SOLID_ANGLE_UNIT ( ) );
#355 = EDGE_CURVE ( 'NONE', #69, #356, #357, .T. ) ;
#356 = VERTEX_POINT ( 'NONE', #216 ) ;
#357 = CIRCLE ( 'NONE', #199, 12.50000000000000000 ) ;
#358 = DIRECTION ( 'NONE',  ( 0.000000000000000000, 0.000000000000000000, -1.000000000000000000 ) ) ;
#359 =( NAMED_UNIT ( * ) SI_UNIT ( $, .STERADIAN. ) SOLID_ANGLE_UNIT ( ) );
#360 = FILL_AREA_STYLE ('',( #26 ) ) ;
#361 = AXIS2_PLACEMENT_3D ( 'NONE', #3, #116, #236 ) ;
#362 = SURFACE_STYLE_USAGE ( .BOTH. , #164 ) ;
#363 = ADVANCED_BREP_SHAPE_REPRESENTATION ( '59683', ( #65, #62, #253 ), #177 ) ;
#364 = SURFACE_STYLE_FILL_AREA ( #227 ) ;
#365 = COLOUR_RGB ( '',1.000000000000000000, 0.000000000000000000, 0.000000000000000000 ) ;
#366 = CARTESIAN_POINT ( 'NONE',  ( 12.50000000000000000, 64.00000000000000000, 1.530808498934191916E-15 ) ) ;
#367 = MECHANICAL_DESIGN_GEOMETRIC_PRESENTATION_REPRESENTATION (  '', ( #247 ), #295 ) ;
#368 = EDGE_CURVE ( 'NONE', #60, #243, #122, .T. ) ;
#369 = CARTESIAN_POINT ( 'NONE',  ( 12.50000000000000000, 125.0000000000000000, 0.000000000000000000 ) ) ;
#370 = CYLINDRICAL_SURFACE ( 'NONE', #128, 12.50000000000000000 ) ;
ENDSEC;
END-ISO-10303-21;
