ISO-10303-21;
HEADER;
FILE_DESCRIPTION (( 'STEP AP214' ),
    '1' );
FILE_NAME ('Micro_GEMM-080-2X.STEP',
    '2021-09-01T21:47:30',
    ( '' ),
    ( '' ),
    'SwSTEP 2.0',
    'SolidWorks 2020',
    '' );
FILE_SCHEMA (( 'AUTOMOTIVE_DESIGN' ));
ENDSEC;

DATA;
#1 = CIRCLE ( 'NONE', #201, 0.1574804999999999955 ) ;
#2 = ADVANCED_FACE ( 'NONE', ( #148 ), #87, .T. ) ;
#3 = EDGE_CURVE ( 'NONE', #4, #163, #281, .T. ) ;
#4 = VERTEX_POINT ( 'NONE', #123 ) ;
#5 = DIRECTION ( 'NONE',  ( 1.224646799147353207E-16, 0.0000000000000000000, 1.000000000000000000 ) ) ;
#6 = VERTEX_POINT ( 'NONE', #186 ) ;
#7 = ORIENTED_EDGE ( 'NONE', *, *, #43, .T. ) ;
#8 = ORIENTED_EDGE ( 'NONE', *, *, #3, .F. ) ;
#9 = AXIS2_PLACEMENT_3D ( 'NONE', #175, #15, #107 ) ;
#10 = STYLED_ITEM ( 'NONE', ( #88 ), #237 ) ;
#11 = SHAPE_DEFINITION_REPRESENTATION ( #238, #237 ) ;
#12 = DIRECTION ( 'NONE',  ( 0.0000000000000000000, 0.0000000000000000000, -1.000000000000000000 ) ) ;
#13 = EDGE_LOOP ( 'NONE', ( #31, #161, #181, #279 ) ) ;
#14 = VERTEX_POINT ( 'NONE', #280 ) ;
#15 = DIRECTION ( 'NONE',  ( -1.224646799147353207E-16, -0.0000000000000000000, -1.000000000000000000 ) ) ;
#16 = DIRECTION ( 'NONE',  ( 1.000000000000000000, 0.0000000000000000000, -0.0000000000000000000 ) ) ;
#17 = CARTESIAN_POINT ( 'NONE',  ( 0.0000000000000000000, 0.0000000000000000000, 2.480315000000000047 ) ) ;
#18 = DIRECTION ( 'NONE',  ( 0.0000000000000000000, 0.0000000000000000000, 1.000000000000000000 ) ) ;
#19 = AXIS2_PLACEMENT_3D ( 'NONE', #127, #128, #34 ) ;
#20 = DIRECTION ( 'NONE',  ( -1.224646799147353207E-16, -0.0000000000000000000, -1.000000000000000000 ) ) ;
#21 = VERTEX_POINT ( 'NONE', #262 ) ;
#22 = CIRCLE ( 'NONE', #61, 0.1424804999999990940 ) ;
#23 = CARTESIAN_POINT ( 'NONE',  ( 0.1573230194999999665, 1.926651322628715702E-17, -1.926651322628715702E-17 ) ) ;
#24 = VERTEX_POINT ( 'NONE', #100 ) ;
#25 = SURFACE_SIDE_STYLE ('',( #250 ) ) ;
#26 = ORIENTED_EDGE ( 'NONE', *, *, #207, .F. ) ;
#27 = PRESENTATION_LAYER_ASSIGNMENT (  '', '', ( #10 ) ) ;
#28 = ORIENTED_EDGE ( 'NONE', *, *, #154, .F. ) ;
#29 = ADVANCED_FACE ( 'NONE', ( #53 ), #252, .T. ) ;
#30 = EDGE_LOOP ( 'NONE', ( #200, #47 ) ) ;
#31 = ORIENTED_EDGE ( 'NONE', *, *, #112, .F. ) ;
#32 = VERTEX_POINT ( 'NONE', #235 ) ;
#33 = ORIENTED_EDGE ( 'NONE', *, *, #154, .T. ) ;
#34 = DIRECTION ( 'NONE',  ( -1.000000000000000000, 0.0000000000000000000, 1.224646799147353454E-16 ) ) ;
#35 = VECTOR ( 'NONE', #156, 39.37007874015747433 ) ;
#36 = DIRECTION ( 'NONE',  ( 0.7071067811865627828, 8.659560562355118980E-17, -0.7071067811865321406 ) ) ;
#37 = DIRECTION ( 'NONE',  ( -1.224646799147353207E-16, -0.0000000000000000000, -1.000000000000000000 ) ) ;
#38 = DIRECTION ( 'NONE',  ( 0.0000000000000000000, 0.0000000000000000000, 1.000000000000000000 ) ) ;
#39 = CARTESIAN_POINT ( 'NONE',  ( 0.1574805000000000510, 1.928579902531248028E-17, 0.6308141162965944515 ) ) ;
#40 = VECTOR ( 'NONE', #167, 39.37007874015748143 ) ;
#41 = DIMENSIONAL_EXPONENTS ( 1.000000000000000000, 0.0000000000000000000, 0.0000000000000000000, 0.0000000000000000000, 0.0000000000000000000, 0.0000000000000000000, 0.0000000000000000000 ) ;
#42 =( NAMED_UNIT ( * ) SI_UNIT ( $, .STERADIAN. ) SOLID_ANGLE_UNIT ( ) );
#43 = EDGE_CURVE ( 'NONE', #14, #225, #48, .T. ) ;
#44 = AXIS2_PLACEMENT_3D ( 'NONE', #173, #18, #16 ) ;
#45 = EDGE_CURVE ( 'NONE', #14, #24, #82, .T. ) ;
#46 = FILL_AREA_STYLE ('',( #276 ) ) ;
#47 = ORIENTED_EDGE ( 'NONE', *, *, #54, .T. ) ;
#48 = LINE ( 'NONE', #143, #130 ) ;
#49 = AXIS2_PLACEMENT_3D ( 'NONE', #284, #120, #208 ) ;
#50 = FACE_OUTER_BOUND ( 'NONE', #30, .T. ) ;
#51 = EDGE_CURVE ( 'NONE', #24, #14, #165, .T. ) ;
#52 = CYLINDRICAL_SURFACE ( 'NONE', #193, 0.1573230194999999665 ) ;
#53 = FACE_OUTER_BOUND ( 'NONE', #13, .T. ) ;
#54 = EDGE_CURVE ( 'NONE', #6, #32, #160, .T. ) ;
#55 = AXIS2_PLACEMENT_3D ( 'NONE', #269, #244, #292 ) ;
#56 = ADVANCED_FACE ( 'NONE', ( #50 ), #232, .T. ) ;
#57 = ORIENTED_EDGE ( 'NONE', *, *, #289, .T. ) ;
#58 = DIRECTION ( 'NONE',  ( 1.000000000000000000, 0.0000000000000000000, 0.0000000000000000000 ) ) ;
#59 = EDGE_CURVE ( 'NONE', #163, #225, #96, .T. ) ;
#60 = CYLINDRICAL_SURFACE ( 'NONE', #102, 0.1574804999999999955 ) ;
#61 = AXIS2_PLACEMENT_3D ( 'NONE', #81, #38, #153 ) ;
#62 = CARTESIAN_POINT ( 'NONE',  ( -0.1424804999999990940, 0.0000000000000000000, 2.480315000000000047 ) ) ;
#63 = CARTESIAN_POINT ( 'NONE',  ( 7.725244883795906416E-17, 0.0000000000000000000, 0.6308141162965944515 ) ) ;
#64 = SURFACE_STYLE_FILL_AREA ( #270 ) ;
#65 =( CONVERSION_BASED_UNIT ( 'INCH', #226 ) LENGTH_UNIT ( ) NAMED_UNIT ( #41 ) );
#66 = LENGTH_MEASURE_WITH_UNIT ( LENGTH_MEASURE( 0.02539999999999999897 ), #247 );
#67 = CARTESIAN_POINT ( 'NONE',  ( 7.725244883795906416E-17, 0.0000000000000000000, 0.6308141162965944515 ) ) ;
#68 =( LENGTH_UNIT ( ) NAMED_UNIT ( * ) SI_UNIT ( $, .METRE. ) );
#69 = ORIENTED_EDGE ( 'NONE', *, *, #45, .T. ) ;
#70 = ORIENTED_EDGE ( 'NONE', *, *, #59, .T. ) ;
#71 =( NAMED_UNIT ( * ) SI_UNIT ( $, .STERADIAN. ) SOLID_ANGLE_UNIT ( ) );
#72 = ORIENTED_EDGE ( 'NONE', *, *, #177, .T. ) ;
#73 = DIRECTION ( 'NONE',  ( 0.0000000000000000000, 0.0000000000000000000, -1.000000000000000000 ) ) ;
#74 = VECTOR ( 'NONE', #20, 39.37007874015748143 ) ;
#75 = CARTESIAN_POINT ( 'NONE',  ( 0.1574804999999999955, 1.928579902531247412E-17, 2.480315000000000047 ) ) ;
#76 = ORIENTED_EDGE ( 'NONE', *, *, #289, .F. ) ;
#77 = CARTESIAN_POINT ( 'NONE',  ( 7.714307363656999460E-17, 0.0000000000000000000, 0.6299209999999999532 ) ) ;
#78 = PRESENTATION_LAYER_ASSIGNMENT (  '', '', ( #92 ) ) ;
#79 = LINE ( 'NONE', #174, #35 ) ;
#80 = DIRECTION ( 'NONE',  ( 1.224646799147353207E-16, 0.0000000000000000000, 1.000000000000000000 ) ) ;
#81 = CARTESIAN_POINT ( 'NONE',  ( 0.0000000000000000000, 0.0000000000000000000, 2.480315000000000047 ) ) ;
#82 = CIRCLE ( 'NONE', #214, 0.1573230194999999665 ) ;
#83 = DIRECTION ( 'NONE',  ( -1.000000000000000000, 0.0000000000000000000, 0.0000000000000000000 ) ) ;
#84 = FILL_AREA_STYLE_COLOUR ( '', #219 ) ;
#85 = CLOSED_SHELL ( 'NONE', ( #94, #109, #2, #158, #242, #56, #29, #285, #213, #136 ) ) ;
#86 = APPLICATION_CONTEXT ( 'automotive_design' ) ;
#87 = CONICAL_SURFACE ( 'NONE', #227, 0.1424804999999990940, 0.7853981633974699283 ) ;
#88 = PRESENTATION_STYLE_ASSIGNMENT (( #140 ) ) ;
#89 = ORIENTED_EDGE ( 'NONE', *, *, #207, .T. ) ;
#90 = DIRECTION ( 'NONE',  ( 1.000000000000000000, 0.0000000000000000000, 0.0000000000000000000 ) ) ;
#91 = ORIENTED_EDGE ( 'NONE', *, *, #176, .T. ) ;
#92 = STYLED_ITEM ( 'NONE', ( #264 ), #266 ) ;
#93 = ORIENTED_EDGE ( 'NONE', *, *, #3, .T. ) ;
#94 = ADVANCED_FACE ( 'NONE', ( #259 ), #52, .T. ) ;
#95 = DIRECTION ( 'NONE',  ( 0.0000000000000000000, 0.0000000000000000000, 1.000000000000000000 ) ) ;
#96 = LINE ( 'NONE', #75, #40 ) ;
#97 = AXIS2_PLACEMENT_3D ( 'NONE', #150, #37, #172 ) ;
#98 = AXIS2_PLACEMENT_3D ( 'NONE', #142, #233, #190 ) ;
#99 = CARTESIAN_POINT ( 'NONE',  ( 7.714307363656999460E-17, 0.0000000000000000000, 0.6299209999999999532 ) ) ;
#100 = CARTESIAN_POINT ( 'NONE',  ( -0.1573230194999999110, 1.927615612579981403E-17, 0.6299209999999999532 ) ) ;
#101 = DIRECTION ( 'NONE',  ( -1.000000000000000000, 0.0000000000000000000, 0.0000000000000000000 ) ) ;
#102 = AXIS2_PLACEMENT_3D ( 'NONE', #17, #125, #129 ) ;
#103 = CARTESIAN_POINT ( 'NONE',  ( -0.1574804999999999955, 0.0000000000000000000, 2.480315000000000047 ) ) ;
#104 = APPLICATION_CONTEXT ( 'automotive_design' ) ;
#105 = CYLINDRICAL_SURFACE ( 'NONE', #9, 0.1573230194999999665 ) ;
#106 = DIMENSIONAL_EXPONENTS ( 1.000000000000000000, 0.0000000000000000000, 0.0000000000000000000, 0.0000000000000000000, 0.0000000000000000000, 0.0000000000000000000, 0.0000000000000000000 ) ;
#107 = DIRECTION ( 'NONE',  ( -1.000000000000000000, 0.0000000000000000000, 1.224646799147352961E-16 ) ) ;
#108 = LINE ( 'NONE', #295, #74 ) ;
#109 = ADVANCED_FACE ( 'NONE', ( #286 ), #261, .T. ) ;
#110 = LINE ( 'NONE', #23, #152 ) ;
#111 = ORIENTED_EDGE ( 'NONE', *, *, #59, .F. ) ;
#112 = EDGE_CURVE ( 'NONE', #6, #163, #196, .T. ) ;
#113 = VECTOR ( 'NONE', #192, 39.37007874015748143 ) ;
#114 = PRODUCT_DEFINITION_FORMATION_WITH_SPECIFIED_SOURCE ( 'ANY', '', #274, .NOT_KNOWN. ) ;
#115 =( NAMED_UNIT ( * ) SI_UNIT ( $, .STERADIAN. ) SOLID_ANGLE_UNIT ( ) );
#116 = EDGE_LOOP ( 'NONE', ( #202, #89, #211, #134 ) ) ;
#117 = EDGE_LOOP ( 'NONE', ( #26, #254, #7, #72 ) ) ;
#118 = MECHANICAL_DESIGN_GEOMETRIC_PRESENTATION_REPRESENTATION (  '', ( #92 ), #268 ) ;
#119 = DIRECTION ( 'NONE',  ( 0.0000000000000000000, 0.0000000000000000000, -1.000000000000000000 ) ) ;
#120 = DIRECTION ( 'NONE',  ( 0.0000000000000000000, 0.0000000000000000000, 1.000000000000000000 ) ) ;
#121 = ORIENTED_EDGE ( 'NONE', *, *, #228, .F. ) ;
#122 = AXIS2_PLACEMENT_3D ( 'NONE', #288, #291, #83 ) ;
#123 = CARTESIAN_POINT ( 'NONE',  ( -0.1574804999999999955, 0.0000000000000000000, 2.465314999999999923 ) ) ;
#124 = DIRECTION ( 'NONE',  ( -1.000000000000000000, 0.0000000000000000000, 0.0000000000000000000 ) ) ;
#125 = DIRECTION ( 'NONE',  ( -0.0000000000000000000, -0.0000000000000000000, -1.000000000000000000 ) ) ;
#126 = CIRCLE ( 'NONE', #97, 0.1573230194999999942 ) ;
#127 = CARTESIAN_POINT ( 'NONE',  ( 2.359467375330272285E-33, 0.0000000000000000000, 1.926651322628716627E-17 ) ) ;
#128 = DIRECTION ( 'NONE',  ( -1.224646799147353207E-16, -0.0000000000000000000, -1.000000000000000000 ) ) ;
#129 = DIRECTION ( 'NONE',  ( -1.000000000000000000, 0.0000000000000000000, 0.0000000000000000000 ) ) ;
#130 = VECTOR ( 'NONE', #287, 39.37007874015748143 ) ;
#131 = SURFACE_SIDE_STYLE ('',( #64 ) ) ;
#132 =( NAMED_UNIT ( * ) PLANE_ANGLE_UNIT ( ) SI_UNIT ( $, .RADIAN. ) );
#133 =( NAMED_UNIT ( * ) PLANE_ANGLE_UNIT ( ) SI_UNIT ( $, .RADIAN. ) );
#134 = ORIENTED_EDGE ( 'NONE', *, *, #43, .F. ) ;
#135 = UNCERTAINTY_MEASURE_WITH_UNIT (LENGTH_MEASURE( 1.000000000000000082E-05 ), #65, 'distance_accuracy_value', 'NONE');
#136 = ADVANCED_FACE ( 'NONE', ( #149 ), #265, .F. ) ;
#137 = AXIS2_PLACEMENT_3D ( 'NONE', #212, #80, #240 ) ;
#138 = DIRECTION ( 'NONE',  ( 1.000000000000000000, 0.0000000000000000000, 0.0000000000000000000 ) ) ;
#139 = VERTEX_POINT ( 'NONE', #217 ) ;
#140 = SURFACE_STYLE_USAGE ( .BOTH. , #25 ) ;
#141 = ORIENTED_EDGE ( 'NONE', *, *, #251, .F. ) ;
#142 = CARTESIAN_POINT ( 'NONE',  ( 0.0000000000000000000, 0.0000000000000000000, 0.0000000000000000000 ) ) ;
#143 = CARTESIAN_POINT ( 'NONE',  ( 0.1573230195000000220, 0.0000000000000000000, 0.6299209999999999532 ) ) ;
#144 = DIRECTION ( 'NONE',  ( -1.000000000000000000, 0.0000000000000000000, 0.0000000000000000000 ) ) ;
#145 = CARTESIAN_POINT ( 'NONE',  ( 0.0000000000000000000, 0.0000000000000000000, 0.0000000000000000000 ) ) ;
#146 = ORIENTED_EDGE ( 'NONE', *, *, #222, .T. ) ;
#147 = VECTOR ( 'NONE', #36, 39.37007874015748854 ) ;
#148 = FACE_OUTER_BOUND ( 'NONE', #204, .T. ) ;
#149 = FACE_OUTER_BOUND ( 'NONE', #272, .T. ) ;
#150 = CARTESIAN_POINT ( 'NONE',  ( 2.359467375330272285E-33, 0.0000000000000000000, 1.926651322628716627E-17 ) ) ;
#151 = AXIS2_PLACEMENT_3D ( 'NONE', #206, #95, #185 ) ;
#152 = VECTOR ( 'NONE', #203, 39.37007874015748143 ) ;
#153 = DIRECTION ( 'NONE',  ( 1.000000000000000000, 0.0000000000000000000, 0.0000000000000000000 ) ) ;
#154 = EDGE_CURVE ( 'NONE', #139, #179, #187, .T. ) ;
#155 = CYLINDRICAL_SURFACE ( 'NONE', #122, 0.1574804999999999955 ) ;
#156 = DIRECTION ( 'NONE',  ( -0.1736481776669311639, 2.126576849575783008E-17, 0.9848077530122080203 ) ) ;
#157 = DIRECTION ( 'NONE',  ( -1.224646799147353207E-16, -0.0000000000000000000, -1.000000000000000000 ) ) ;
#158 = ADVANCED_FACE ( 'NONE', ( #267 ), #60, .T. ) ;
#159 = EDGE_LOOP ( 'NONE', ( #275, #57, #28, #277 ) ) ;
#160 = CIRCLE ( 'NONE', #151, 0.1424804999999990940 ) ;
#161 = ORIENTED_EDGE ( 'NONE', *, *, #230, .F. ) ;
#162 = EDGE_LOOP ( 'NONE', ( #93, #70, #248, #121 ) ) ;
#163 = VERTEX_POINT ( 'NONE', #243 ) ;
#164 = CARTESIAN_POINT ( 'NONE',  ( 0.0000000000000000000, 0.0000000000000000000, 2.480315000000000047 ) ) ;
#165 = CIRCLE ( 'NONE', #223, 0.1573230194999999665 ) ;
#166 = CONICAL_SURFACE ( 'NONE', #283, 0.1573230194999999665, 0.1745329251994338637 ) ;
#167 = DIRECTION ( 'NONE',  ( -0.0000000000000000000, -0.0000000000000000000, -1.000000000000000000 ) ) ;
#168 = PRODUCT_CONTEXT ( 'NONE', #86, 'mechanical' ) ;
#169 = EDGE_LOOP ( 'NONE', ( #111, #146, #278, #210 ) ) ;
#170 = DIRECTION ( 'NONE',  ( -1.000000000000000000, 0.0000000000000000000, 0.0000000000000000000 ) ) ;
#171 = SURFACE_STYLE_USAGE ( .BOTH. , #131 ) ;
#172 = DIRECTION ( 'NONE',  ( -1.000000000000000000, 0.0000000000000000000, 1.224646799147353454E-16 ) ) ;
#173 = CARTESIAN_POINT ( 'NONE',  ( 0.0000000000000000000, 0.0000000000000000000, 0.0000000000000000000 ) ) ;
#174 = CARTESIAN_POINT ( 'NONE',  ( -0.1573230194999999110, 1.926651322628715702E-17, 0.6299209999999999532 ) ) ;
#175 = CARTESIAN_POINT ( 'NONE',  ( 0.0000000000000000000, 0.0000000000000000000, 0.0000000000000000000 ) ) ;
#176 = EDGE_CURVE ( 'NONE', #179, #139, #126, .T. ) ;
#177 = EDGE_CURVE ( 'NONE', #225, #21, #1, .T. ) ;
#178 = MECHANICAL_DESIGN_GEOMETRIC_PRESENTATION_REPRESENTATION (  '', ( #10 ), #236 ) ;
#179 = VERTEX_POINT ( 'NONE', #241 ) ;
#180 = UNCERTAINTY_MEASURE_WITH_UNIT (LENGTH_MEASURE( 1.000000000000000082E-05 ), #199, 'distance_accuracy_value', 'NONE');
#181 = ORIENTED_EDGE ( 'NONE', *, *, #251, .T. ) ;
#182 = CIRCLE ( 'NONE', #55, 0.1574804999999999955 ) ;
#183 = ORIENTED_EDGE ( 'NONE', *, *, #54, .F. ) ;
#184 = ORIENTED_EDGE ( 'NONE', *, *, #176, .F. ) ;
#185 = DIRECTION ( 'NONE',  ( 1.000000000000000000, 0.0000000000000000000, 0.0000000000000000000 ) ) ;
#186 = CARTESIAN_POINT ( 'NONE',  ( 0.1424804999999990940, 1.836731392595189962E-17, 2.480315000000000047 ) ) ;
#187 = CIRCLE ( 'NONE', #19, 0.1573230194999999942 ) ;
#188 = COLOUR_RGB ( '',0.7921568627450980005, 0.8196078431372548767, 0.9333333333333333481 ) ;
#189 = DIRECTION ( 'NONE',  ( -1.000000000000000000, 0.0000000000000000000, 1.224646799147352961E-16 ) ) ;
#190 = DIRECTION ( 'NONE',  ( 1.000000000000000000, 0.0000000000000000000, 0.0000000000000000000 ) ) ;
#191 = ORIENTED_EDGE ( 'NONE', *, *, #215, .T. ) ;
#192 = DIRECTION ( 'NONE',  ( -0.0000000000000000000, -0.0000000000000000000, -1.000000000000000000 ) ) ;
#193 = AXIS2_PLACEMENT_3D ( 'NONE', #145, #234, #189 ) ;
#194 =( GEOMETRIC_REPRESENTATION_CONTEXT ( 3 ) GLOBAL_UNCERTAINTY_ASSIGNED_CONTEXT ( ( #249 ) ) GLOBAL_UNIT_ASSIGNED_CONTEXT ( ( #271, #297, #115 ) ) REPRESENTATION_CONTEXT ( 'NONE', 'WORKASPACE' ) );
#195 = LINE ( 'NONE', #62, #294 ) ;
#196 = LINE ( 'NONE', #246, #147 ) ;
#197 = DIRECTION ( 'NONE',  ( -0.7071067811865627828, 0.0000000000000000000, -0.7071067811865321406 ) ) ;
#198 = FACE_OUTER_BOUND ( 'NONE', #169, .T. ) ;
#199 =( CONVERSION_BASED_UNIT ( 'INCH', #273 ) LENGTH_UNIT ( ) NAMED_UNIT ( #106 ) );
#200 = ORIENTED_EDGE ( 'NONE', *, *, #230, .T. ) ;
#201 = AXIS2_PLACEMENT_3D ( 'NONE', #63, #218, #58 ) ;
#202 = ORIENTED_EDGE ( 'NONE', *, *, #51, .F. ) ;
#203 = DIRECTION ( 'NONE',  ( -1.224646799147353207E-16, -0.0000000000000000000, -1.000000000000000000 ) ) ;
#204 = EDGE_LOOP ( 'NONE', ( #183, #299, #8, #141 ) ) ;
#205 = APPLICATION_PROTOCOL_DEFINITION ( 'draft international standard', 'automotive_design', 1998, #104 ) ;
#206 = CARTESIAN_POINT ( 'NONE',  ( 0.0000000000000000000, 0.0000000000000000000, 2.480315000000000047 ) ) ;
#207 = EDGE_CURVE ( 'NONE', #24, #21, #79, .T. ) ;
#208 = DIRECTION ( 'NONE',  ( 1.000000000000000000, 0.0000000000000000000, -0.0000000000000000000 ) ) ;
#209 = CARTESIAN_POINT ( 'NONE',  ( 0.0000000000000000000, 0.0000000000000000000, 2.480315000000000047 ) ) ;
#210 = ORIENTED_EDGE ( 'NONE', *, *, #177, .F. ) ;
#211 = ORIENTED_EDGE ( 'NONE', *, *, #290, .T. ) ;
#212 = CARTESIAN_POINT ( 'NONE',  ( 7.714307363656999460E-17, 0.0000000000000000000, 0.6299209999999999532 ) ) ;
#213 = ADVANCED_FACE ( 'NONE', ( #216 ), #105, .T. ) ;
#214 = AXIS2_PLACEMENT_3D ( 'NONE', #77, #239, #170 ) ;
#215 = EDGE_CURVE ( 'NONE', #24, #139, #108, .T. ) ;
#216 = FACE_OUTER_BOUND ( 'NONE', #258, .T. ) ;
#217 = CARTESIAN_POINT ( 'NONE',  ( -0.1573230194999999942, 0.0000000000000000000, 3.853302645257433254E-17 ) ) ;
#218 = DIRECTION ( 'NONE',  ( -1.224646799147353207E-16, -0.0000000000000000000, -1.000000000000000000 ) ) ;
#219 = COLOUR_RGB ( '',0.7921568627450980005, 0.8196078431372548767, 0.9333333333333333481 ) ;
#220 = LINE ( 'NONE', #103, #113 ) ;
#221 = CARTESIAN_POINT ( 'NONE',  ( 7.714307363656999460E-17, 0.0000000000000000000, 0.6299209999999999532 ) ) ;
#222 = EDGE_CURVE ( 'NONE', #163, #4, #182, .T. ) ;
#223 = AXIS2_PLACEMENT_3D ( 'NONE', #99, #229, #124 ) ;
#224 = APPLICATION_PROTOCOL_DEFINITION ( 'draft international standard', 'automotive_design', 1998, #86 ) ;
#225 = VERTEX_POINT ( 'NONE', #39 ) ;
#226 = LENGTH_MEASURE_WITH_UNIT ( LENGTH_MEASURE( 0.02539999999999999897 ), #68 );
#227 = AXIS2_PLACEMENT_3D ( 'NONE', #209, #12, #101 ) ;
#228 = EDGE_CURVE ( 'NONE', #4, #21, #220, .T. ) ;
#229 = DIRECTION ( 'NONE',  ( -1.224646799147353207E-16, -0.0000000000000000000, -1.000000000000000000 ) ) ;
#230 = EDGE_CURVE ( 'NONE', #32, #6, #22, .T. ) ;
#231 = PRODUCT_RELATED_PRODUCT_CATEGORY ( 'part', '', ( #274 ) ) ;
#232 = PLANE ( 'NONE',  #49 ) ;
#233 = DIRECTION ( 'NONE',  ( 0.0000000000000000000, 0.0000000000000000000, 1.000000000000000000 ) ) ;
#234 = DIRECTION ( 'NONE',  ( -1.224646799147353207E-16, -0.0000000000000000000, -1.000000000000000000 ) ) ;
#235 = CARTESIAN_POINT ( 'NONE',  ( -0.1424804999999990940, 0.0000000000000000000, 2.480315000000000047 ) ) ;
#236 =( GEOMETRIC_REPRESENTATION_CONTEXT ( 3 ) GLOBAL_UNCERTAINTY_ASSIGNED_CONTEXT ( ( #135 ) ) GLOBAL_UNIT_ASSIGNED_CONTEXT ( ( #65, #133, #71 ) ) REPRESENTATION_CONTEXT ( 'NONE', 'WORKASPACE' ) );
#237 = ADVANCED_BREP_SHAPE_REPRESENTATION ( 'Micro_GEMM-080-2X', ( #266, #98 ), #194 ) ;
#238 = PRODUCT_DEFINITION_SHAPE ( 'NONE', 'NONE',  #245 ) ;
#239 = DIRECTION ( 'NONE',  ( -1.224646799147353207E-16, -0.0000000000000000000, -1.000000000000000000 ) ) ;
#240 = DIRECTION ( 'NONE',  ( 1.000000000000000000, 0.0000000000000000000, 0.0000000000000000000 ) ) ;
#241 = CARTESIAN_POINT ( 'NONE',  ( 0.1573230194999999942, 1.926651322628716011E-17, 3.791200677927629740E-33 ) ) ;
#242 = ADVANCED_FACE ( 'NONE', ( #198 ), #155, .T. ) ;
#243 = CARTESIAN_POINT ( 'NONE',  ( 0.1574804999999999955, 1.928579902531247412E-17, 2.465314999999999923 ) ) ;
#244 = DIRECTION ( 'NONE',  ( 0.0000000000000000000, 0.0000000000000000000, -1.000000000000000000 ) ) ;
#245 = PRODUCT_DEFINITION ( 'UNKNOWN', '', #114, #296 ) ;
#246 = CARTESIAN_POINT ( 'NONE',  ( 0.1424804999999990940, 1.744882882659133128E-17, 2.480315000000000047 ) ) ;
#247 =( LENGTH_UNIT ( ) NAMED_UNIT ( * ) SI_UNIT ( $, .METRE. ) );
#248 = ORIENTED_EDGE ( 'NONE', *, *, #290, .F. ) ;
#249 = UNCERTAINTY_MEASURE_WITH_UNIT (LENGTH_MEASURE( 1.000000000000000082E-05 ), #271, 'distance_accuracy_value', 'NONE');
#250 = SURFACE_STYLE_FILL_AREA ( #46 ) ;
#251 = EDGE_CURVE ( 'NONE', #32, #4, #195, .T. ) ;
#252 = CONICAL_SURFACE ( 'NONE', #256, 0.1424804999999990940, 0.7853981633974699283 ) ;
#253 =( LENGTH_UNIT ( ) NAMED_UNIT ( * ) SI_UNIT ( $, .METRE. ) );
#254 = ORIENTED_EDGE ( 'NONE', *, *, #45, .F. ) ;
#255 = CARTESIAN_POINT ( 'NONE',  ( 0.0000000000000000000, 0.0000000000000000000, 2.465314999999999923 ) ) ;
#256 = AXIS2_PLACEMENT_3D ( 'NONE', #164, #119, #144 ) ;
#257 = CIRCLE ( 'NONE', #263, 0.1574804999999999955 ) ;
#258 = EDGE_LOOP ( 'NONE', ( #76, #69, #191, #184 ) ) ;
#259 = FACE_OUTER_BOUND ( 'NONE', #159, .T. ) ;
#260 = DIRECTION ( 'NONE',  ( 1.000000000000000000, 0.0000000000000000000, 0.0000000000000000000 ) ) ;
#261 = CONICAL_SURFACE ( 'NONE', #137, 0.1573230194999999665, 0.1745329251994338637 ) ;
#262 = CARTESIAN_POINT ( 'NONE',  ( -0.1574804999999999122, 0.0000000000000000000, 0.6308141162965944515 ) ) ;
#263 = AXIS2_PLACEMENT_3D ( 'NONE', #67, #157, #90 ) ;
#264 = PRESENTATION_STYLE_ASSIGNMENT (( #171 ) ) ;
#265 = PLANE ( 'NONE',  #44 ) ;
#266 = MANIFOLD_SOLID_BREP ( 'Cut-Revolve1', #85 ) ;
#267 = FACE_OUTER_BOUND ( 'NONE', #162, .T. ) ;
#268 =( GEOMETRIC_REPRESENTATION_CONTEXT ( 3 ) GLOBAL_UNCERTAINTY_ASSIGNED_CONTEXT ( ( #180 ) ) GLOBAL_UNIT_ASSIGNED_CONTEXT ( ( #199, #132, #42 ) ) REPRESENTATION_CONTEXT ( 'NONE', 'WORKASPACE' ) );
#269 = CARTESIAN_POINT ( 'NONE',  ( 0.0000000000000000000, 0.0000000000000000000, 2.465314999999999923 ) ) ;
#270 = FILL_AREA_STYLE ('',( #84 ) ) ;
#271 =( CONVERSION_BASED_UNIT ( 'INCH', #66 ) LENGTH_UNIT ( ) NAMED_UNIT ( #298 ) );
#272 = EDGE_LOOP ( 'NONE', ( #33, #91 ) ) ;
#273 = LENGTH_MEASURE_WITH_UNIT ( LENGTH_MEASURE( 0.02539999999999999897 ), #253 );
#274 = PRODUCT ( 'Micro_GEMM-080-2X', 'Micro_GEMM-080-2X', '', ( #168 ) ) ;
#275 = ORIENTED_EDGE ( 'NONE', *, *, #51, .T. ) ;
#276 = FILL_AREA_STYLE_COLOUR ( '', #188 ) ;
#277 = ORIENTED_EDGE ( 'NONE', *, *, #215, .F. ) ;
#278 = ORIENTED_EDGE ( 'NONE', *, *, #228, .T. ) ;
#279 = ORIENTED_EDGE ( 'NONE', *, *, #222, .F. ) ;
#280 = CARTESIAN_POINT ( 'NONE',  ( 0.1573230195000000220, 0.0000000000000000000, 0.6299209999999999532 ) ) ;
#281 = CIRCLE ( 'NONE', #282, 0.1574804999999999955 ) ;
#282 = AXIS2_PLACEMENT_3D ( 'NONE', #255, #73, #260 ) ;
#283 = AXIS2_PLACEMENT_3D ( 'NONE', #221, #5, #138 ) ;
#284 = CARTESIAN_POINT ( 'NONE',  ( 0.0000000000000000000, 0.0000000000000000000, 2.480315000000000047 ) ) ;
#285 = ADVANCED_FACE ( 'NONE', ( #293 ), #166, .T. ) ;
#286 = FACE_OUTER_BOUND ( 'NONE', #116, .T. ) ;
#287 = DIRECTION ( 'NONE',  ( 0.1736481776669313581, 0.0000000000000000000, 0.9848077530122077983 ) ) ;
#288 = CARTESIAN_POINT ( 'NONE',  ( 0.0000000000000000000, 0.0000000000000000000, 2.480315000000000047 ) ) ;
#289 = EDGE_CURVE ( 'NONE', #14, #179, #110, .T. ) ;
#290 = EDGE_CURVE ( 'NONE', #21, #225, #257, .T. ) ;
#291 = DIRECTION ( 'NONE',  ( -0.0000000000000000000, -0.0000000000000000000, -1.000000000000000000 ) ) ;
#292 = DIRECTION ( 'NONE',  ( 1.000000000000000000, 0.0000000000000000000, 0.0000000000000000000 ) ) ;
#293 = FACE_OUTER_BOUND ( 'NONE', #117, .T. ) ;
#294 = VECTOR ( 'NONE', #197, 39.37007874015748854 ) ;
#295 = CARTESIAN_POINT ( 'NONE',  ( -0.1573230194999999665, 0.0000000000000000000, 1.926651322628715702E-17 ) ) ;
#296 = PRODUCT_DEFINITION_CONTEXT ( 'detailed design', #104, 'design' ) ;
#297 =( NAMED_UNIT ( * ) PLANE_ANGLE_UNIT ( ) SI_UNIT ( $, .RADIAN. ) );
#298 = DIMENSIONAL_EXPONENTS ( 1.000000000000000000, 0.0000000000000000000, 0.0000000000000000000, 0.0000000000000000000, 0.0000000000000000000, 0.0000000000000000000, 0.0000000000000000000 ) ;
#299 = ORIENTED_EDGE ( 'NONE', *, *, #112, .T. ) ;
ENDSEC;
END-ISO-10303-21;
