ISO-10303-21;
HEADER;
FILE_DESCRIPTION (( 'STEP AP214' ),
    '1' );
FILE_NAME ('03480.STEP',
    '2023-06-22T15:21:42',
    ( '' ),
    ( '' ),
    'SwSTEP 2.0',
    'SolidWorks 2023',
    '' );
FILE_SCHEMA (( 'AUTOMOTIVE_DESIGN' ));
ENDSEC;

DATA;
#1 = FILL_AREA_STYLE_COLOUR ( '', #297 ) ;
#2 =( NAMED_UNIT ( * ) SI_UNIT ( $, .STERADIAN. ) SOLID_ANGLE_UNIT ( ) );
#3 = FILL_AREA_STYLE ('',( #91 ) ) ;
#4 = ORIENTED_EDGE ( 'NONE', *, *, #153, .T. ) ;
#5 = DIRECTION ( 'NONE',  ( -0.000000000000000000, -1.000000000000000000, -0.000000000000000000 ) ) ;
#6 = PLANE ( 'NONE',  #48 ) ;
#7 =( CONVERSION_BASED_UNIT ( 'INCH', #78 ) LENGTH_UNIT ( ) NAMED_UNIT ( #242 ) );
#8 = AXIS2_PLACEMENT_3D ( 'NONE', #124, #31, #100 ) ;
#9 = FACE_OUTER_BOUND ( 'NONE', #230, .T. ) ;
#10 =( NAMED_UNIT ( * ) PLANE_ANGLE_UNIT ( ) SI_UNIT ( $, .RADIAN. ) );
#11 = CLOSED_SHELL ( 'NONE', ( #41, #285, #131, #70 ) ) ;
#12 = COLOUR_RGB ( '',1.000000000000000000, 0.000000000000000000, 0.000000000000000000 ) ;
#13 = CARTESIAN_POINT ( 'NONE',  ( 3.323567385400236968E-34, 1.625000000000000000, 0.000000000000000000 ) ) ;
#14 = DIRECTION ( 'NONE',  ( 0.000000000000000000, -0.000000000000000000, 1.000000000000000000 ) ) ;
#15 =( LENGTH_UNIT ( ) NAMED_UNIT ( * ) SI_UNIT ( $, .METRE. ) );
#16 = CARTESIAN_POINT ( 'NONE',  ( 3.061616997868383018E-17, 0.000000000000000000, 0.2500000000000000000 ) ) ;
#17 = VERTEX_POINT ( 'NONE', #259 ) ;
#18 = CARTESIAN_POINT ( 'NONE',  ( -1.224646799147352714E-16, 4.000000000000000000, 0.000000000000000000 ) ) ;
#19 = VECTOR ( 'NONE', #216, 39.37007874015748143 ) ;
#20 = PRESENTATION_LAYER_ASSIGNMENT (  '', '', ( #79 ) ) ;
#21 = LENGTH_MEASURE_WITH_UNIT ( LENGTH_MEASURE( 0.02539999999999999897 ), #239 );
#22 = DIRECTION ( 'NONE',  ( -1.000000000000000000, 0.000000000000000000, 0.000000000000000000 ) ) ;
#23 = FILL_AREA_STYLE ('',( #1 ) ) ;
#24 = VERTEX_POINT ( 'NONE', #267 ) ;
#25 = SURFACE_SIDE_STYLE ('',( #193 ) ) ;
#26 = MANIFOLD_SOLID_BREP ( 'Revolve - Cutting Edge', #177 ) ;
#27 = DIMENSIONAL_EXPONENTS ( 1.000000000000000000, 0.000000000000000000, 0.000000000000000000, 0.000000000000000000, 0.000000000000000000, 0.000000000000000000, 0.000000000000000000 ) ;
#28 =( LENGTH_UNIT ( ) NAMED_UNIT ( * ) SI_UNIT ( $, .METRE. ) );
#29 = DIRECTION ( 'NONE',  ( -1.000000000000000000, 0.000000000000000000, 0.000000000000000000 ) ) ;
#30 = DIRECTION ( 'NONE',  ( 5.156407575357275916E-17, -1.000000000000000000, 0.000000000000000000 ) ) ;
#31 = DIRECTION ( 'NONE',  ( 0.000000000000000000, -1.000000000000000000, -0.000000000000000000 ) ) ;
#32 = DIRECTION ( 'NONE',  ( -5.156407575357275916E-17, 1.000000000000000000, 0.000000000000000000 ) ) ;
#33 = APPLICATION_CONTEXT ( 'automotive_design' ) ;
#34 = CARTESIAN_POINT ( 'NONE',  ( 3.061616997868383018E-17, 0.000000000000000000, 0.2500000000000000000 ) ) ;
#35 = SURFACE_SIDE_STYLE ('',( #212 ) ) ;
#36 = FILL_AREA_STYLE ('',( #296 ) ) ;
#37 = UNCERTAINTY_MEASURE_WITH_UNIT (LENGTH_MEASURE( 1.000000000000000082E-05 ), #268, 'distance_accuracy_value', 'NONE');
#38 = CIRCLE ( 'NONE', #122, 0.2500000000000000000 ) ;
#39 = DIRECTION ( 'NONE',  ( 0.000000000000000000, 1.000000000000000000, 0.000000000000000000 ) ) ;
#40 = CIRCLE ( 'NONE', #198, 0.2500000000000001110 ) ;
#41 = ADVANCED_FACE ( 'NONE', ( #89 ), #187, .T. ) ;
#42 =( GEOMETRIC_REPRESENTATION_CONTEXT ( 3 ) GLOBAL_UNCERTAINTY_ASSIGNED_CONTEXT ( ( #226 ) ) GLOBAL_UNIT_ASSIGNED_CONTEXT ( ( #7, #10, #248 ) ) REPRESENTATION_CONTEXT ( 'NONE', 'WORKASPACE' ) );
#43 = DIRECTION ( 'NONE',  ( -5.156407575357275299E-17, 1.000000000000000000, -0.000000000000000000 ) ) ;
#44 = CARTESIAN_POINT ( 'NONE',  ( 0.000000000000000000, 0.000000000000000000, 0.000000000000000000 ) ) ;
#45 = DIRECTION ( 'NONE',  ( -0.000000000000000000, -1.000000000000000000, -0.000000000000000000 ) ) ;
#46 = DIRECTION ( 'NONE',  ( -1.000000000000000000, 0.000000000000000000, 0.000000000000000000 ) ) ;
#47 = PRESENTATION_LAYER_ASSIGNMENT (  '', '', ( #217 ) ) ;
#48 = AXIS2_PLACEMENT_3D ( 'NONE', #246, #30, #211 ) ;
#49 = AXIS2_PLACEMENT_3D ( 'NONE', #156, #62, #88 ) ;
#50 = FACE_OUTER_BOUND ( 'NONE', #255, .T. ) ;
#51 = SURFACE_STYLE_USAGE ( .BOTH. , #68 ) ;
#52 = EDGE_CURVE ( 'NONE', #17, #139, #245, .T. ) ;
#53 = VECTOR ( 'NONE', #233, 39.37007874015748143 ) ;
#54 =( LENGTH_UNIT ( ) NAMED_UNIT ( * ) SI_UNIT ( $, .METRE. ) );
#55 = VECTOR ( 'NONE', #257, 39.37007874015748143 ) ;
#56 = PRESENTATION_LAYER_ASSIGNMENT (  '', '', ( #194 ) ) ;
#57 = PRESENTATION_LAYER_ASSIGNMENT (  '', '', ( #66 ) ) ;
#58 = CIRCLE ( 'NONE', #151, 0.2500000000000000000 ) ;
#59 = SURFACE_SIDE_STYLE ('',( #306 ) ) ;
#60 = ADVANCED_FACE ( 'NONE', ( #9 ), #183, .T. ) ;
#61 = VERTEX_POINT ( 'NONE', #290 ) ;
#62 = DIRECTION ( 'NONE',  ( 0.000000000000000000, 0.000000000000000000, 1.000000000000000000 ) ) ;
#63 = CARTESIAN_POINT ( 'NONE',  ( 0.000000000000000000, 0.000000000000000000, 0.000000000000000000 ) ) ;
#64 = APPLICATION_PROTOCOL_DEFINITION ( 'draft international standard', 'automotive_design', 1998, #33 ) ;
#65 = EDGE_LOOP ( 'NONE', ( #75, #117, #271, #95 ) ) ;
#66 = STYLED_ITEM ( 'NONE', ( #243 ), #224 ) ;
#67 = CARTESIAN_POINT ( 'NONE',  ( 0.000000000000000000, 1.625000000000000000, -0.2500000000000000000 ) ) ;
#68 = SURFACE_SIDE_STYLE ('',( #288 ) ) ;
#69 = FILL_AREA_STYLE ('',( #278 ) ) ;
#70 = ADVANCED_FACE ( 'NONE', ( #77 ), #6, .F. ) ;
#71 =( NAMED_UNIT ( * ) SI_UNIT ( $, .STERADIAN. ) SOLID_ANGLE_UNIT ( ) );
#72 = EDGE_LOOP ( 'NONE', ( #279, #136 ) ) ;
#73 = SURFACE_STYLE_USAGE ( .BOTH. , #35 ) ;
#74 = AXIS2_PLACEMENT_3D ( 'NONE', #87, #264, #286 ) ;
#75 = ORIENTED_EDGE ( 'NONE', *, *, #103, .T. ) ;
#76 = SURFACE_STYLE_FILL_AREA ( #294 ) ;
#77 = FACE_OUTER_BOUND ( 'NONE', #72, .T. ) ;
#78 = LENGTH_MEASURE_WITH_UNIT ( LENGTH_MEASURE( 0.02539999999999999897 ), #219 );
#79 = STYLED_ITEM ( 'NONE', ( #109 ), #175 ) ;
#80 = ADVANCED_FACE ( 'NONE', ( #220 ), #149, .T. ) ;
#81 =( NAMED_UNIT ( * ) PLANE_ANGLE_UNIT ( ) SI_UNIT ( $, .RADIAN. ) );
#82 =( GEOMETRIC_REPRESENTATION_CONTEXT ( 3 ) GLOBAL_UNCERTAINTY_ASSIGNED_CONTEXT ( ( #37 ) ) GLOBAL_UNIT_ASSIGNED_CONTEXT ( ( #268, #262, #293 ) ) REPRESENTATION_CONTEXT ( 'NONE', 'WORKASPACE' ) );
#83 = ORIENTED_EDGE ( 'NONE', *, *, #52, .F. ) ;
#84 = CARTESIAN_POINT ( 'NONE',  ( 0.2499999999999999167, 4.000000000000000000, 3.061616997868383634E-17 ) ) ;
#85 = AXIS2_PLACEMENT_3D ( 'NONE', #134, #5, #181 ) ;
#86 = CARTESIAN_POINT ( 'NONE',  ( -0.2500000000000000000, 1.625000000000000000, 0.000000000000000000 ) ) ;
#87 = CARTESIAN_POINT ( 'NONE',  ( -1.224646799147352714E-16, 4.000000000000000000, 0.000000000000000000 ) ) ;
#88 = DIRECTION ( 'NONE',  ( 1.000000000000000000, 0.000000000000000000, 0.000000000000000000 ) ) ;
#89 = FACE_OUTER_BOUND ( 'NONE', #172, .T. ) ;
#90 = EDGE_CURVE ( 'NONE', #106, #129, #40, .T. ) ;
#91 = FILL_AREA_STYLE_COLOUR ( '', #173 ) ;
#92 = PLANE ( 'NONE',  #251 ) ;
#93 =( NAMED_UNIT ( * ) PLANE_ANGLE_UNIT ( ) SI_UNIT ( $, .RADIAN. ) );
#94 = ORIENTED_EDGE ( 'NONE', *, *, #90, .F. ) ;
#95 = ORIENTED_EDGE ( 'NONE', *, *, #191, .F. ) ;
#96 = DIRECTION ( 'NONE',  ( -5.156407575357275299E-17, 1.000000000000000000, -0.000000000000000000 ) ) ;
#97 = ORIENTED_EDGE ( 'NONE', *, *, #135, .T. ) ;
#98 =( NAMED_UNIT ( * ) SI_UNIT ( $, .STERADIAN. ) SOLID_ANGLE_UNIT ( ) );
#99 = SURFACE_STYLE_USAGE ( .BOTH. , #269 ) ;
#100 = DIRECTION ( 'NONE',  ( 0.000000000000000000, 0.000000000000000000, -1.000000000000000000 ) ) ;
#101 =( NAMED_UNIT ( * ) SI_UNIT ( $, .STERADIAN. ) SOLID_ANGLE_UNIT ( ) );
#102 = PRODUCT_DEFINITION_CONTEXT ( 'detailed design', #235, 'design' ) ;
#103 = EDGE_CURVE ( 'NONE', #236, #17, #58, .T. ) ;
#104 = CARTESIAN_POINT ( 'NONE',  ( -1.224646799147352714E-16, 4.000000000000000000, 0.000000000000000000 ) ) ;
#105 = CIRCLE ( 'NONE', #166, 0.2500000000000000000 ) ;
#106 = VERTEX_POINT ( 'NONE', #305 ) ;
#107 = CYLINDRICAL_SURFACE ( 'NONE', #266, 0.2500000000000000555 ) ;
#108 = AXIS2_PLACEMENT_3D ( 'NONE', #144, #241, #29 ) ;
#109 = PRESENTATION_STYLE_ASSIGNMENT (( #205 ) ) ;
#110 = PRESENTATION_LAYER_ASSIGNMENT (  '', '', ( #227 ) ) ;
#111 = PRODUCT_RELATED_PRODUCT_CATEGORY ( 'part', '', ( #252 ) ) ;
#112 = FACE_OUTER_BOUND ( 'NONE', #203, .T. ) ;
#113 = DIMENSIONAL_EXPONENTS ( 1.000000000000000000, 0.000000000000000000, 0.000000000000000000, 0.000000000000000000, 0.000000000000000000, 0.000000000000000000, 0.000000000000000000 ) ;
#114 = PRESENTATION_STYLE_ASSIGNMENT (( #51 ) ) ;
#115 = DIRECTION ( 'NONE',  ( -0.000000000000000000, -1.000000000000000000, -0.000000000000000000 ) ) ;
#116 = EDGE_CURVE ( 'NONE', #24, #139, #277, .T. ) ;
#117 = ORIENTED_EDGE ( 'NONE', *, *, #52, .T. ) ;
#118 =( CONVERSION_BASED_UNIT ( 'INCH', #21 ) LENGTH_UNIT ( ) NAMED_UNIT ( #206 ) );
#119 = LENGTH_MEASURE_WITH_UNIT ( LENGTH_MEASURE( 0.02539999999999999897 ), #143 );
#120 =( CONVERSION_BASED_UNIT ( 'INCH', #261 ) LENGTH_UNIT ( ) NAMED_UNIT ( #308 ) );
#121 = ORIENTED_EDGE ( 'NONE', *, *, #116, .T. ) ;
#122 = AXIS2_PLACEMENT_3D ( 'NONE', #291, #96, #307 ) ;
#123 = PRESENTATION_STYLE_ASSIGNMENT (( #126 ) ) ;
#124 = CARTESIAN_POINT ( 'NONE',  ( 0.000000000000000000, 0.000000000000000000, 0.000000000000000000 ) ) ;
#125 = EDGE_CURVE ( 'NONE', #158, #129, #280, .T. ) ;
#126 = SURFACE_STYLE_USAGE ( .BOTH. , #214 ) ;
#127 = MECHANICAL_DESIGN_GEOMETRIC_PRESENTATION_REPRESENTATION (  '', ( #79 ), #195 ) ;
#128 = UNCERTAINTY_MEASURE_WITH_UNIT (LENGTH_MEASURE( 1.000000000000000082E-05 ), #182, 'distance_accuracy_value', 'NONE');
#129 = VERTEX_POINT ( 'NONE', #202 ) ;
#130 = DIRECTION ( 'NONE',  ( -0.000000000000000000, -1.000000000000000000, -0.000000000000000000 ) ) ;
#131 = ADVANCED_FACE ( 'NONE', ( #231 ), #107, .T. ) ;
#132 =( GEOMETRIC_REPRESENTATION_CONTEXT ( 3 ) GLOBAL_UNCERTAINTY_ASSIGNED_CONTEXT ( ( #221 ) ) GLOBAL_UNIT_ASSIGNED_CONTEXT ( ( #244, #162, #98 ) ) REPRESENTATION_CONTEXT ( 'NONE', 'WORKASPACE' ) );
#133 = CARTESIAN_POINT ( 'NONE',  ( 0.000000000000000000, 1.625000000000000000, 0.000000000000000000 ) ) ;
#134 = CARTESIAN_POINT ( 'NONE',  ( 0.000000000000000000, 0.000000000000000000, 0.000000000000000000 ) ) ;
#135 = EDGE_CURVE ( 'NONE', #17, #236, #160, .T. ) ;
#136 = ORIENTED_EDGE ( 'NONE', *, *, #90, .T. ) ;
#137 = CARTESIAN_POINT ( 'NONE',  ( 3.032960542342103792E-32, 1.625000000000000000, 0.000000000000000000 ) ) ;
#138 = FILL_AREA_STYLE_COLOUR ( '', #270 ) ;
#139 = VERTEX_POINT ( 'NONE', #16 ) ;
#140 = AXIS2_PLACEMENT_3D ( 'NONE', #137, #237, #22 ) ;
#141 = FILL_AREA_STYLE ('',( #138 ) ) ;
#142 = SHAPE_DEFINITION_REPRESENTATION ( #272, #229 ) ;
#143 =( LENGTH_UNIT ( ) NAMED_UNIT ( * ) SI_UNIT ( $, .METRE. ) );
#144 = CARTESIAN_POINT ( 'NONE',  ( -1.224646799147352714E-16, 4.000000000000000000, 0.000000000000000000 ) ) ;
#145 = AXIS2_PLACEMENT_3D ( 'NONE', #250, #39, #14 ) ;
#146 = AXIS2_PLACEMENT_3D ( 'NONE', #133, #130, #289 ) ;
#147 = EDGE_CURVE ( 'NONE', #61, #158, #240, .T. ) ;
#148 = SURFACE_STYLE_FILL_AREA ( #36 ) ;
#149 = PLANE ( 'NONE',  #145 ) ;
#150 = DIRECTION ( 'NONE',  ( -0.000000000000000000, -1.000000000000000000, -0.000000000000000000 ) ) ;
#151 = AXIS2_PLACEMENT_3D ( 'NONE', #275, #157, #184 ) ;
#152 = PRESENTATION_LAYER_ASSIGNMENT (  '', '', ( #222 ) ) ;
#153 = EDGE_CURVE ( 'NONE', #61, #106, #179, .T. ) ;
#154 =( LENGTH_UNIT ( ) NAMED_UNIT ( * ) SI_UNIT ( $, .METRE. ) );
#155 = DIMENSIONAL_EXPONENTS ( 1.000000000000000000, 0.000000000000000000, 0.000000000000000000, 0.000000000000000000, 0.000000000000000000, 0.000000000000000000, 0.000000000000000000 ) ;
#156 = CARTESIAN_POINT ( 'NONE',  ( 0.000000000000000000, 0.000000000000000000, 0.000000000000000000 ) ) ;
#157 = DIRECTION ( 'NONE',  ( -0.000000000000000000, -1.000000000000000000, -0.000000000000000000 ) ) ;
#158 = VERTEX_POINT ( 'NONE', #86 ) ;
#159 = APPLICATION_PROTOCOL_DEFINITION ( 'draft international standard', 'automotive_design', 1998, #235 ) ;
#160 = CIRCLE ( 'NONE', #146, 0.2500000000000000000 ) ;
#161 =( NAMED_UNIT ( * ) SI_UNIT ( $, .STERADIAN. ) SOLID_ANGLE_UNIT ( ) );
#162 =( NAMED_UNIT ( * ) PLANE_ANGLE_UNIT ( ) SI_UNIT ( $, .RADIAN. ) );
#163 = DIRECTION ( 'NONE',  ( 0.000000000000000000, 0.000000000000000000, -1.000000000000000000 ) ) ;
#164 = ORIENTED_EDGE ( 'NONE', *, *, #125, .T. ) ;
#165 = MECHANICAL_DESIGN_GEOMETRIC_PRESENTATION_REPRESENTATION (  '', ( #222 ), #82 ) ;
#166 = AXIS2_PLACEMENT_3D ( 'NONE', #63, #45, #163 ) ;
#167 = UNCERTAINTY_MEASURE_WITH_UNIT (LENGTH_MEASURE( 1.000000000000000082E-05 ), #208, 'distance_accuracy_value', 'NONE');
#168 = LENGTH_MEASURE_WITH_UNIT ( LENGTH_MEASURE( 0.02539999999999999897 ), #28 );
#169 = PRESENTATION_STYLE_ASSIGNMENT (( #99 ) ) ;
#170 = PRESENTATION_STYLE_ASSIGNMENT (( #73 ) ) ;
#171 = LENGTH_MEASURE_WITH_UNIT ( LENGTH_MEASURE( 0.02539999999999999897 ), #15 );
#172 = EDGE_LOOP ( 'NONE', ( #276, #4, #189, #281 ) ) ;
#173 = COLOUR_RGB ( '',1.000000000000000000, 0.000000000000000000, 0.000000000000000000 ) ;
#174 = UNCERTAINTY_MEASURE_WITH_UNIT (LENGTH_MEASURE( 1.000000000000000082E-05 ), #118, 'distance_accuracy_value', 'NONE');
#175 = ADVANCED_FACE ( 'NONE', ( #112 ), #300, .T. ) ;
#176 = DIRECTION ( 'NONE',  ( -5.156407575357275299E-17, 1.000000000000000000, -0.000000000000000000 ) ) ;
#177 = CLOSED_SHELL ( 'NONE', ( #303, #80, #175, #60 ) ) ;
#178 = AXIS2_PLACEMENT_3D ( 'NONE', #44, #115, #283 ) ;
#179 = LINE ( 'NONE', #84, #223 ) ;
#180 = ORIENTED_EDGE ( 'NONE', *, *, #191, .T. ) ;
#181 = DIRECTION ( 'NONE',  ( 0.000000000000000000, 0.000000000000000000, -1.000000000000000000 ) ) ;
#182 =( CONVERSION_BASED_UNIT ( 'INCH', #171 ) LENGTH_UNIT ( ) NAMED_UNIT ( #292 ) );
#183 = PLANE ( 'NONE',  #8 ) ;
#184 = DIRECTION ( 'NONE',  ( 0.000000000000000000, 0.000000000000000000, -1.000000000000000000 ) ) ;
#185 = CARTESIAN_POINT ( 'NONE',  ( 0.000000000000000000, 0.000000000000000000, -0.2500000000000000000 ) ) ;
#186 = MECHANICAL_DESIGN_GEOMETRIC_PRESENTATION_REPRESENTATION (  '', ( #227 ), #42 ) ;
#187 = CYLINDRICAL_SURFACE ( 'NONE', #108, 0.2500000000000000555 ) ;
#188 = DIRECTION ( 'NONE',  ( -1.000000000000000000, 0.000000000000000000, 0.000000000000000000 ) ) ;
#189 = ORIENTED_EDGE ( 'NONE', *, *, #225, .F. ) ;
#190 = EDGE_LOOP ( 'NONE', ( #304, #201, #164, #94 ) ) ;
#191 = EDGE_CURVE ( 'NONE', #236, #24, #213, .T. ) ;
#192 = ORIENTED_EDGE ( 'NONE', *, *, #147, .F. ) ;
#193 = SURFACE_STYLE_FILL_AREA ( #141 ) ;
#194 = STYLED_ITEM ( 'NONE', ( #169 ), #60 ) ;
#195 =( GEOMETRIC_REPRESENTATION_CONTEXT ( 3 ) GLOBAL_UNCERTAINTY_ASSIGNED_CONTEXT ( ( #167 ) ) GLOBAL_UNIT_ASSIGNED_CONTEXT ( ( #208, #295, #2 ) ) REPRESENTATION_CONTEXT ( 'NONE', 'WORKASPACE' ) );
#196 = FACE_OUTER_BOUND ( 'NONE', #65, .T. ) ;
#197 = EDGE_CURVE ( 'NONE', #139, #24, #105, .T. ) ;
#198 = AXIS2_PLACEMENT_3D ( 'NONE', #104, #176, #46 ) ;
#199 = DIRECTION ( 'NONE',  ( -1.000000000000000000, -5.156407575357275916E-17, 0.000000000000000000 ) ) ;
#200 = ORIENTED_EDGE ( 'NONE', *, *, #197, .F. ) ;
#201 = ORIENTED_EDGE ( 'NONE', *, *, #147, .T. ) ;
#202 = CARTESIAN_POINT ( 'NONE',  ( -0.2500000000000002776, 4.000000000000000000, 0.000000000000000000 ) ) ;
#203 = EDGE_LOOP ( 'NONE', ( #83, #97, #180, #200 ) ) ;
#204 = CIRCLE ( 'NONE', #74, 0.2500000000000001110 ) ;
#205 = SURFACE_STYLE_USAGE ( .BOTH. , #59 ) ;
#206 = DIMENSIONAL_EXPONENTS ( 1.000000000000000000, 0.000000000000000000, 0.000000000000000000, 0.000000000000000000, 0.000000000000000000, 0.000000000000000000, 0.000000000000000000 ) ;
#207 = ORIENTED_EDGE ( 'NONE', *, *, #103, .F. ) ;
#208 =( CONVERSION_BASED_UNIT ( 'INCH', #260 ) LENGTH_UNIT ( ) NAMED_UNIT ( #113 ) );
#209 = SURFACE_STYLE_USAGE ( .BOTH. , #25 ) ;
#210 = EDGE_CURVE ( 'NONE', #158, #61, #38, .T. ) ;
#211 = DIRECTION ( 'NONE',  ( 1.000000000000000000, 5.156407575357275916E-17, 0.000000000000000000 ) ) ;
#212 = SURFACE_STYLE_FILL_AREA ( #3 ) ;
#213 = LINE ( 'NONE', #185, #55 ) ;
#214 = SURFACE_SIDE_STYLE ('',( #148 ) ) ;
#215 = MECHANICAL_DESIGN_GEOMETRIC_PRESENTATION_REPRESENTATION (  '', ( #217 ), #284 ) ;
#216 = DIRECTION ( 'NONE',  ( -0.000000000000000000, -1.000000000000000000, -0.000000000000000000 ) ) ;
#217 = STYLED_ITEM ( 'NONE', ( #170 ), #80 ) ;
#218 = PRODUCT_DEFINITION_FORMATION_WITH_SPECIFIED_SOURCE ( 'ANY', '', #252, .NOT_KNOWN. ) ;
#219 =( LENGTH_UNIT ( ) NAMED_UNIT ( * ) SI_UNIT ( $, .METRE. ) );
#220 = FACE_OUTER_BOUND ( 'NONE', #258, .T. ) ;
#221 = UNCERTAINTY_MEASURE_WITH_UNIT (LENGTH_MEASURE( 1.000000000000000082E-05 ), #244, 'distance_accuracy_value', 'NONE');
#222 = STYLED_ITEM ( 'NONE', ( #114 ), #26 ) ;
#223 = VECTOR ( 'NONE', #302, 39.37007874015748143 ) ;
#224 = MANIFOLD_SOLID_BREP ( 'Revolve - Tool Body (Straight Shanked)', #11 ) ;
#225 = EDGE_CURVE ( 'NONE', #129, #106, #204, .T. ) ;
#226 = UNCERTAINTY_MEASURE_WITH_UNIT (LENGTH_MEASURE( 1.000000000000000082E-05 ), #7, 'distance_accuracy_value', 'NONE');
#227 = STYLED_ITEM ( 'NONE', ( #123 ), #303 ) ;
#228 = ORIENTED_EDGE ( 'NONE', *, *, #197, .T. ) ;
#229 = ADVANCED_BREP_SHAPE_REPRESENTATION ( '03480', ( #26, #224, #49 ), #253 ) ;
#230 = EDGE_LOOP ( 'NONE', ( #121, #228 ) ) ;
#231 = FACE_OUTER_BOUND ( 'NONE', #190, .T. ) ;
#232 = MECHANICAL_DESIGN_GEOMETRIC_PRESENTATION_REPRESENTATION (  '', ( #194 ), #132 ) ;
#233 = DIRECTION ( 'NONE',  ( -5.156407575357275916E-17, 1.000000000000000000, -0.000000000000000000 ) ) ;
#234 =( NAMED_UNIT ( * ) PLANE_ANGLE_UNIT ( ) SI_UNIT ( $, .RADIAN. ) );
#235 = APPLICATION_CONTEXT ( 'automotive_design' ) ;
#236 = VERTEX_POINT ( 'NONE', #67 ) ;
#237 = DIRECTION ( 'NONE',  ( -5.156407575357275299E-17, 1.000000000000000000, -0.000000000000000000 ) ) ;
#238 = ORIENTED_EDGE ( 'NONE', *, *, #135, .F. ) ;
#239 =( LENGTH_UNIT ( ) NAMED_UNIT ( * ) SI_UNIT ( $, .METRE. ) );
#240 = CIRCLE ( 'NONE', #140, 0.2500000000000000000 ) ;
#241 = DIRECTION ( 'NONE',  ( -5.156407575357275299E-17, 1.000000000000000000, -0.000000000000000000 ) ) ;
#242 = DIMENSIONAL_EXPONENTS ( 1.000000000000000000, 0.000000000000000000, 0.000000000000000000, 0.000000000000000000, 0.000000000000000000, 0.000000000000000000, 0.000000000000000000 ) ;
#243 = PRESENTATION_STYLE_ASSIGNMENT (( #209 ) ) ;
#244 =( CONVERSION_BASED_UNIT ( 'INCH', #168 ) LENGTH_UNIT ( ) NAMED_UNIT ( #155 ) );
#245 = LINE ( 'NONE', #34, #19 ) ;
#246 = CARTESIAN_POINT ( 'NONE',  ( 0.2500000000000000000, 4.000000000000000000, 0.000000000000000000 ) ) ;
#247 = MECHANICAL_DESIGN_GEOMETRIC_PRESENTATION_REPRESENTATION (  '', ( #66 ), #287 ) ;
#248 =( NAMED_UNIT ( * ) SI_UNIT ( $, .STERADIAN. ) SOLID_ANGLE_UNIT ( ) );
#249 = CYLINDRICAL_SURFACE ( 'NONE', #274, 0.2500000000000000000 ) ;
#250 = CARTESIAN_POINT ( 'NONE',  ( 0.000000000000000000, 1.625000000000000000, 0.000000000000000000 ) ) ;
#251 = AXIS2_PLACEMENT_3D ( 'NONE', #13, #32, #199 ) ;
#252 = PRODUCT ( '03480', '03480', '', ( #265 ) ) ;
#253 =( GEOMETRIC_REPRESENTATION_CONTEXT ( 3 ) GLOBAL_UNCERTAINTY_ASSIGNED_CONTEXT ( ( #128 ) ) GLOBAL_UNIT_ASSIGNED_CONTEXT ( ( #182, #93, #71 ) ) REPRESENTATION_CONTEXT ( 'NONE', 'WORKASPACE' ) );
#254 = CARTESIAN_POINT ( 'NONE',  ( -0.2500000000000002220, 4.000000000000000000, 0.000000000000000000 ) ) ;
#255 = EDGE_LOOP ( 'NONE', ( #301, #192 ) ) ;
#256 = PRODUCT_DEFINITION ( 'UNKNOWN', '', #218, #102 ) ;
#257 = DIRECTION ( 'NONE',  ( -0.000000000000000000, -1.000000000000000000, -0.000000000000000000 ) ) ;
#258 = EDGE_LOOP ( 'NONE', ( #207, #238 ) ) ;
#259 = CARTESIAN_POINT ( 'NONE',  ( 3.061616997868383018E-17, 1.625000000000000000, 0.2500000000000000000 ) ) ;
#260 = LENGTH_MEASURE_WITH_UNIT ( LENGTH_MEASURE( 0.02539999999999999897 ), #154 );
#261 = LENGTH_MEASURE_WITH_UNIT ( LENGTH_MEASURE( 0.02539999999999999897 ), #54 );
#262 =( NAMED_UNIT ( * ) PLANE_ANGLE_UNIT ( ) SI_UNIT ( $, .RADIAN. ) );
#263 = UNCERTAINTY_MEASURE_WITH_UNIT (LENGTH_MEASURE( 1.000000000000000082E-05 ), #120, 'distance_accuracy_value', 'NONE');
#264 = DIRECTION ( 'NONE',  ( -5.156407575357275299E-17, 1.000000000000000000, -0.000000000000000000 ) ) ;
#265 = PRODUCT_CONTEXT ( 'NONE', #33, 'mechanical' ) ;
#266 = AXIS2_PLACEMENT_3D ( 'NONE', #18, #43, #188 ) ;
#267 = CARTESIAN_POINT ( 'NONE',  ( 0.000000000000000000, 0.000000000000000000, -0.2500000000000000000 ) ) ;
#268 =( CONVERSION_BASED_UNIT ( 'INCH', #119 ) LENGTH_UNIT ( ) NAMED_UNIT ( #27 ) );
#269 = SURFACE_SIDE_STYLE ('',( #76 ) ) ;
#270 = COLOUR_RGB ( '',0.7921568627450980005, 0.8196078431372548767, 0.9333333333333333481 ) ;
#271 = ORIENTED_EDGE ( 'NONE', *, *, #116, .F. ) ;
#272 = PRODUCT_DEFINITION_SHAPE ( 'NONE', 'NONE',  #256 ) ;
#273 = DIRECTION ( 'NONE',  ( 0.000000000000000000, 0.000000000000000000, -1.000000000000000000 ) ) ;
#274 = AXIS2_PLACEMENT_3D ( 'NONE', #298, #150, #273 ) ;
#275 = CARTESIAN_POINT ( 'NONE',  ( 0.000000000000000000, 1.625000000000000000, 0.000000000000000000 ) ) ;
#276 = ORIENTED_EDGE ( 'NONE', *, *, #210, .T. ) ;
#277 = CIRCLE ( 'NONE', #178, 0.2500000000000000000 ) ;
#278 = FILL_AREA_STYLE_COLOUR ( '', #12 ) ;
#279 = ORIENTED_EDGE ( 'NONE', *, *, #225, .T. ) ;
#280 = LINE ( 'NONE', #254, #53 ) ;
#281 = ORIENTED_EDGE ( 'NONE', *, *, #125, .F. ) ;
#282 = FILL_AREA_STYLE_COLOUR ( '', #299 ) ;
#283 = DIRECTION ( 'NONE',  ( 0.000000000000000000, 0.000000000000000000, -1.000000000000000000 ) ) ;
#284 =( GEOMETRIC_REPRESENTATION_CONTEXT ( 3 ) GLOBAL_UNCERTAINTY_ASSIGNED_CONTEXT ( ( #263 ) ) GLOBAL_UNIT_ASSIGNED_CONTEXT ( ( #120, #81, #101 ) ) REPRESENTATION_CONTEXT ( 'NONE', 'WORKASPACE' ) );
#285 = ADVANCED_FACE ( 'NONE', ( #50 ), #92, .F. ) ;
#286 = DIRECTION ( 'NONE',  ( -1.000000000000000000, 0.000000000000000000, 0.000000000000000000 ) ) ;
#287 =( GEOMETRIC_REPRESENTATION_CONTEXT ( 3 ) GLOBAL_UNCERTAINTY_ASSIGNED_CONTEXT ( ( #174 ) ) GLOBAL_UNIT_ASSIGNED_CONTEXT ( ( #118, #234, #161 ) ) REPRESENTATION_CONTEXT ( 'NONE', 'WORKASPACE' ) );
#288 = SURFACE_STYLE_FILL_AREA ( #23 ) ;
#289 = DIRECTION ( 'NONE',  ( 0.000000000000000000, 0.000000000000000000, -1.000000000000000000 ) ) ;
#290 = CARTESIAN_POINT ( 'NONE',  ( 0.2500000000000000555, 1.625000000000000000, 3.061616997868384251E-17 ) ) ;
#291 = CARTESIAN_POINT ( 'NONE',  ( 3.032960542342103792E-32, 1.625000000000000000, 0.000000000000000000 ) ) ;
#292 = DIMENSIONAL_EXPONENTS ( 1.000000000000000000, 0.000000000000000000, 0.000000000000000000, 0.000000000000000000, 0.000000000000000000, 0.000000000000000000, 0.000000000000000000 ) ;
#293 =( NAMED_UNIT ( * ) SI_UNIT ( $, .STERADIAN. ) SOLID_ANGLE_UNIT ( ) );
#294 = FILL_AREA_STYLE ('',( #282 ) ) ;
#295 =( NAMED_UNIT ( * ) PLANE_ANGLE_UNIT ( ) SI_UNIT ( $, .RADIAN. ) );
#296 = FILL_AREA_STYLE_COLOUR ( '', #309 ) ;
#297 = COLOUR_RGB ( '',0.7921568627450980005, 0.8196078431372548767, 0.9333333333333333481 ) ;
#298 = CARTESIAN_POINT ( 'NONE',  ( 0.000000000000000000, 0.000000000000000000, 0.000000000000000000 ) ) ;
#299 = COLOUR_RGB ( '',1.000000000000000000, 0.000000000000000000, 0.000000000000000000 ) ;
#300 = CYLINDRICAL_SURFACE ( 'NONE', #85, 0.2500000000000000000 ) ;
#301 = ORIENTED_EDGE ( 'NONE', *, *, #210, .F. ) ;
#302 = DIRECTION ( 'NONE',  ( -5.156407575357275916E-17, 1.000000000000000000, -0.000000000000000000 ) ) ;
#303 = ADVANCED_FACE ( 'NONE', ( #196 ), #249, .T. ) ;
#304 = ORIENTED_EDGE ( 'NONE', *, *, #153, .F. ) ;
#305 = CARTESIAN_POINT ( 'NONE',  ( 0.2500000000000000555, 4.000000000000000000, 3.061616997868384251E-17 ) ) ;
#306 = SURFACE_STYLE_FILL_AREA ( #69 ) ;
#307 = DIRECTION ( 'NONE',  ( -1.000000000000000000, 0.000000000000000000, 0.000000000000000000 ) ) ;
#308 = DIMENSIONAL_EXPONENTS ( 1.000000000000000000, 0.000000000000000000, 0.000000000000000000, 0.000000000000000000, 0.000000000000000000, 0.000000000000000000, 0.000000000000000000 ) ;
#309 = COLOUR_RGB ( '',1.000000000000000000, 0.000000000000000000, 0.000000000000000000 ) ;
ENDSEC;
END-ISO-10303-21;
