ISO-10303-21;
HEADER;
FILE_DESCRIPTION (( 'STEP AP214' ),
    '1' );
FILE_NAME ('Micro_SBMM-120-436X.STEP',
    '2021-09-02T17:25:59',
    ( '' ),
    ( '' ),
    'SwSTEP 2.0',
    'SolidWorks 2020',
    '' );
FILE_SCHEMA (( 'AUTOMOTIVE_DESIGN' ));
ENDSEC;

DATA;
#1 = DIRECTION ( 'NONE',  ( 1.000000000000000000, 0.0000000000000000000, 0.0000000000000000000 ) ) ;
#2 = AXIS2_PLACEMENT_3D ( 'NONE', #117, #223, #298 ) ;
#3 = SPHERICAL_SURFACE ( 'NONE', #229, 0.2362199999999999855 ) ;
#4 = FACE_OUTER_BOUND ( 'NONE', #43, .T. ) ;
#5 = LENGTH_MEASURE_WITH_UNIT ( LENGTH_MEASURE( 0.02539999999999999897 ), #281 );
#6 = DIRECTION ( 'NONE',  ( -1.000000000000000000, 0.0000000000000000000, 0.0000000000000000000 ) ) ;
#7 = CIRCLE ( 'NONE', #54, 0.1574804999999998012 ) ;
#8 = ADVANCED_FACE ( 'NONE', ( #319 ), #164, .T. ) ;
#9 = ORIENTED_EDGE ( 'NONE', *, *, #174, .T. ) ;
#10 = CARTESIAN_POINT ( 'NONE',  ( 0.0000000000000000000, 0.0000000000000000000, 2.283465000000000966 ) ) ;
#11 = VECTOR ( 'NONE', #75, 39.37007874015748143 ) ;
#12 = ORIENTED_EDGE ( 'NONE', *, *, #235, .F. ) ;
#13 = ORIENTED_EDGE ( 'NONE', *, *, #85, .F. ) ;
#14 = CARTESIAN_POINT ( 'NONE',  ( 1.928579902531246179E-17, -0.1574804999999999122, 0.4122875453334601259 ) ) ;
#15 = CYLINDRICAL_SURFACE ( 'NONE', #256, 0.1574804999999998845 ) ;
#16 = EDGE_CURVE ( 'NONE', #276, #216, #185, .T. ) ;
#17 = AXIS2_PLACEMENT_3D ( 'NONE', #29, #324, #140 ) ;
#18 = FACE_OUTER_BOUND ( 'NONE', #101, .T. ) ;
#19 = CARTESIAN_POINT ( 'NONE',  ( 0.0000000000000000000, 1.446430334472938776E-17, 3.414809992080329023E-17 ) ) ;
#20 = EDGE_CURVE ( 'NONE', #244, #71, #120, .T. ) ;
#21 = CARTESIAN_POINT ( 'NONE',  ( 0.0000000000000000000, 0.0000000000000000000, 1.417323000000000333 ) ) ;
#22 = DIRECTION ( 'NONE',  ( -1.000000000000000000, 0.0000000000000000000, 0.0000000000000000000 ) ) ;
#23 =( NAMED_UNIT ( * ) SI_UNIT ( $, .STERADIAN. ) SOLID_ANGLE_UNIT ( ) );
#24 = PRODUCT_RELATED_PRODUCT_CATEGORY ( 'part', '', ( #83 ) ) ;
#25 = VECTOR ( 'NONE', #210, 39.37007874015748143 ) ;
#26 = CARTESIAN_POINT ( 'NONE',  ( 0.0000000000000000000, 0.0000000000000000000, 0.2362200000000000133 ) ) ;
#27 = ORIENTED_EDGE ( 'NONE', *, *, #31, .F. ) ;
#28 = LENGTH_MEASURE_WITH_UNIT ( LENGTH_MEASURE( 0.02539999999999999897 ), #270 );
#29 = CARTESIAN_POINT ( 'NONE',  ( 0.0000000000000000000, 0.0000000000000000000, 0.4122875453334601259 ) ) ;
#30 = CARTESIAN_POINT ( 'NONE',  ( 0.0000000000000000000, 0.0000000000000000000, 2.543308150001266199 ) ) ;
#31 = EDGE_CURVE ( 'NONE', #102, #156, #66, .T. ) ;
#32 = CARTESIAN_POINT ( 'NONE',  ( 0.2362204999999999999, 2.892866792179873879E-17, 3.922007999999999495 ) ) ;
#33 = AXIS2_PLACEMENT_3D ( 'NONE', #248, #6, #196 ) ;
#34 = AXIS2_PLACEMENT_3D ( 'NONE', #247, #214, #82 ) ;
#35 = DIRECTION ( 'NONE',  ( 0.0000000000000000000, 0.0000000000000000000, 1.000000000000000000 ) ) ;
#36 = CARTESIAN_POINT ( 'NONE',  ( 0.0000000000000000000, 0.0000000000000000000, 3.937007999999999619 ) ) ;
#37 = ORIENTED_EDGE ( 'NONE', *, *, #124, .F. ) ;
#38 = FACE_OUTER_BOUND ( 'NONE', #187, .T. ) ;
#39 = CLOSED_SHELL ( 'NONE', ( #205, #277, #98, #339, #333, #122, #190, #135, #8, #240, #215 ) ) ;
#40 = CIRCLE ( 'NONE', #34, 0.2362204999999999999 ) ;
#41 = ORIENTED_EDGE ( 'NONE', *, *, #94, .T. ) ;
#42 = DIRECTION ( 'NONE',  ( -1.000000000000000000, 0.0000000000000000000, 0.0000000000000000000 ) ) ;
#43 = EDGE_LOOP ( 'NONE', ( #105, #231, #103, #197 ) ) ;
#44 = LINE ( 'NONE', #106, #118 ) ;
#45 = DIRECTION ( 'NONE',  ( -0.0000000000000000000, -0.0000000000000000000, -1.000000000000000000 ) ) ;
#46 = AXIS2_PLACEMENT_3D ( 'NONE', #279, #227, #91 ) ;
#47 = PRODUCT_DEFINITION_FORMATION_WITH_SPECIFIED_SOURCE ( 'ANY', '', #83, .NOT_KNOWN. ) ;
#48 = VERTEX_POINT ( 'NONE', #32 ) ;
#49 = CARTESIAN_POINT ( 'NONE',  ( 0.0000000000000000000, 0.0000000000000000000, 3.937007999999999619 ) ) ;
#50 = EDGE_CURVE ( 'NONE', #288, #198, #95, .T. ) ;
#51 = DIMENSIONAL_EXPONENTS ( 1.000000000000000000, 0.0000000000000000000, 0.0000000000000000000, 0.0000000000000000000, 0.0000000000000000000, 0.0000000000000000000, 0.0000000000000000000 ) ;
#52 = FACE_OUTER_BOUND ( 'NONE', #310, .T. ) ;
#53 = UNCERTAINTY_MEASURE_WITH_UNIT (LENGTH_MEASURE( 1.000000000000000082E-05 ), #88, 'distance_accuracy_value', 'NONE');
#54 = AXIS2_PLACEMENT_3D ( 'NONE', #107, #311, #289 ) ;
#55 = STYLED_ITEM ( 'NONE', ( #166 ), #158 ) ;
#56 = VERTEX_POINT ( 'NONE', #192 ) ;
#57 = PRESENTATION_STYLE_ASSIGNMENT (( #182 ) ) ;
#58 =( NAMED_UNIT ( * ) PLANE_ANGLE_UNIT ( ) SI_UNIT ( $, .RADIAN. ) );
#59 = AXIS2_PLACEMENT_3D ( 'NONE', #127, #233, #267 ) ;
#60 = MECHANICAL_DESIGN_GEOMETRIC_PRESENTATION_REPRESENTATION (  '', ( #55 ), #119 ) ;
#61 = CARTESIAN_POINT ( 'NONE',  ( -0.2212204999999994870, 0.0000000000000000000, 3.937007999999999619 ) ) ;
#62 = DIRECTION ( 'NONE',  ( 0.09053553870087650834, 0.0000000000000000000, 0.9958932253169222593 ) ) ;
#63 = SHAPE_DEFINITION_REPRESENTATION ( #318, #158 ) ;
#64 = APPLICATION_CONTEXT ( 'automotive_design' ) ;
#65 =( NAMED_UNIT ( * ) PLANE_ANGLE_UNIT ( ) SI_UNIT ( $, .RADIAN. ) );
#66 = CIRCLE ( 'NONE', #17, 0.1574804999999999122 ) ;
#67 = COLOUR_RGB ( '',0.7921568627450980005, 0.8196078431372548767, 0.9333333333333333481 ) ;
#68 = ORIENTED_EDGE ( 'NONE', *, *, #78, .T. ) ;
#69 = SURFACE_SIDE_STYLE ('',( #199 ) ) ;
#70 = CARTESIAN_POINT ( 'NONE',  ( 0.0000000000000000000, 0.0000000000000000000, 3.937007999999999619 ) ) ;
#71 = VERTEX_POINT ( 'NONE', #165 ) ;
#72 = CARTESIAN_POINT ( 'NONE',  ( -0.2598425499999996169, 3.182153471397855967E-17, 2.543308150001266199 ) ) ;
#73 = AXIS2_PLACEMENT_3D ( 'NONE', #184, #278, #303 ) ;
#74 = DIRECTION ( 'NONE',  ( -0.0000000000000000000, -0.0000000000000000000, -1.000000000000000000 ) ) ;
#75 = DIRECTION ( 'NONE',  ( -0.09053553870087650834, 1.108740576791097430E-17, 0.9958932253169222593 ) ) ;
#76 = UNCERTAINTY_MEASURE_WITH_UNIT (LENGTH_MEASURE( 1.000000000000000082E-05 ), #343, 'distance_accuracy_value', 'NONE');
#77 = DIRECTION ( 'NONE',  ( 0.7071067811865540120, 8.659560562355011744E-17, -0.7071067811865410224 ) ) ;
#78 = EDGE_CURVE ( 'NONE', #167, #276, #217, .T. ) ;
#79 = VECTOR ( 'NONE', #253, 39.37007874015748143 ) ;
#80 = DIRECTION ( 'NONE',  ( 1.000000000000000000, 0.0000000000000000000, -0.0000000000000000000 ) ) ;
#81 = PRODUCT_DEFINITION_CONTEXT ( 'detailed design', #64, 'design' ) ;
#82 = DIRECTION ( 'NONE',  ( 1.000000000000000000, 0.0000000000000000000, 0.0000000000000000000 ) ) ;
#83 = PRODUCT ( 'Micro_SBMM-120-436X', 'Micro_SBMM-120-436X', '', ( #224 ) ) ;
#84 = ORIENTED_EDGE ( 'NONE', *, *, #20, .F. ) ;
#85 = EDGE_CURVE ( 'NONE', #48, #71, #230, .T. ) ;
#86 = ORIENTED_EDGE ( 'NONE', *, *, #174, .F. ) ;
#87 = LINE ( 'NONE', #139, #132 ) ;
#88 =( CONVERSION_BASED_UNIT ( 'INCH', #28 ) LENGTH_UNIT ( ) NAMED_UNIT ( #51 ) );
#89 = AXIS2_PLACEMENT_3D ( 'NONE', #125, #203, #42 ) ;
#90 = AXIS2_PLACEMENT_3D ( 'NONE', #218, #219, #22 ) ;
#91 = DIRECTION ( 'NONE',  ( 1.000000000000000000, 0.0000000000000000000, 0.0000000000000000000 ) ) ;
#92 = DIRECTION ( 'NONE',  ( 1.000000000000000000, 0.0000000000000000000, 0.0000000000000000000 ) ) ;
#93 = ORIENTED_EDGE ( 'NONE', *, *, #345, .T. ) ;
#94 = EDGE_CURVE ( 'NONE', #207, #71, #296, .T. ) ;
#95 = CIRCLE ( 'NONE', #33, 0.2362199999999999578 ) ;
#96 = ORIENTED_EDGE ( 'NONE', *, *, #300, .F. ) ;
#97 = CARTESIAN_POINT ( 'NONE',  ( 0.0000000000000000000, 0.0000000000000000000, 0.0000000000000000000 ) ) ;
#98 = ADVANCED_FACE ( 'NONE', ( #38 ), #262, .T. ) ;
#99 = DIRECTION ( 'NONE',  ( -0.0000000000000000000, -0.0000000000000000000, -1.000000000000000000 ) ) ;
#100 = AXIS2_PLACEMENT_3D ( 'NONE', #209, #200, #238 ) ;
#101 = EDGE_LOOP ( 'NONE', ( #206, #68 ) ) ;
#102 = VERTEX_POINT ( 'NONE', #329 ) ;
#103 = ORIENTED_EDGE ( 'NONE', *, *, #249, .T. ) ;
#104 = CARTESIAN_POINT ( 'NONE',  ( 0.1574804999999998012, 0.0000000000000000000, 1.417323000000000333 ) ) ;
#105 = ORIENTED_EDGE ( 'NONE', *, *, #213, .T. ) ;
#106 = CARTESIAN_POINT ( 'NONE',  ( 0.2212204999999994870, 2.709169772307763601E-17, 3.937007999999999619 ) ) ;
#107 = CARTESIAN_POINT ( 'NONE',  ( 0.0000000000000000000, 0.0000000000000000000, 1.417323000000000333 ) ) ;
#108 = DIRECTION ( 'NONE',  ( -0.0000000000000000000, -0.0000000000000000000, -1.000000000000000000 ) ) ;
#109 = CIRCLE ( 'NONE', #269, 0.2362199999999999855 ) ;
#110 = AXIS2_PLACEMENT_3D ( 'NONE', #114, #225, #148 ) ;
#111 = DIRECTION ( 'NONE',  ( 1.000000000000000000, 0.0000000000000000000, 0.0000000000000000000 ) ) ;
#112 = CYLINDRICAL_SURFACE ( 'NONE', #90, 0.2362204999999999999 ) ;
#113 = CIRCLE ( 'NONE', #291, 0.2362204999999999999 ) ;
#114 = CARTESIAN_POINT ( 'NONE',  ( 0.0000000000000000000, 0.0000000000000000000, 3.937007999999999619 ) ) ;
#115 = PRODUCT_DEFINITION ( 'UNKNOWN', '', #47, #81 ) ;
#116 = EDGE_LOOP ( 'NONE', ( #169, #150, #335, #138, #27 ) ) ;
#117 = CARTESIAN_POINT ( 'NONE',  ( 0.0000000000000000000, 0.0000000000000000000, 3.937007999999999619 ) ) ;
#118 = VECTOR ( 'NONE', #77, 39.37007874015748143 ) ;
#119 =( GEOMETRIC_REPRESENTATION_CONTEXT ( 3 ) GLOBAL_UNCERTAINTY_ASSIGNED_CONTEXT ( ( #342 ) ) GLOBAL_UNIT_ASSIGNED_CONTEXT ( ( #191, #65, #325 ) ) REPRESENTATION_CONTEXT ( 'NONE', 'WORKASPACE' ) );
#120 = LINE ( 'NONE', #282, #246 ) ;
#121 = EDGE_LOOP ( 'NONE', ( #153, #332, #195, #177 ) ) ;
#122 = ADVANCED_FACE ( 'NONE', ( #142 ), #194, .T. ) ;
#123 = DIRECTION ( 'NONE',  ( 0.0000000000000000000, 0.0000000000000000000, -1.000000000000000000 ) ) ;
#124 = EDGE_CURVE ( 'NONE', #276, #167, #149, .T. ) ;
#125 = CARTESIAN_POINT ( 'NONE',  ( 0.0000000000000000000, 0.0000000000000000000, 0.4122875453334601259 ) ) ;
#126 = CONICAL_SURFACE ( 'NONE', #188, 0.2212204999999994870, 0.7853981633974573828 ) ;
#127 = CARTESIAN_POINT ( 'NONE',  ( 0.0000000000000000000, 0.0000000000000000000, 0.0000000000000000000 ) ) ;
#128 = CARTESIAN_POINT ( 'NONE',  ( -0.2362204999999999999, 0.0000000000000000000, 3.922007999999999495 ) ) ;
#129 = DIMENSIONAL_EXPONENTS ( 1.000000000000000000, 0.0000000000000000000, 0.0000000000000000000, 0.0000000000000000000, 0.0000000000000000000, 0.0000000000000000000, 0.0000000000000000000 ) ;
#130 = CARTESIAN_POINT ( 'NONE',  ( -0.2362204999999999999, 0.0000000000000000000, 2.283465000000000966 ) ) ;
#131 = AXIS2_PLACEMENT_3D ( 'NONE', #21, #45, #152 ) ;
#132 = VECTOR ( 'NONE', #108, 39.37007874015748143 ) ;
#133 = ORIENTED_EDGE ( 'NONE', *, *, #16, .F. ) ;
#134 = SURFACE_STYLE_FILL_AREA ( #340 ) ;
#135 = ADVANCED_FACE ( 'NONE', ( #299 ), #126, .T. ) ;
#136 = VECTOR ( 'NONE', #258, 39.37007874015748143 ) ;
#137 = DIRECTION ( 'NONE',  ( 0.0000000000000000000, 1.000000000000000000, 0.0000000000000000000 ) ) ;
#138 = ORIENTED_EDGE ( 'NONE', *, *, #143, .F. ) ;
#139 = CARTESIAN_POINT ( 'NONE',  ( 0.1574804999999998845, 1.928579902531246179E-17, 0.0000000000000000000 ) ) ;
#140 = DIRECTION ( 'NONE',  ( -1.000000000000000000, 0.0000000000000000000, 0.0000000000000000000 ) ) ;
#141 = STYLED_ITEM ( 'NONE', ( #57 ), #273 ) ;
#142 = FACE_OUTER_BOUND ( 'NONE', #330, .T. ) ;
#143 = EDGE_CURVE ( 'NONE', #156, #56, #212, .T. ) ;
#144 = DIRECTION ( 'NONE',  ( 0.0000000000000000000, 0.0000000000000000000, -1.000000000000000000 ) ) ;
#145 = DIRECTION ( 'NONE',  ( -1.000000000000000000, 0.0000000000000000000, 0.0000000000000000000 ) ) ;
#146 = ORIENTED_EDGE ( 'NONE', *, *, #272, .T. ) ;
#147 = EDGE_CURVE ( 'NONE', #56, #288, #301, .T. ) ;
#148 = DIRECTION ( 'NONE',  ( 1.000000000000000000, 0.0000000000000000000, 0.0000000000000000000 ) ) ;
#149 = CIRCLE ( 'NONE', #110, 0.2212204999999994870 ) ;
#150 = ORIENTED_EDGE ( 'NONE', *, *, #235, .T. ) ;
#151 = EDGE_CURVE ( 'NONE', #254, #56, #241, .T. ) ;
#152 = DIRECTION ( 'NONE',  ( -1.000000000000000000, 0.0000000000000000000, 0.0000000000000000000 ) ) ;
#153 = ORIENTED_EDGE ( 'NONE', *, *, #180, .F. ) ;
#154 = SPHERICAL_SURFACE ( 'NONE', #202, 0.2362199999999999855 ) ;
#155 = DIRECTION ( 'NONE',  ( 1.000000000000000000, 1.224646799147353207E-16, -0.0000000000000000000 ) ) ;
#156 = VERTEX_POINT ( 'NONE', #14 ) ;
#157 = DIRECTION ( 'NONE',  ( 1.000000000000000000, 0.0000000000000000000, 0.0000000000000000000 ) ) ;
#158 = ADVANCED_BREP_SHAPE_REPRESENTATION ( 'Micro_SBMM-120-436X', ( #273, #327 ), #302 ) ;
#159 = LINE ( 'NONE', #237, #25 ) ;
#160 = CIRCLE ( 'NONE', #131, 0.1574804999999998012 ) ;
#161 = AXIS2_PLACEMENT_3D ( 'NONE', #49, #315, #80 ) ;
#162 = FACE_OUTER_BOUND ( 'NONE', #283, .T. ) ;
#163 = ORIENTED_EDGE ( 'NONE', *, *, #249, .F. ) ;
#164 = CONICAL_SURFACE ( 'NONE', #309, 0.2598425499999996169, 0.09065967900408435087 ) ;
#165 = CARTESIAN_POINT ( 'NONE',  ( 0.2362204999999999999, 2.892866792179873879E-17, 2.283465000000000966 ) ) ;
#166 = PRESENTATION_STYLE_ASSIGNMENT (( #297 ) ) ;
#167 = VERTEX_POINT ( 'NONE', #341 ) ;
#168 = DIRECTION ( 'NONE',  ( -1.000000000000000000, 0.0000000000000000000, 0.0000000000000000000 ) ) ;
#169 = ORIENTED_EDGE ( 'NONE', *, *, #345, .F. ) ;
#170 = FILL_AREA_STYLE ('',( #295 ) ) ;
#171 = FILL_AREA_STYLE_COLOUR ( '', #294 ) ;
#172 = FACE_OUTER_BOUND ( 'NONE', #121, .T. ) ;
#173 = ORIENTED_EDGE ( 'NONE', *, *, #213, .F. ) ;
#174 = EDGE_CURVE ( 'NONE', #167, #48, #44, .T. ) ;
#175 = AXIS2_PLACEMENT_3D ( 'NONE', #264, #259, #261 ) ;
#176 = FACE_OUTER_BOUND ( 'NONE', #116, .T. ) ;
#177 = ORIENTED_EDGE ( 'NONE', *, *, #50, .T. ) ;
#178 = CYLINDRICAL_SURFACE ( 'NONE', #59, 0.1574804999999998845 ) ;
#179 =( LENGTH_UNIT ( ) NAMED_UNIT ( * ) SI_UNIT ( $, .METRE. ) );
#180 = EDGE_CURVE ( 'NONE', #156, #198, #109, .T. ) ;
#181 = DIRECTION ( 'NONE',  ( 0.0000000000000000000, 0.0000000000000000000, 1.000000000000000000 ) ) ;
#182 = SURFACE_STYLE_USAGE ( .BOTH. , #323 ) ;
#183 = MECHANICAL_DESIGN_GEOMETRIC_PRESENTATION_REPRESENTATION (  '', ( #141 ), #222 ) ;
#184 = CARTESIAN_POINT ( 'NONE',  ( 0.0000000000000000000, 0.0000000000000000000, 0.4122875453334601259 ) ) ;
#185 = LINE ( 'NONE', #220, #136 ) ;
#186 = LENGTH_MEASURE_WITH_UNIT ( LENGTH_MEASURE( 0.02539999999999999897 ), #179 );
#187 = EDGE_LOOP ( 'NONE', ( #307, #146, #163, #84 ) ) ;
#188 = AXIS2_PLACEMENT_3D ( 'NONE', #36, #144, #145 ) ;
#189 = AXIS2_PLACEMENT_3D ( 'NONE', #274, #243, #322 ) ;
#190 = ADVANCED_FACE ( 'NONE', ( #18 ), #286, .T. ) ;
#191 =( CONVERSION_BASED_UNIT ( 'INCH', #5 ) LENGTH_UNIT ( ) NAMED_UNIT ( #129 ) );
#192 = CARTESIAN_POINT ( 'NONE',  ( -0.1574804999999999122, 0.0000000000000000000, 0.4122875453334601259 ) ) ;
#193 = VECTOR ( 'NONE', #74, 39.37007874015748143 ) ;
#194 = CYLINDRICAL_SURFACE ( 'NONE', #263, 0.2362204999999999999 ) ;
#195 = ORIENTED_EDGE ( 'NONE', *, *, #147, .T. ) ;
#196 = DIRECTION ( 'NONE',  ( 0.0000000000000000000, 0.0000000000000000000, 1.000000000000000000 ) ) ;
#197 = ORIENTED_EDGE ( 'NONE', *, *, #204, .F. ) ;
#198 = VERTEX_POINT ( 'NONE', #19 ) ;
#199 = SURFACE_STYLE_FILL_AREA ( #170 ) ;
#200 = DIRECTION ( 'NONE',  ( 0.0000000000000000000, 0.0000000000000000000, 1.000000000000000000 ) ) ;
#201 = ORIENTED_EDGE ( 'NONE', *, *, #234, .T. ) ;
#202 = AXIS2_PLACEMENT_3D ( 'NONE', #292, #157, #338 ) ;
#203 = DIRECTION ( 'NONE',  ( -0.0000000000000000000, -0.0000000000000000000, -1.000000000000000000 ) ) ;
#204 = EDGE_CURVE ( 'NONE', #216, #207, #159, .T. ) ;
#205 = ADVANCED_FACE ( 'NONE', ( #52 ), #178, .T. ) ;
#206 = ORIENTED_EDGE ( 'NONE', *, *, #124, .T. ) ;
#207 = VERTEX_POINT ( 'NONE', #130 ) ;
#208 = ORIENTED_EDGE ( 'NONE', *, *, #20, .T. ) ;
#209 = CARTESIAN_POINT ( 'NONE',  ( 0.0000000000000000000, 0.0000000000000000000, 2.283465000000000966 ) ) ;
#210 = DIRECTION ( 'NONE',  ( -0.0000000000000000000, -0.0000000000000000000, -1.000000000000000000 ) ) ;
#211 = ORIENTED_EDGE ( 'NONE', *, *, #300, .T. ) ;
#212 = CIRCLE ( 'NONE', #73, 0.1574804999999999122 ) ;
#213 = EDGE_CURVE ( 'NONE', #216, #48, #113, .T. ) ;
#214 = DIRECTION ( 'NONE',  ( 0.0000000000000000000, 0.0000000000000000000, -1.000000000000000000 ) ) ;
#215 = ADVANCED_FACE ( 'NONE', ( #176 ), #15, .T. ) ;
#216 = VERTEX_POINT ( 'NONE', #128 ) ;
#217 = CIRCLE ( 'NONE', #2, 0.2212204999999994870 ) ;
#218 = CARTESIAN_POINT ( 'NONE',  ( 0.0000000000000000000, 0.0000000000000000000, 3.937007999999999619 ) ) ;
#219 = DIRECTION ( 'NONE',  ( -0.0000000000000000000, -0.0000000000000000000, -1.000000000000000000 ) ) ;
#220 = CARTESIAN_POINT ( 'NONE',  ( -0.2212204999999994870, 0.0000000000000000000, 3.937007999999999619 ) ) ;
#221 = EDGE_CURVE ( 'NONE', #288, #102, #320, .T. ) ;
#222 =( GEOMETRIC_REPRESENTATION_CONTEXT ( 3 ) GLOBAL_UNCERTAINTY_ASSIGNED_CONTEXT ( ( #53 ) ) GLOBAL_UNIT_ASSIGNED_CONTEXT ( ( #88, #344, #317 ) ) REPRESENTATION_CONTEXT ( 'NONE', 'WORKASPACE' ) );
#223 = DIRECTION ( 'NONE',  ( 0.0000000000000000000, 0.0000000000000000000, 1.000000000000000000 ) ) ;
#224 = PRODUCT_CONTEXT ( 'NONE', #285, 'mechanical' ) ;
#225 = DIRECTION ( 'NONE',  ( 0.0000000000000000000, 0.0000000000000000000, 1.000000000000000000 ) ) ;
#226 = DIRECTION ( 'NONE',  ( 0.0000000000000000000, 0.0000000000000000000, 1.000000000000000000 ) ) ;
#227 = DIRECTION ( 'NONE',  ( 0.0000000000000000000, 0.0000000000000000000, 1.000000000000000000 ) ) ;
#228 = ORIENTED_EDGE ( 'NONE', *, *, #16, .T. ) ;
#229 = AXIS2_PLACEMENT_3D ( 'NONE', #26, #111, #137 ) ;
#230 = LINE ( 'NONE', #328, #79 ) ;
#231 = ORIENTED_EDGE ( 'NONE', *, *, #85, .T. ) ;
#232 = ORIENTED_EDGE ( 'NONE', *, *, #151, .F. ) ;
#233 = DIRECTION ( 'NONE',  ( -0.0000000000000000000, -0.0000000000000000000, -1.000000000000000000 ) ) ;
#234 = EDGE_CURVE ( 'NONE', #254, #244, #160, .T. ) ;
#235 = EDGE_CURVE ( 'NONE', #244, #254, #7, .T. ) ;
#236 = CONICAL_SURFACE ( 'NONE', #189, 0.2212204999999994870, 0.7853981633974573828 ) ;
#237 = CARTESIAN_POINT ( 'NONE',  ( -0.2362204999999999999, 0.0000000000000000000, 3.937007999999999619 ) ) ;
#238 = DIRECTION ( 'NONE',  ( 1.000000000000000000, 0.0000000000000000000, 0.0000000000000000000 ) ) ;
#239 = DIMENSIONAL_EXPONENTS ( 1.000000000000000000, 0.0000000000000000000, 0.0000000000000000000, 0.0000000000000000000, 0.0000000000000000000, 0.0000000000000000000, 0.0000000000000000000 ) ;
#240 = ADVANCED_FACE ( 'NONE', ( #172 ), #154, .T. ) ;
#241 = LINE ( 'NONE', #242, #193 ) ;
#242 = CARTESIAN_POINT ( 'NONE',  ( -0.1574804999999998845, 0.0000000000000000000, 0.0000000000000000000 ) ) ;
#243 = DIRECTION ( 'NONE',  ( 0.0000000000000000000, 0.0000000000000000000, -1.000000000000000000 ) ) ;
#244 = VERTEX_POINT ( 'NONE', #104 ) ;
#245 = FACE_OUTER_BOUND ( 'NONE', #260, .T. ) ;
#246 = VECTOR ( 'NONE', #62, 39.37007874015748143 ) ;
#247 = CARTESIAN_POINT ( 'NONE',  ( 0.0000000000000000000, 0.0000000000000000000, 3.922007999999999495 ) ) ;
#248 = CARTESIAN_POINT ( 'NONE',  ( 0.0000000000000000000, 0.0000000000000000000, 0.2362200000000000133 ) ) ;
#249 = EDGE_CURVE ( 'NONE', #71, #207, #250, .T. ) ;
#250 = CIRCLE ( 'NONE', #100, 0.2362204999999999999 ) ;
#251 = DIRECTION ( 'NONE',  ( -0.0000000000000000000, -0.0000000000000000000, -1.000000000000000000 ) ) ;
#252 = DIRECTION ( 'NONE',  ( 1.000000000000000000, 0.0000000000000000000, 0.0000000000000000000 ) ) ;
#253 = DIRECTION ( 'NONE',  ( -0.0000000000000000000, -0.0000000000000000000, -1.000000000000000000 ) ) ;
#254 = VERTEX_POINT ( 'NONE', #266 ) ;
#255 = APPLICATION_PROTOCOL_DEFINITION ( 'draft international standard', 'automotive_design', 1998, #64 ) ;
#256 = AXIS2_PLACEMENT_3D ( 'NONE', #97, #99, #287 ) ;
#257 = PRESENTATION_LAYER_ASSIGNMENT (  '', '', ( #55 ) ) ;
#258 = DIRECTION ( 'NONE',  ( -0.7071067811865540120, 0.0000000000000000000, -0.7071067811865410224 ) ) ;
#259 = DIRECTION ( 'NONE',  ( -0.0000000000000000000, -0.0000000000000000000, -1.000000000000000000 ) ) ;
#260 = EDGE_LOOP ( 'NONE', ( #290, #331, #305, #314 ) ) ;
#261 = DIRECTION ( 'NONE',  ( -1.000000000000000000, 0.0000000000000000000, 0.0000000000000000000 ) ) ;
#262 = CONICAL_SURFACE ( 'NONE', #46, 0.2598425499999996169, 0.09065967900408435087 ) ;
#263 = AXIS2_PLACEMENT_3D ( 'NONE', #70, #251, #168 ) ;
#264 = CARTESIAN_POINT ( 'NONE',  ( 0.0000000000000000000, 0.0000000000000000000, 0.4122875453334601259 ) ) ;
#265 = ORIENTED_EDGE ( 'NONE', *, *, #94, .F. ) ;
#266 = CARTESIAN_POINT ( 'NONE',  ( -0.1574804999999998012, 2.410723347355559413E-17, 1.417323000000000333 ) ) ;
#267 = DIRECTION ( 'NONE',  ( -1.000000000000000000, 0.0000000000000000000, 0.0000000000000000000 ) ) ;
#268 = ORIENTED_EDGE ( 'NONE', *, *, #204, .T. ) ;
#269 = AXIS2_PLACEMENT_3D ( 'NONE', #336, #155, #313 ) ;
#270 =( LENGTH_UNIT ( ) NAMED_UNIT ( * ) SI_UNIT ( $, .METRE. ) );
#271 = CARTESIAN_POINT ( 'NONE',  ( 0.0000000000000000000, 0.1574804999999999122, 0.4122875453334601259 ) ) ;
#272 = EDGE_CURVE ( 'NONE', #254, #207, #308, .T. ) ;
#273 = MANIFOLD_SOLID_BREP ( 'Cut-Revolve3', #39 ) ;
#274 = CARTESIAN_POINT ( 'NONE',  ( 0.0000000000000000000, 0.0000000000000000000, 3.937007999999999619 ) ) ;
#275 = CARTESIAN_POINT ( 'NONE',  ( 0.0000000000000000000, 0.0000000000000000000, 0.0000000000000000000 ) ) ;
#276 = VERTEX_POINT ( 'NONE', #61 ) ;
#277 = ADVANCED_FACE ( 'NONE', ( #245 ), #3, .T. ) ;
#278 = DIRECTION ( 'NONE',  ( -0.0000000000000000000, -0.0000000000000000000, -1.000000000000000000 ) ) ;
#279 = CARTESIAN_POINT ( 'NONE',  ( 0.0000000000000000000, 0.0000000000000000000, 2.543308150001266199 ) ) ;
#280 = ORIENTED_EDGE ( 'NONE', *, *, #78, .F. ) ;
#281 =( LENGTH_UNIT ( ) NAMED_UNIT ( * ) SI_UNIT ( $, .METRE. ) );
#282 = CARTESIAN_POINT ( 'NONE',  ( 0.2598425499999996169, 0.0000000000000000000, 2.543308150001266199 ) ) ;
#283 = EDGE_LOOP ( 'NONE', ( #280, #9, #173, #133 ) ) ;
#284 = ORIENTED_EDGE ( 'NONE', *, *, #272, .F. ) ;
#285 = APPLICATION_CONTEXT ( 'automotive_design' ) ;
#286 = PLANE ( 'NONE',  #161 ) ;
#287 = DIRECTION ( 'NONE',  ( -1.000000000000000000, 0.0000000000000000000, 0.0000000000000000000 ) ) ;
#288 = VERTEX_POINT ( 'NONE', #271 ) ;
#289 = DIRECTION ( 'NONE',  ( -1.000000000000000000, 0.0000000000000000000, 0.0000000000000000000 ) ) ;
#290 = ORIENTED_EDGE ( 'NONE', *, *, #221, .T. ) ;
#291 = AXIS2_PLACEMENT_3D ( 'NONE', #316, #123, #293 ) ;
#292 = CARTESIAN_POINT ( 'NONE',  ( 0.0000000000000000000, 0.0000000000000000000, 0.2362200000000000133 ) ) ;
#293 = DIRECTION ( 'NONE',  ( 1.000000000000000000, 0.0000000000000000000, 0.0000000000000000000 ) ) ;
#294 = COLOUR_RGB ( '',0.7921568627450980005, 0.8196078431372548767, 0.9333333333333333481 ) ;
#295 = FILL_AREA_STYLE_COLOUR ( '', #67 ) ;
#296 = CIRCLE ( 'NONE', #326, 0.2362204999999999999 ) ;
#297 = SURFACE_STYLE_USAGE ( .BOTH. , #69 ) ;
#298 = DIRECTION ( 'NONE',  ( 1.000000000000000000, 0.0000000000000000000, 0.0000000000000000000 ) ) ;
#299 = FACE_OUTER_BOUND ( 'NONE', #304, .T. ) ;
#300 = EDGE_CURVE ( 'NONE', #48, #216, #40, .T. ) ;
#301 = CIRCLE ( 'NONE', #175, 0.1574804999999999122 ) ;
#302 =( GEOMETRIC_REPRESENTATION_CONTEXT ( 3 ) GLOBAL_UNCERTAINTY_ASSIGNED_CONTEXT ( ( #76 ) ) GLOBAL_UNIT_ASSIGNED_CONTEXT ( ( #343, #58, #23 ) ) REPRESENTATION_CONTEXT ( 'NONE', 'WORKASPACE' ) );
#303 = DIRECTION ( 'NONE',  ( -1.000000000000000000, 0.0000000000000000000, 0.0000000000000000000 ) ) ;
#304 = EDGE_LOOP ( 'NONE', ( #86, #37, #228, #96 ) ) ;
#305 = ORIENTED_EDGE ( 'NONE', *, *, #180, .T. ) ;
#306 = EDGE_LOOP ( 'NONE', ( #284, #12, #208, #265 ) ) ;
#307 = ORIENTED_EDGE ( 'NONE', *, *, #234, .F. ) ;
#308 = LINE ( 'NONE', #72, #11 ) ;
#309 = AXIS2_PLACEMENT_3D ( 'NONE', #30, #181, #1 ) ;
#310 = EDGE_LOOP ( 'NONE', ( #201, #93, #334, #312, #232 ) ) ;
#311 = DIRECTION ( 'NONE',  ( -0.0000000000000000000, -0.0000000000000000000, -1.000000000000000000 ) ) ;
#312 = ORIENTED_EDGE ( 'NONE', *, *, #147, .F. ) ;
#313 = DIRECTION ( 'NONE',  ( -1.224646799147353207E-16, 1.000000000000000000, 0.0000000000000000000 ) ) ;
#314 = ORIENTED_EDGE ( 'NONE', *, *, #50, .F. ) ;
#315 = DIRECTION ( 'NONE',  ( 0.0000000000000000000, 0.0000000000000000000, 1.000000000000000000 ) ) ;
#316 = CARTESIAN_POINT ( 'NONE',  ( 0.0000000000000000000, 0.0000000000000000000, 3.922007999999999495 ) ) ;
#317 =( NAMED_UNIT ( * ) SI_UNIT ( $, .STERADIAN. ) SOLID_ANGLE_UNIT ( ) );
#318 = PRODUCT_DEFINITION_SHAPE ( 'NONE', 'NONE',  #115 ) ;
#319 = FACE_OUTER_BOUND ( 'NONE', #306, .T. ) ;
#320 = CIRCLE ( 'NONE', #89, 0.1574804999999999122 ) ;
#321 = APPLICATION_PROTOCOL_DEFINITION ( 'draft international standard', 'automotive_design', 1998, #285 ) ;
#322 = DIRECTION ( 'NONE',  ( -1.000000000000000000, 0.0000000000000000000, 0.0000000000000000000 ) ) ;
#323 = SURFACE_SIDE_STYLE ('',( #134 ) ) ;
#324 = DIRECTION ( 'NONE',  ( -0.0000000000000000000, -0.0000000000000000000, -1.000000000000000000 ) ) ;
#325 =( NAMED_UNIT ( * ) SI_UNIT ( $, .STERADIAN. ) SOLID_ANGLE_UNIT ( ) );
#326 = AXIS2_PLACEMENT_3D ( 'NONE', #10, #35, #92 ) ;
#327 = AXIS2_PLACEMENT_3D ( 'NONE', #275, #226, #252 ) ;
#328 = CARTESIAN_POINT ( 'NONE',  ( 0.2362204999999999999, 2.892866792179873879E-17, 3.937007999999999619 ) ) ;
#329 = CARTESIAN_POINT ( 'NONE',  ( 0.1574804999999999122, 1.928579902531246488E-17, 0.4122875453334601259 ) ) ;
#330 = EDGE_LOOP ( 'NONE', ( #13, #211, #268, #41 ) ) ;
#331 = ORIENTED_EDGE ( 'NONE', *, *, #31, .T. ) ;
#332 = ORIENTED_EDGE ( 'NONE', *, *, #143, .T. ) ;
#333 = ADVANCED_FACE ( 'NONE', ( #4 ), #112, .T. ) ;
#334 = ORIENTED_EDGE ( 'NONE', *, *, #221, .F. ) ;
#335 = ORIENTED_EDGE ( 'NONE', *, *, #151, .T. ) ;
#336 = CARTESIAN_POINT ( 'NONE',  ( 0.0000000000000000000, 0.0000000000000000000, 0.2362200000000000133 ) ) ;
#337 = PRESENTATION_LAYER_ASSIGNMENT (  '', '', ( #141 ) ) ;
#338 = DIRECTION ( 'NONE',  ( 0.0000000000000000000, 1.000000000000000000, 0.0000000000000000000 ) ) ;
#339 = ADVANCED_FACE ( 'NONE', ( #162 ), #236, .T. ) ;
#340 = FILL_AREA_STYLE ('',( #171 ) ) ;
#341 = CARTESIAN_POINT ( 'NONE',  ( 0.2212204999999994870, 2.801018282243818278E-17, 3.937007999999999619 ) ) ;
#342 = UNCERTAINTY_MEASURE_WITH_UNIT (LENGTH_MEASURE( 1.000000000000000082E-05 ), #191, 'distance_accuracy_value', 'NONE');
#343 =( CONVERSION_BASED_UNIT ( 'INCH', #186 ) LENGTH_UNIT ( ) NAMED_UNIT ( #239 ) );
#344 =( NAMED_UNIT ( * ) PLANE_ANGLE_UNIT ( ) SI_UNIT ( $, .RADIAN. ) );
#345 = EDGE_CURVE ( 'NONE', #244, #102, #87, .T. ) ;
ENDSEC;
END-ISO-10303-21;
