ISO-10303-21;
HEADER;
FILE_DESCRIPTION (( 'STEP AP214' ),
    '1' );
FILE_NAME ('83193.STEP',
    '2023-06-23T08:13:49',
    ( '' ),
    ( '' ),
    'SwSTEP 2.0',
    'SolidWorks 2023',
    '' );
FILE_SCHEMA (( 'AUTOMOTIVE_DESIGN' ));
ENDSEC;

DATA;
#1 = ORIENTED_EDGE ( 'NONE', *, *, #268, .F. ) ;
#2 = PRESENTATION_LAYER_ASSIGNMENT (  '', '', ( #124 ) ) ;
#3 = SHAPE_DEFINITION_REPRESENTATION ( #11, #178 ) ;
#4 = CYLINDRICAL_SURFACE ( 'NONE', #222, 0.09375000000000001388 ) ;
#5 = PRESENTATION_STYLE_ASSIGNMENT (( #144 ) ) ;
#6 = AXIS2_PLACEMENT_3D ( 'NONE', #61, #229, #256 ) ;
#7 = FACE_OUTER_BOUND ( 'NONE', #235, .T. ) ;
#8 = DIRECTION ( 'NONE',  ( -1.000000000000000000, -3.265724797726275178E-17, 0.000000000000000000 ) ) ;
#9 = CARTESIAN_POINT ( 'NONE',  ( -0.09375000000000001388, 0.6250000000000000000, 0.000000000000000000 ) ) ;
#10 = VERTEX_POINT ( 'NONE', #101 ) ;
#11 = PRODUCT_DEFINITION_SHAPE ( 'NONE', 'NONE',  #197 ) ;
#12 = COLOUR_RGB ( '',1.000000000000000000, 0.000000000000000000, 0.000000000000000000 ) ;
#13 = PRODUCT_DEFINITION_FORMATION_WITH_SPECIFIED_SOURCE ( 'ANY', '', #15, .NOT_KNOWN. ) ;
#14 = LINE ( 'NONE', #103, #209 ) ;
#15 = PRODUCT ( '83193', '83193', '', ( #241 ) ) ;
#16 =( NAMED_UNIT ( * ) SI_UNIT ( $, .STERADIAN. ) SOLID_ANGLE_UNIT ( ) );
#17 =( NAMED_UNIT ( * ) PLANE_ANGLE_UNIT ( ) SI_UNIT ( $, .RADIAN. ) );
#18 = DIRECTION ( 'NONE',  ( 0.000000000000000000, 0.000000000000000000, -1.000000000000000000 ) ) ;
#19 =( NAMED_UNIT ( * ) SI_UNIT ( $, .STERADIAN. ) SOLID_ANGLE_UNIT ( ) );
#20 = EDGE_LOOP ( 'NONE', ( #68, #213 ) ) ;
#21 = MECHANICAL_DESIGN_GEOMETRIC_PRESENTATION_REPRESENTATION (  '', ( #258 ), #65 ) ;
#22 = DIMENSIONAL_EXPONENTS ( 1.000000000000000000, 0.000000000000000000, 0.000000000000000000, 0.000000000000000000, 0.000000000000000000, 0.000000000000000000, 0.000000000000000000 ) ;
#23 = DIRECTION ( 'NONE',  ( -0.000000000000000000, -1.000000000000000000, -0.000000000000000000 ) ) ;
#24 = MANIFOLD_SOLID_BREP ( 'Revolve - Tool Body (Straight Shanked)', #64 ) ;
#25 = PRESENTATION_LAYER_ASSIGNMENT (  '', '', ( #258 ) ) ;
#26 = DIMENSIONAL_EXPONENTS ( 1.000000000000000000, 0.000000000000000000, 0.000000000000000000, 0.000000000000000000, 0.000000000000000000, 0.000000000000000000, 0.000000000000000000 ) ;
#27 =( CONVERSION_BASED_UNIT ( 'INCH', #244 ) LENGTH_UNIT ( ) NAMED_UNIT ( #22 ) );
#28 = DIRECTION ( 'NONE',  ( -3.265724797726275178E-17, 1.000000000000000000, -0.000000000000000000 ) ) ;
#29 = APPLICATION_PROTOCOL_DEFINITION ( 'draft international standard', 'automotive_design', 1998, #150 ) ;
#30 = FILL_AREA_STYLE ('',( #121 ) ) ;
#31 = PRESENTATION_STYLE_ASSIGNMENT (( #251 ) ) ;
#32 = PRESENTATION_LAYER_ASSIGNMENT (  '', '', ( #159 ) ) ;
#33 = UNCERTAINTY_MEASURE_WITH_UNIT (LENGTH_MEASURE( 1.000000000000000082E-05 ), #276, 'distance_accuracy_value', 'NONE');
#34 = DIRECTION ( 'NONE',  ( -1.000000000000000000, 0.000000000000000000, 0.000000000000000000 ) ) ;
#35 =( NAMED_UNIT ( * ) PLANE_ANGLE_UNIT ( ) SI_UNIT ( $, .RADIAN. ) );
#36 = FACE_OUTER_BOUND ( 'NONE', #270, .T. ) ;
#37 = EDGE_CURVE ( 'NONE', #10, #71, #111, .T. ) ;
#38 = COLOUR_RGB ( '',1.000000000000000000, 0.000000000000000000, 0.000000000000000000 ) ;
#39 = CARTESIAN_POINT ( 'NONE',  ( 0.000000000000000000, 0.000000000000000000, -0.09375000000000001388 ) ) ;
#40 = ADVANCED_FACE ( 'NONE', ( #223 ), #290, .F. ) ;
#41 = DIRECTION ( 'NONE',  ( 0.000000000000000000, 0.000000000000000000, -1.000000000000000000 ) ) ;
#42 = CIRCLE ( 'NONE', #221, 0.09375000000000001388 ) ;
#43 =( GEOMETRIC_REPRESENTATION_CONTEXT ( 3 ) GLOBAL_UNCERTAINTY_ASSIGNED_CONTEXT ( ( #33 ) ) GLOBAL_UNIT_ASSIGNED_CONTEXT ( ( #276, #176, #16 ) ) REPRESENTATION_CONTEXT ( 'NONE', 'WORKASPACE' ) );
#44 = ORIENTED_EDGE ( 'NONE', *, *, #114, .F. ) ;
#45 =( LENGTH_UNIT ( ) NAMED_UNIT ( * ) SI_UNIT ( $, .METRE. ) );
#46 = ORIENTED_EDGE ( 'NONE', *, *, #284, .F. ) ;
#47 = ORIENTED_EDGE ( 'NONE', *, *, #234, .T. ) ;
#48 = MECHANICAL_DESIGN_GEOMETRIC_PRESENTATION_REPRESENTATION (  '', ( #93 ), #208 ) ;
#49 = PRESENTATION_LAYER_ASSIGNMENT (  '', '', ( #93 ) ) ;
#50 = CIRCLE ( 'NONE', #306, 0.09375000000000001388 ) ;
#51 = LENGTH_MEASURE_WITH_UNIT ( LENGTH_MEASURE( 0.02539999999999999897 ), #119 );
#52 = DIRECTION ( 'NONE',  ( 1.000000000000000000, 3.265724797726275178E-17, 0.000000000000000000 ) ) ;
#53 = FACE_OUTER_BOUND ( 'NONE', #156, .T. ) ;
#54 = SURFACE_STYLE_USAGE ( .BOTH. , #80 ) ;
#55 = CARTESIAN_POINT ( 'NONE',  ( 0.09375000000000001388, 2.500000000000000000, 0.000000000000000000 ) ) ;
#56 = PRESENTATION_LAYER_ASSIGNMENT (  '', '', ( #60 ) ) ;
#57 = AXIS2_PLACEMENT_3D ( 'NONE', #286, #224, #163 ) ;
#58 = DIRECTION ( 'NONE',  ( -3.265724797726275178E-17, 1.000000000000000000, -0.000000000000000000 ) ) ;
#59 = CARTESIAN_POINT ( 'NONE',  ( 0.000000000000000000, 0.6250000000000000000, 0.000000000000000000 ) ) ;
#60 = STYLED_ITEM ( 'NONE', ( #82 ), #24 ) ;
#61 = CARTESIAN_POINT ( 'NONE',  ( -6.123233995736766036E-17, 2.500000000000000000, 0.000000000000000000 ) ) ;
#62 = LINE ( 'NONE', #151, #149 ) ;
#63 = CARTESIAN_POINT ( 'NONE',  ( 0.000000000000000000, 0.6250000000000000000, 0.000000000000000000 ) ) ;
#64 = CLOSED_SHELL ( 'NONE', ( #83, #40, #134, #87 ) ) ;
#65 =( GEOMETRIC_REPRESENTATION_CONTEXT ( 3 ) GLOBAL_UNCERTAINTY_ASSIGNED_CONTEXT ( ( #99 ) ) GLOBAL_UNIT_ASSIGNED_CONTEXT ( ( #186, #283, #182 ) ) REPRESENTATION_CONTEXT ( 'NONE', 'WORKASPACE' ) );
#66 = EDGE_CURVE ( 'NONE', #71, #10, #230, .T. ) ;
#67 = CARTESIAN_POINT ( 'NONE',  ( -0.09375000000000013878, 2.500000000000000000, 0.000000000000000000 ) ) ;
#68 = ORIENTED_EDGE ( 'NONE', *, *, #66, .F. ) ;
#69 = ORIENTED_EDGE ( 'NONE', *, *, #288, .F. ) ;
#70 = LINE ( 'NONE', #179, #293 ) ;
#71 = VERTEX_POINT ( 'NONE', #9 ) ;
#72 = VERTEX_POINT ( 'NONE', #115 ) ;
#73 = SURFACE_STYLE_FILL_AREA ( #226 ) ;
#74 = CARTESIAN_POINT ( 'NONE',  ( -6.123233995736766036E-17, 2.500000000000000000, 0.000000000000000000 ) ) ;
#75 = COLOUR_RGB ( '',1.000000000000000000, 0.000000000000000000, 0.000000000000000000 ) ;
#76 = DIRECTION ( 'NONE',  ( 0.000000000000000000, -0.000000000000000000, 1.000000000000000000 ) ) ;
#77 =( NAMED_UNIT ( * ) SI_UNIT ( $, .STERADIAN. ) SOLID_ANGLE_UNIT ( ) );
#78 =( LENGTH_UNIT ( ) NAMED_UNIT ( * ) SI_UNIT ( $, .METRE. ) );
#79 = CYLINDRICAL_SURFACE ( 'NONE', #180, 0.09375000000000004163 ) ;
#80 = SURFACE_SIDE_STYLE ('',( #239 ) ) ;
#81 = SURFACE_SIDE_STYLE ('',( #199 ) ) ;
#82 = PRESENTATION_STYLE_ASSIGNMENT (( #137 ) ) ;
#83 = ADVANCED_FACE ( 'NONE', ( #189 ), #79, .T. ) ;
#84 = CARTESIAN_POINT ( 'NONE',  ( 0.000000000000000000, 0.000000000000000000, 0.000000000000000000 ) ) ;
#85 = COLOUR_RGB ( '',0.7921568627450980005, 0.8196078431372548767, 0.9333333333333333481 ) ;
#86 = DIRECTION ( 'NONE',  ( -0.000000000000000000, -1.000000000000000000, -0.000000000000000000 ) ) ;
#87 = ADVANCED_FACE ( 'NONE', ( #167 ), #146, .F. ) ;
#88 = LINE ( 'NONE', #105, #194 ) ;
#89 = ORIENTED_EDGE ( 'NONE', *, *, #110, .T. ) ;
#90 = ORIENTED_EDGE ( 'NONE', *, *, #284, .T. ) ;
#91 = CYLINDRICAL_SURFACE ( 'NONE', #138, 0.09375000000000001388 ) ;
#92 = ORIENTED_EDGE ( 'NONE', *, *, #187, .F. ) ;
#93 = STYLED_ITEM ( 'NONE', ( #5 ), #97 ) ;
#94 = AXIS2_PLACEMENT_3D ( 'NONE', #219, #289, #76 ) ;
#95 = DIRECTION ( 'NONE',  ( 0.000000000000000000, -1.000000000000000000, -0.000000000000000000 ) ) ;
#96 = DIRECTION ( 'NONE',  ( -1.000000000000000000, 0.000000000000000000, 0.000000000000000000 ) ) ;
#97 = ADVANCED_FACE ( 'NONE', ( #36 ), #248, .T. ) ;
#98 = FILL_AREA_STYLE_COLOUR ( '', #215 ) ;
#99 = UNCERTAINTY_MEASURE_WITH_UNIT (LENGTH_MEASURE( 1.000000000000000082E-05 ), #186, 'distance_accuracy_value', 'NONE');
#100 =( LENGTH_UNIT ( ) NAMED_UNIT ( * ) SI_UNIT ( $, .METRE. ) );
#101 = CARTESIAN_POINT ( 'NONE',  ( 0.09375000000000001388, 0.6250000000000000000, 1.148106374200644325E-17 ) ) ;
#102 =( GEOMETRIC_REPRESENTATION_CONTEXT ( 3 ) GLOBAL_UNCERTAINTY_ASSIGNED_CONTEXT ( ( #172 ) ) GLOBAL_UNIT_ASSIGNED_CONTEXT ( ( #304, #191, #249 ) ) REPRESENTATION_CONTEXT ( 'NONE', 'WORKASPACE' ) );
#103 = CARTESIAN_POINT ( 'NONE',  ( 0.09374999999999997224, 2.500000000000000000, 1.148106374200644171E-17 ) ) ;
#104 = CIRCLE ( 'NONE', #228, 0.09375000000000001388 ) ;
#105 = CARTESIAN_POINT ( 'NONE',  ( 1.148106374200643863E-17, 0.000000000000000000, 0.09375000000000001388 ) ) ;
#106 = ORIENTED_EDGE ( 'NONE', *, *, #264, .F. ) ;
#107 = DIRECTION ( 'NONE',  ( -0.000000000000000000, -1.000000000000000000, -0.000000000000000000 ) ) ;
#108 = VERTEX_POINT ( 'NONE', #67 ) ;
#109 = SURFACE_SIDE_STYLE ('',( #261 ) ) ;
#110 = EDGE_CURVE ( 'NONE', #280, #160, #148, .T. ) ;
#111 = CIRCLE ( 'NONE', #238, 0.09375000000000001388 ) ;
#112 = COLOUR_RGB ( '',1.000000000000000000, 0.000000000000000000, 0.000000000000000000 ) ;
#113 = PRESENTATION_STYLE_ASSIGNMENT (( #188 ) ) ;
#114 = EDGE_CURVE ( 'NONE', #282, #285, #42, .T. ) ;
#115 = CARTESIAN_POINT ( 'NONE',  ( 0.09375000000000001388, 2.500000000000000000, 1.148106374200644325E-17 ) ) ;
#116 = SURFACE_STYLE_FILL_AREA ( #30 ) ;
#117 = UNCERTAINTY_MEASURE_WITH_UNIT (LENGTH_MEASURE( 1.000000000000000082E-05 ), #27, 'distance_accuracy_value', 'NONE');
#118 = DIRECTION ( 'NONE',  ( -3.265724797726275178E-17, 1.000000000000000000, -0.000000000000000000 ) ) ;
#119 =( LENGTH_UNIT ( ) NAMED_UNIT ( * ) SI_UNIT ( $, .METRE. ) );
#120 = EDGE_LOOP ( 'NONE', ( #218, #133, #169, #1 ) ) ;
#121 = FILL_AREA_STYLE_COLOUR ( '', #12 ) ;
#122 = MANIFOLD_SOLID_BREP ( 'Revolve - Cutting Edge', #129 ) ;
#123 = DIRECTION ( 'NONE',  ( 0.000000000000000000, 0.000000000000000000, -1.000000000000000000 ) ) ;
#124 = STYLED_ITEM ( 'NONE', ( #113 ), #152 ) ;
#125 = FILL_AREA_STYLE_COLOUR ( '', #75 ) ;
#126 = DIMENSIONAL_EXPONENTS ( 1.000000000000000000, 0.000000000000000000, 0.000000000000000000, 0.000000000000000000, 0.000000000000000000, 0.000000000000000000, 0.000000000000000000 ) ;
#127 = DIRECTION ( 'NONE',  ( -0.000000000000000000, -1.000000000000000000, -0.000000000000000000 ) ) ;
#128 = DIRECTION ( 'NONE',  ( 0.000000000000000000, 0.000000000000000000, -1.000000000000000000 ) ) ;
#129 = CLOSED_SHELL ( 'NONE', ( #307, #152, #175, #97 ) ) ;
#130 = FILL_AREA_STYLE ('',( #281 ) ) ;
#131 = DIRECTION ( 'NONE',  ( -0.000000000000000000, -1.000000000000000000, -0.000000000000000000 ) ) ;
#132 = ORIENTED_EDGE ( 'NONE', *, *, #66, .T. ) ;
#133 = ORIENTED_EDGE ( 'NONE', *, *, #288, .T. ) ;
#134 = ADVANCED_FACE ( 'NONE', ( #143 ), #183, .T. ) ;
#135 = PLANE ( 'NONE',  #94 ) ;
#136 = AXIS2_PLACEMENT_3D ( 'NONE', #59, #28, #225 ) ;
#137 = SURFACE_STYLE_USAGE ( .BOTH. , #81 ) ;
#138 = AXIS2_PLACEMENT_3D ( 'NONE', #185, #23, #128 ) ;
#139 = PRESENTATION_STYLE_ASSIGNMENT (( #54 ) ) ;
#140 = LENGTH_MEASURE_WITH_UNIT ( LENGTH_MEASURE( 0.02539999999999999897 ), #100 );
#141 =( CONVERSION_BASED_UNIT ( 'INCH', #140 ) LENGTH_UNIT ( ) NAMED_UNIT ( #26 ) );
#142 = UNCERTAINTY_MEASURE_WITH_UNIT (LENGTH_MEASURE( 1.000000000000000082E-05 ), #173, 'distance_accuracy_value', 'NONE');
#143 = FACE_OUTER_BOUND ( 'NONE', #214, .T. ) ;
#144 = SURFACE_STYLE_USAGE ( .BOTH. , #220 ) ;
#145 = MECHANICAL_DESIGN_GEOMETRIC_PRESENTATION_REPRESENTATION (  '', ( #159 ), #303 ) ;
#146 = PLANE ( 'NONE',  #291 ) ;
#147 =( CONVERSION_BASED_UNIT ( 'INCH', #274 ) LENGTH_UNIT ( ) NAMED_UNIT ( #126 ) );
#148 = CIRCLE ( 'NONE', #192, 0.09375000000000001388 ) ;
#149 = VECTOR ( 'NONE', #257, 39.37007874015748143 ) ;
#150 = APPLICATION_CONTEXT ( 'automotive_design' ) ;
#151 = CARTESIAN_POINT ( 'NONE',  ( -0.09375000000000011102, 2.500000000000000000, 0.000000000000000000 ) ) ;
#152 = ADVANCED_FACE ( 'NONE', ( #53 ), #135, .T. ) ;
#153 = MECHANICAL_DESIGN_GEOMETRIC_PRESENTATION_REPRESENTATION (  '', ( #231 ), #43 ) ;
#154 = DIMENSIONAL_EXPONENTS ( 1.000000000000000000, 0.000000000000000000, 0.000000000000000000, 0.000000000000000000, 0.000000000000000000, 0.000000000000000000, 0.000000000000000000 ) ;
#155 = CARTESIAN_POINT ( 'NONE',  ( 0.000000000000000000, 0.000000000000000000, 0.000000000000000000 ) ) ;
#156 = EDGE_LOOP ( 'NONE', ( #44, #46 ) ) ;
#157 =( LENGTH_UNIT ( ) NAMED_UNIT ( * ) SI_UNIT ( $, .METRE. ) );
#158 = ORIENTED_EDGE ( 'NONE', *, *, #268, .T. ) ;
#159 = STYLED_ITEM ( 'NONE', ( #139 ), #122 ) ;
#160 = VERTEX_POINT ( 'NONE', #198 ) ;
#161 = PRESENTATION_STYLE_ASSIGNMENT (( #308 ) ) ;
#162 = ORIENTED_EDGE ( 'NONE', *, *, #264, .T. ) ;
#163 = DIRECTION ( 'NONE',  ( 1.000000000000000000, 0.000000000000000000, 0.000000000000000000 ) ) ;
#164 = DIMENSIONAL_EXPONENTS ( 1.000000000000000000, 0.000000000000000000, 0.000000000000000000, 0.000000000000000000, 0.000000000000000000, 0.000000000000000000, 0.000000000000000000 ) ;
#165 =( NAMED_UNIT ( * ) SI_UNIT ( $, .STERADIAN. ) SOLID_ANGLE_UNIT ( ) );
#166 = CIRCLE ( 'NONE', #6, 0.09375000000000006939 ) ;
#167 = FACE_OUTER_BOUND ( 'NONE', #240, .T. ) ;
#168 = SURFACE_SIDE_STYLE ('',( #266 ) ) ;
#169 = ORIENTED_EDGE ( 'NONE', *, *, #110, .F. ) ;
#170 = APPLICATION_CONTEXT ( 'automotive_design' ) ;
#171 = DIRECTION ( 'NONE',  ( -3.265724797726275178E-17, 1.000000000000000000, -0.000000000000000000 ) ) ;
#172 = UNCERTAINTY_MEASURE_WITH_UNIT (LENGTH_MEASURE( 1.000000000000000082E-05 ), #304, 'distance_accuracy_value', 'NONE');
#173 =( CONVERSION_BASED_UNIT ( 'INCH', #51 ) LENGTH_UNIT ( ) NAMED_UNIT ( #265 ) );
#174 = CIRCLE ( 'NONE', #243, 0.09375000000000006939 ) ;
#175 = ADVANCED_FACE ( 'NONE', ( #7 ), #4, .T. ) ;
#176 =( NAMED_UNIT ( * ) PLANE_ANGLE_UNIT ( ) SI_UNIT ( $, .RADIAN. ) );
#177 = MECHANICAL_DESIGN_GEOMETRIC_PRESENTATION_REPRESENTATION (  '', ( #124 ), #216 ) ;
#178 = ADVANCED_BREP_SHAPE_REPRESENTATION ( '83193', ( #122, #24, #57 ), #102 ) ;
#179 = CARTESIAN_POINT ( 'NONE',  ( 0.000000000000000000, 0.000000000000000000, -0.09375000000000001388 ) ) ;
#180 = AXIS2_PLACEMENT_3D ( 'NONE', #74, #171, #272 ) ;
#181 = PRESENTATION_LAYER_ASSIGNMENT (  '', '', ( #231 ) ) ;
#182 =( NAMED_UNIT ( * ) SI_UNIT ( $, .STERADIAN. ) SOLID_ANGLE_UNIT ( ) );
#183 = CYLINDRICAL_SURFACE ( 'NONE', #298, 0.09375000000000004163 ) ;
#184 = ORIENTED_EDGE ( 'NONE', *, *, #201, .T. ) ;
#185 = CARTESIAN_POINT ( 'NONE',  ( 0.000000000000000000, 0.000000000000000000, 0.000000000000000000 ) ) ;
#186 =( CONVERSION_BASED_UNIT ( 'INCH', #279 ) LENGTH_UNIT ( ) NAMED_UNIT ( #246 ) );
#187 = EDGE_CURVE ( 'NONE', #71, #108, #62, .T. ) ;
#188 = SURFACE_STYLE_USAGE ( .BOTH. , #168 ) ;
#189 = FACE_OUTER_BOUND ( 'NONE', #245, .T. ) ;
#190 = EDGE_CURVE ( 'NONE', #160, #280, #104, .T. ) ;
#191 =( NAMED_UNIT ( * ) PLANE_ANGLE_UNIT ( ) SI_UNIT ( $, .RADIAN. ) );
#192 = AXIS2_PLACEMENT_3D ( 'NONE', #155, #260, #41 ) ;
#193 = FILL_AREA_STYLE_COLOUR ( '', #112 ) ;
#194 = VECTOR ( 'NONE', #107, 39.37007874015748143 ) ;
#195 =( NAMED_UNIT ( * ) PLANE_ANGLE_UNIT ( ) SI_UNIT ( $, .RADIAN. ) );
#196 = ORIENTED_EDGE ( 'NONE', *, *, #187, .T. ) ;
#197 = PRODUCT_DEFINITION ( 'UNKNOWN', '', #13, #233 ) ;
#198 = CARTESIAN_POINT ( 'NONE',  ( 1.148106374200643863E-17, 0.000000000000000000, 0.09375000000000001388 ) ) ;
#199 = SURFACE_STYLE_FILL_AREA ( #200 ) ;
#200 = FILL_AREA_STYLE ('',( #98 ) ) ;
#201 = EDGE_CURVE ( 'NONE', #108, #72, #174, .T. ) ;
#202 = CARTESIAN_POINT ( 'NONE',  ( -6.123233995736766036E-17, 2.500000000000000000, 0.000000000000000000 ) ) ;
#203 = DIRECTION ( 'NONE',  ( -3.265724797726275178E-17, 1.000000000000000000, -0.000000000000000000 ) ) ;
#204 = LENGTH_MEASURE_WITH_UNIT ( LENGTH_MEASURE( 0.02539999999999999897 ), #45 );
#205 = PRODUCT_RELATED_PRODUCT_CATEGORY ( 'part', '', ( #15 ) ) ;
#206 = CARTESIAN_POINT ( 'NONE',  ( 0.000000000000000000, 0.000000000000000000, 0.000000000000000000 ) ) ;
#207 = ORIENTED_EDGE ( 'NONE', *, *, #234, .F. ) ;
#208 =( GEOMETRIC_REPRESENTATION_CONTEXT ( 3 ) GLOBAL_UNCERTAINTY_ASSIGNED_CONTEXT ( ( #250 ) ) GLOBAL_UNIT_ASSIGNED_CONTEXT ( ( #147, #17, #19 ) ) REPRESENTATION_CONTEXT ( 'NONE', 'WORKASPACE' ) );
#209 = VECTOR ( 'NONE', #203, 39.37007874015748143 ) ;
#210 = FILL_AREA_STYLE ('',( #125 ) ) ;
#211 = ORIENTED_EDGE ( 'NONE', *, *, #190, .F. ) ;
#212 = FACE_OUTER_BOUND ( 'NONE', #120, .T. ) ;
#213 = ORIENTED_EDGE ( 'NONE', *, *, #37, .F. ) ;
#214 = EDGE_LOOP ( 'NONE', ( #106, #263, #196, #207 ) ) ;
#215 = COLOUR_RGB ( '',0.7921568627450980005, 0.8196078431372548767, 0.9333333333333333481 ) ;
#216 =( GEOMETRIC_REPRESENTATION_CONTEXT ( 3 ) GLOBAL_UNCERTAINTY_ASSIGNED_CONTEXT ( ( #142 ) ) GLOBAL_UNIT_ASSIGNED_CONTEXT ( ( #173, #195, #267 ) ) REPRESENTATION_CONTEXT ( 'NONE', 'WORKASPACE' ) );
#217 = CARTESIAN_POINT ( 'NONE',  ( -6.123233995736766036E-17, 2.500000000000000000, 0.000000000000000000 ) ) ;
#218 = ORIENTED_EDGE ( 'NONE', *, *, #114, .T. ) ;
#219 = CARTESIAN_POINT ( 'NONE',  ( 0.000000000000000000, 0.6250000000000000000, 0.000000000000000000 ) ) ;
#220 = SURFACE_SIDE_STYLE ('',( #116 ) ) ;
#221 = AXIS2_PLACEMENT_3D ( 'NONE', #309, #127, #237 ) ;
#222 = AXIS2_PLACEMENT_3D ( 'NONE', #84, #86, #255 ) ;
#223 = FACE_OUTER_BOUND ( 'NONE', #20, .T. ) ;
#224 = DIRECTION ( 'NONE',  ( 0.000000000000000000, 0.000000000000000000, 1.000000000000000000 ) ) ;
#225 = DIRECTION ( 'NONE',  ( -1.000000000000000000, 0.000000000000000000, 0.000000000000000000 ) ) ;
#226 = FILL_AREA_STYLE ('',( #193 ) ) ;
#227 = LENGTH_MEASURE_WITH_UNIT ( LENGTH_MEASURE( 0.02539999999999999897 ), #287 );
#228 = AXIS2_PLACEMENT_3D ( 'NONE', #301, #232, #123 ) ;
#229 = DIRECTION ( 'NONE',  ( -3.265724797726275178E-17, 1.000000000000000000, -0.000000000000000000 ) ) ;
#230 = CIRCLE ( 'NONE', #136, 0.09375000000000001388 ) ;
#231 = STYLED_ITEM ( 'NONE', ( #31 ), #175 ) ;
#232 = DIRECTION ( 'NONE',  ( -0.000000000000000000, -1.000000000000000000, -0.000000000000000000 ) ) ;
#233 = PRODUCT_DEFINITION_CONTEXT ( 'detailed design', #170, 'design' ) ;
#234 = EDGE_CURVE ( 'NONE', #72, #108, #166, .T. ) ;
#235 = EDGE_LOOP ( 'NONE', ( #69, #90, #158, #211 ) ) ;
#236 = CARTESIAN_POINT ( 'NONE',  ( 0.000000000000000000, 0.6250000000000000000, -0.09375000000000001388 ) ) ;
#237 = DIRECTION ( 'NONE',  ( 0.000000000000000000, 0.000000000000000000, -1.000000000000000000 ) ) ;
#238 = AXIS2_PLACEMENT_3D ( 'NONE', #253, #118, #96 ) ;
#239 = SURFACE_STYLE_FILL_AREA ( #130 ) ;
#240 = EDGE_LOOP ( 'NONE', ( #184, #47 ) ) ;
#241 = PRODUCT_CONTEXT ( 'NONE', #150, 'mechanical' ) ;
#242 = MECHANICAL_DESIGN_GEOMETRIC_PRESENTATION_REPRESENTATION (  '', ( #60 ), #302 ) ;
#243 = AXIS2_PLACEMENT_3D ( 'NONE', #202, #299, #275 ) ;
#244 = LENGTH_MEASURE_WITH_UNIT ( LENGTH_MEASURE( 0.02539999999999999897 ), #78 );
#245 = EDGE_LOOP ( 'NONE', ( #132, #162, #297, #92 ) ) ;
#246 = DIMENSIONAL_EXPONENTS ( 1.000000000000000000, 0.000000000000000000, 0.000000000000000000, 0.000000000000000000, 0.000000000000000000, 0.000000000000000000, 0.000000000000000000 ) ;
#247 = FILL_AREA_STYLE ('',( #296 ) ) ;
#248 = PLANE ( 'NONE',  #252 ) ;
#249 =( NAMED_UNIT ( * ) SI_UNIT ( $, .STERADIAN. ) SOLID_ANGLE_UNIT ( ) );
#250 = UNCERTAINTY_MEASURE_WITH_UNIT (LENGTH_MEASURE( 1.000000000000000082E-05 ), #147, 'distance_accuracy_value', 'NONE');
#251 = SURFACE_STYLE_USAGE ( .BOTH. , #294 ) ;
#252 = AXIS2_PLACEMENT_3D ( 'NONE', #206, #95, #277 ) ;
#253 = CARTESIAN_POINT ( 'NONE',  ( 0.000000000000000000, 0.6250000000000000000, 0.000000000000000000 ) ) ;
#254 = DIRECTION ( 'NONE',  ( 3.265724797726275178E-17, -1.000000000000000000, 0.000000000000000000 ) ) ;
#255 = DIRECTION ( 'NONE',  ( 0.000000000000000000, 0.000000000000000000, -1.000000000000000000 ) ) ;
#256 = DIRECTION ( 'NONE',  ( -1.000000000000000000, 0.000000000000000000, 0.000000000000000000 ) ) ;
#257 = DIRECTION ( 'NONE',  ( -3.265724797726275178E-17, 1.000000000000000000, -0.000000000000000000 ) ) ;
#258 = STYLED_ITEM ( 'NONE', ( #161 ), #307 ) ;
#259 = DIRECTION ( 'NONE',  ( -0.000000000000000000, -1.000000000000000000, -0.000000000000000000 ) ) ;
#260 = DIRECTION ( 'NONE',  ( -0.000000000000000000, -1.000000000000000000, -0.000000000000000000 ) ) ;
#261 = SURFACE_STYLE_FILL_AREA ( #210 ) ;
#262 = ORIENTED_EDGE ( 'NONE', *, *, #190, .T. ) ;
#263 = ORIENTED_EDGE ( 'NONE', *, *, #37, .T. ) ;
#264 = EDGE_CURVE ( 'NONE', #10, #72, #14, .T. ) ;
#265 = DIMENSIONAL_EXPONENTS ( 1.000000000000000000, 0.000000000000000000, 0.000000000000000000, 0.000000000000000000, 0.000000000000000000, 0.000000000000000000, 0.000000000000000000 ) ;
#266 = SURFACE_STYLE_FILL_AREA ( #247 ) ;
#267 =( NAMED_UNIT ( * ) SI_UNIT ( $, .STERADIAN. ) SOLID_ANGLE_UNIT ( ) );
#268 = EDGE_CURVE ( 'NONE', #282, #280, #70, .T. ) ;
#269 =( NAMED_UNIT ( * ) PLANE_ANGLE_UNIT ( ) SI_UNIT ( $, .RADIAN. ) );
#270 = EDGE_LOOP ( 'NONE', ( #89, #262 ) ) ;
#271 = UNCERTAINTY_MEASURE_WITH_UNIT (LENGTH_MEASURE( 1.000000000000000082E-05 ), #141, 'distance_accuracy_value', 'NONE');
#272 = DIRECTION ( 'NONE',  ( -1.000000000000000000, 0.000000000000000000, 0.000000000000000000 ) ) ;
#273 = DIRECTION ( 'NONE',  ( -3.265724797726275178E-17, 1.000000000000000000, 0.000000000000000000 ) ) ;
#274 = LENGTH_MEASURE_WITH_UNIT ( LENGTH_MEASURE( 0.02539999999999999897 ), #300 );
#275 = DIRECTION ( 'NONE',  ( -1.000000000000000000, 0.000000000000000000, 0.000000000000000000 ) ) ;
#276 =( CONVERSION_BASED_UNIT ( 'INCH', #227 ) LENGTH_UNIT ( ) NAMED_UNIT ( #154 ) );
#277 = DIRECTION ( 'NONE',  ( 0.000000000000000000, 0.000000000000000000, -1.000000000000000000 ) ) ;
#278 = AXIS2_PLACEMENT_3D ( 'NONE', #295, #273, #8 ) ;
#279 = LENGTH_MEASURE_WITH_UNIT ( LENGTH_MEASURE( 0.02539999999999999897 ), #157 );
#280 = VERTEX_POINT ( 'NONE', #39 ) ;
#281 = FILL_AREA_STYLE_COLOUR ( '', #85 ) ;
#282 = VERTEX_POINT ( 'NONE', #236 ) ;
#283 =( NAMED_UNIT ( * ) PLANE_ANGLE_UNIT ( ) SI_UNIT ( $, .RADIAN. ) );
#284 = EDGE_CURVE ( 'NONE', #285, #282, #50, .T. ) ;
#285 = VERTEX_POINT ( 'NONE', #305 ) ;
#286 = CARTESIAN_POINT ( 'NONE',  ( 0.000000000000000000, 0.000000000000000000, 0.000000000000000000 ) ) ;
#287 =( LENGTH_UNIT ( ) NAMED_UNIT ( * ) SI_UNIT ( $, .METRE. ) );
#288 = EDGE_CURVE ( 'NONE', #285, #160, #88, .T. ) ;
#289 = DIRECTION ( 'NONE',  ( 0.000000000000000000, 1.000000000000000000, 0.000000000000000000 ) ) ;
#290 = PLANE ( 'NONE',  #278 ) ;
#291 = AXIS2_PLACEMENT_3D ( 'NONE', #55, #254, #52 ) ;
#292 = APPLICATION_PROTOCOL_DEFINITION ( 'draft international standard', 'automotive_design', 1998, #170 ) ;
#293 = VECTOR ( 'NONE', #259, 39.37007874015748143 ) ;
#294 = SURFACE_SIDE_STYLE ('',( #73 ) ) ;
#295 = CARTESIAN_POINT ( 'NONE',  ( 4.999199275539526215E-35, 0.6250000000000000000, 0.000000000000000000 ) ) ;
#296 = FILL_AREA_STYLE_COLOUR ( '', #38 ) ;
#297 = ORIENTED_EDGE ( 'NONE', *, *, #201, .F. ) ;
#298 = AXIS2_PLACEMENT_3D ( 'NONE', #217, #58, #34 ) ;
#299 = DIRECTION ( 'NONE',  ( -3.265724797726275178E-17, 1.000000000000000000, -0.000000000000000000 ) ) ;
#300 =( LENGTH_UNIT ( ) NAMED_UNIT ( * ) SI_UNIT ( $, .METRE. ) );
#301 = CARTESIAN_POINT ( 'NONE',  ( 0.000000000000000000, 0.000000000000000000, 0.000000000000000000 ) ) ;
#302 =( GEOMETRIC_REPRESENTATION_CONTEXT ( 3 ) GLOBAL_UNCERTAINTY_ASSIGNED_CONTEXT ( ( #271 ) ) GLOBAL_UNIT_ASSIGNED_CONTEXT ( ( #141, #35, #77 ) ) REPRESENTATION_CONTEXT ( 'NONE', 'WORKASPACE' ) );
#303 =( GEOMETRIC_REPRESENTATION_CONTEXT ( 3 ) GLOBAL_UNCERTAINTY_ASSIGNED_CONTEXT ( ( #117 ) ) GLOBAL_UNIT_ASSIGNED_CONTEXT ( ( #27, #269, #165 ) ) REPRESENTATION_CONTEXT ( 'NONE', 'WORKASPACE' ) );
#304 =( CONVERSION_BASED_UNIT ( 'INCH', #204 ) LENGTH_UNIT ( ) NAMED_UNIT ( #164 ) );
#305 = CARTESIAN_POINT ( 'NONE',  ( 1.148106374200643863E-17, 0.6250000000000000000, 0.09375000000000001388 ) ) ;
#306 = AXIS2_PLACEMENT_3D ( 'NONE', #63, #131, #18 ) ;
#307 = ADVANCED_FACE ( 'NONE', ( #212 ), #91, .T. ) ;
#308 = SURFACE_STYLE_USAGE ( .BOTH. , #109 ) ;
#309 = CARTESIAN_POINT ( 'NONE',  ( 0.000000000000000000, 0.6250000000000000000, 0.000000000000000000 ) ) ;
ENDSEC;
END-ISO-10303-21;
