ISO-10303-21;
HEADER;
FILE_DESCRIPTION (( 'STEP AP214' ),
    '1' );
FILE_NAME ('Micro_DM-500-290X.STEP',
    '2021-09-02T16:07:16',
    ( '' ),
    ( '' ),
    'SwSTEP 2.0',
    'SolidWorks 2020',
    '' );
FILE_SCHEMA (( 'AUTOMOTIVE_DESIGN' ));
ENDSEC;

DATA;
#1 = DIRECTION ( 'NONE',  ( 1.000000000000000000, 0.0000000000000000000, 0.0000000000000000000 ) ) ;
#2 = DIRECTION ( 'NONE',  ( 1.000000000000000000, 0.0000000000000000000, 0.0000000000000000000 ) ) ;
#3 = CONICAL_SURFACE ( 'NONE', #111, 0.2350000000000011524, 0.7853981633974380649 ) ;
#4 = AXIS2_PLACEMENT_3D ( 'NONE', #260, #104, #186 ) ;
#5 = CYLINDRICAL_SURFACE ( 'NONE', #277, 0.2500000000000000000 ) ;
#6 = UNCERTAINTY_MEASURE_WITH_UNIT (LENGTH_MEASURE( 1.000000000000000082E-05 ), #121, 'distance_accuracy_value', 'NONE');
#7 = LINE ( 'NONE', #110, #179 ) ;
#8 = VECTOR ( 'NONE', #312, 39.37007874015748143 ) ;
#9 = CONICAL_SURFACE ( 'NONE', #184, 0.007499999999999999722, 0.7853981633974501664 ) ;
#10 = DIRECTION ( 'NONE',  ( -1.000000000000000000, 0.0000000000000000000, 0.0000000000000000000 ) ) ;
#11 = CARTESIAN_POINT ( 'NONE',  ( -0.007499999999999999722, 9.184850993605147975E-19, 1.707404996040164512E-17 ) ) ;
#12 = PRESENTATION_STYLE_ASSIGNMENT (( #319 ) ) ;
#13 = DIRECTION ( 'NONE',  ( 0.0000000000000000000, 0.0000000000000000000, 1.000000000000000000 ) ) ;
#14 =( NAMED_UNIT ( * ) SI_UNIT ( $, .STERADIAN. ) SOLID_ANGLE_UNIT ( ) );
#15 = ORIENTED_EDGE ( 'NONE', *, *, #230, .F. ) ;
#16 = CARTESIAN_POINT ( 'NONE',  ( -0.2499500000000001165, 0.0000000000000000000, 1.000000000000000000 ) ) ;
#17 = CARTESIAN_POINT ( 'NONE',  ( 0.0000000000000000000, 0.0000000000000000000, 3.000000000000000444 ) ) ;
#18 = APPLICATION_PROTOCOL_DEFINITION ( 'draft international standard', 'automotive_design', 1998, #156 ) ;
#19 = UNCERTAINTY_MEASURE_WITH_UNIT (LENGTH_MEASURE( 1.000000000000000082E-05 ), #149, 'distance_accuracy_value', 'NONE');
#20 = VERTEX_POINT ( 'NONE', #101 ) ;
#21 = ORIENTED_EDGE ( 'NONE', *, *, #188, .F. ) ;
#22 = CARTESIAN_POINT ( 'NONE',  ( -0.2500000000000000000, 0.0000000000000000000, 3.000000000000000444 ) ) ;
#23 = CARTESIAN_POINT ( 'NONE',  ( 0.0000000000000000000, 0.0000000000000000000, 0.2424499999999991384 ) ) ;
#24 = AXIS2_PLACEMENT_3D ( 'NONE', #119, #204, #168 ) ;
#25 = AXIS2_PLACEMENT_3D ( 'NONE', #127, #198, #200 ) ;
#26 = DIRECTION ( 'NONE',  ( -0.0000000000000000000, -0.0000000000000000000, -1.000000000000000000 ) ) ;
#27 = ORIENTED_EDGE ( 'NONE', *, *, #152, .F. ) ;
#28 = CARTESIAN_POINT ( 'NONE',  ( 0.0000000000000000000, 0.0000000000000000000, 3.000000000000000444 ) ) ;
#29 = ORIENTED_EDGE ( 'NONE', *, *, #98, .T. ) ;
#30 = CARTESIAN_POINT ( 'NONE',  ( 0.2499500000000000888, 3.061004674468810760E-17, 0.0000000000000000000 ) ) ;
#31 = AXIS2_PLACEMENT_3D ( 'NONE', #281, #306, #52 ) ;
#32 = AXIS2_PLACEMENT_3D ( 'NONE', #218, #38, #114 ) ;
#33 = ORIENTED_EDGE ( 'NONE', *, *, #69, .T. ) ;
#34 = DIRECTION ( 'NONE',  ( -1.000000000000000000, 0.0000000000000000000, 0.0000000000000000000 ) ) ;
#35 = ORIENTED_EDGE ( 'NONE', *, *, #151, .T. ) ;
#36 = CARTESIAN_POINT ( 'NONE',  ( -0.2350000000000011524, 0.0000000000000000000, 3.000000000000000444 ) ) ;
#37 = EDGE_LOOP ( 'NONE', ( #109, #242, #65, #35 ) ) ;
#38 = DIRECTION ( 'NONE',  ( 0.0000000000000000000, 0.0000000000000000000, -1.000000000000000000 ) ) ;
#39 = VERTEX_POINT ( 'NONE', #120 ) ;
#40 = FILL_AREA_STYLE ('',( #173 ) ) ;
#41 = VECTOR ( 'NONE', #82, 39.37007874015748143 ) ;
#42 = VECTOR ( 'NONE', #291, 39.37007874015748143 ) ;
#43 = ORIENTED_EDGE ( 'NONE', *, *, #287, .T. ) ;
#44 = EDGE_CURVE ( 'NONE', #288, #226, #139, .T. ) ;
#45 =( NAMED_UNIT ( * ) SI_UNIT ( $, .STERADIAN. ) SOLID_ANGLE_UNIT ( ) );
#46 = CIRCLE ( 'NONE', #183, 0.2350000000000011524 ) ;
#47 = ORIENTED_EDGE ( 'NONE', *, *, #126, .F. ) ;
#48 = CIRCLE ( 'NONE', #32, 0.2500000000000000000 ) ;
#49 = ADVANCED_FACE ( 'NONE', ( #220 ), #71, .T. ) ;
#50 = DIRECTION ( 'NONE',  ( -0.0000000000000000000, -0.0000000000000000000, -1.000000000000000000 ) ) ;
#51 = ADVANCED_FACE ( 'NONE', ( #75 ), #270, .T. ) ;
#52 = DIRECTION ( 'NONE',  ( 1.000000000000000000, 0.0000000000000000000, -0.0000000000000000000 ) ) ;
#53 = CARTESIAN_POINT ( 'NONE',  ( 0.0000000000000000000, 0.0000000000000000000, 3.000000000000000444 ) ) ;
#54 = AXIS2_PLACEMENT_3D ( 'NONE', #112, #131, #284 ) ;
#55 = DIRECTION ( 'NONE',  ( -1.000000000000000000, 0.0000000000000000000, 0.0000000000000000000 ) ) ;
#56 = ORIENTED_EDGE ( 'NONE', *, *, #69, .F. ) ;
#57 = FACE_OUTER_BOUND ( 'NONE', #251, .T. ) ;
#58 = DIMENSIONAL_EXPONENTS ( 1.000000000000000000, 0.0000000000000000000, 0.0000000000000000000, 0.0000000000000000000, 0.0000000000000000000, 0.0000000000000000000, 0.0000000000000000000 ) ;
#59 = ORIENTED_EDGE ( 'NONE', *, *, #199, .T. ) ;
#60 = CARTESIAN_POINT ( 'NONE',  ( 0.2499500000000001443, 3.061004674468811376E-17, 1.000000000000000000 ) ) ;
#61 = FILL_AREA_STYLE_COLOUR ( '', #206 ) ;
#62 = SURFACE_STYLE_FILL_AREA ( #292 ) ;
#63 = EDGE_CURVE ( 'NONE', #39, #20, #66, .T. ) ;
#64 = FACE_OUTER_BOUND ( 'NONE', #272, .T. ) ;
#65 = ORIENTED_EDGE ( 'NONE', *, *, #325, .T. ) ;
#66 = CIRCLE ( 'NONE', #178, 0.2500000000000000000 ) ;
#67 = FACE_OUTER_BOUND ( 'NONE', #237, .T. ) ;
#68 = ORIENTED_EDGE ( 'NONE', *, *, #185, .T. ) ;
#69 = EDGE_CURVE ( 'NONE', #315, #323, #326, .T. ) ;
#70 = PRESENTATION_STYLE_ASSIGNMENT (( #203 ) ) ;
#71 = CONICAL_SURFACE ( 'NONE', #256, 0.2350000000000011524, 0.7853981633974380649 ) ;
#72 = VECTOR ( 'NONE', #221, 39.37007874015748143 ) ;
#73 = ORIENTED_EDGE ( 'NONE', *, *, #268, .F. ) ;
#74 =( LENGTH_UNIT ( ) NAMED_UNIT ( * ) SI_UNIT ( $, .METRE. ) );
#75 = FACE_OUTER_BOUND ( 'NONE', #320, .T. ) ;
#76 = CLOSED_SHELL ( 'NONE', ( #172, #318, #107, #193, #254, #51, #49, #161, #83, #227, #115 ) ) ;
#77 = ORIENTED_EDGE ( 'NONE', *, *, #322, .T. ) ;
#78 =( GEOMETRIC_REPRESENTATION_CONTEXT ( 3 ) GLOBAL_UNCERTAINTY_ASSIGNED_CONTEXT ( ( #6 ) ) GLOBAL_UNIT_ASSIGNED_CONTEXT ( ( #121, #91, #14 ) ) REPRESENTATION_CONTEXT ( 'NONE', 'WORKASPACE' ) );
#79 = ADVANCED_BREP_SHAPE_REPRESENTATION ( 'Micro_DM-500-290X', ( #307, #25 ), #150 ) ;
#80 = DIRECTION ( 'NONE',  ( -1.000000000000000000, 0.0000000000000000000, 0.0000000000000000000 ) ) ;
#81 = PRODUCT_DEFINITION_SHAPE ( 'NONE', 'NONE',  #154 ) ;
#82 = DIRECTION ( 'NONE',  ( -0.0000000000000000000, -0.0000000000000000000, -1.000000000000000000 ) ) ;
#83 = ADVANCED_FACE ( 'NONE', ( #130 ), #103, .T. ) ;
#84 = CARTESIAN_POINT ( 'NONE',  ( 0.0000000000000000000, 0.0000000000000000000, 3.000000000000000444 ) ) ;
#85 = PLANE ( 'NONE',  #54 ) ;
#86 = CARTESIAN_POINT ( 'NONE',  ( 0.2500000000000000000, 3.061616997868382402E-17, 2.985000000000001208 ) ) ;
#87 =( LENGTH_UNIT ( ) NAMED_UNIT ( * ) SI_UNIT ( $, .METRE. ) );
#88 = AXIS2_PLACEMENT_3D ( 'NONE', #261, #26, #134 ) ;
#89 = CYLINDRICAL_SURFACE ( 'NONE', #324, 0.2500000000000000000 ) ;
#90 = ORIENTED_EDGE ( 'NONE', *, *, #322, .F. ) ;
#91 =( NAMED_UNIT ( * ) PLANE_ANGLE_UNIT ( ) SI_UNIT ( $, .RADIAN. ) );
#92 = EDGE_LOOP ( 'NONE', ( #255, #275, #197, #27 ) ) ;
#93 = DIRECTION ( 'NONE',  ( -1.000000000000000000, 0.0000000000000000000, 0.0000000000000000000 ) ) ;
#94 = CIRCLE ( 'NONE', #297, 0.2499500000000001165 ) ;
#95 = LENGTH_MEASURE_WITH_UNIT ( LENGTH_MEASURE( 0.02539999999999999897 ), #87 );
#96 = SHAPE_DEFINITION_REPRESENTATION ( #81, #79 ) ;
#97 = VECTOR ( 'NONE', #106, 39.37007874015748143 ) ;
#98 = EDGE_CURVE ( 'NONE', #240, #301, #304, .T. ) ;
#99 = AXIS2_PLACEMENT_3D ( 'NONE', #209, #136, #236 ) ;
#100 = CARTESIAN_POINT ( 'NONE',  ( 0.0000000000000000000, 0.0000000000000000000, 1.000000000000000000 ) ) ;
#101 = CARTESIAN_POINT ( 'NONE',  ( -0.2500000000000000000, 0.0000000000000000000, 1.000000000000000000 ) ) ;
#102 = ORIENTED_EDGE ( 'NONE', *, *, #185, .F. ) ;
#103 = CONICAL_SURFACE ( 'NONE', #117, 0.007499999999999999722, 0.7853981633974501664 ) ;
#104 = DIRECTION ( 'NONE',  ( -0.0000000000000000000, -0.0000000000000000000, -1.000000000000000000 ) ) ;
#105 = PRESENTATION_LAYER_ASSIGNMENT (  '', '', ( #253 ) ) ;
#106 = DIRECTION ( 'NONE',  ( -0.0000000000000000000, -0.0000000000000000000, -1.000000000000000000 ) ) ;
#107 = ADVANCED_FACE ( 'NONE', ( #182 ), #3, .T. ) ;
#108 = DIRECTION ( 'NONE',  ( -0.0000000000000000000, -0.0000000000000000000, -1.000000000000000000 ) ) ;
#109 = ORIENTED_EDGE ( 'NONE', *, *, #287, .F. ) ;
#110 = CARTESIAN_POINT ( 'NONE',  ( -0.2350000000000011524, 0.0000000000000000000, 3.000000000000000444 ) ) ;
#111 = AXIS2_PLACEMENT_3D ( 'NONE', #53, #309, #160 ) ;
#112 = CARTESIAN_POINT ( 'NONE',  ( 0.2499500000000001165, 0.0000000000000000000, 1.000000000000000000 ) ) ;
#113 = ORIENTED_EDGE ( 'NONE', *, *, #63, .F. ) ;
#114 = DIRECTION ( 'NONE',  ( 1.000000000000000000, 0.0000000000000000000, 0.0000000000000000000 ) ) ;
#115 = ADVANCED_FACE ( 'NONE', ( #259 ), #279, .F. ) ;
#116 =( LENGTH_UNIT ( ) NAMED_UNIT ( * ) SI_UNIT ( $, .METRE. ) );
#117 = AXIS2_PLACEMENT_3D ( 'NONE', #228, #13, #1 ) ;
#118 = LINE ( 'NONE', #246, #133 ) ;
#119 = CARTESIAN_POINT ( 'NONE',  ( 0.0000000000000000000, 0.0000000000000000000, 2.985000000000001208 ) ) ;
#120 = CARTESIAN_POINT ( 'NONE',  ( 0.2500000000000000000, 3.061616997868382402E-17, 1.000000000000000000 ) ) ;
#121 =( CONVERSION_BASED_UNIT ( 'INCH', #144 ) LENGTH_UNIT ( ) NAMED_UNIT ( #247 ) );
#122 = DIRECTION ( 'NONE',  ( -1.000000000000000000, 0.0000000000000000000, 0.0000000000000000000 ) ) ;
#123 = CIRCLE ( 'NONE', #210, 0.2499500000000001165 ) ;
#124 = SURFACE_SIDE_STYLE ('',( #176 ) ) ;
#125 = PRODUCT_CONTEXT ( 'NONE', #156, 'mechanical' ) ;
#126 = EDGE_CURVE ( 'NONE', #303, #190, #180, .T. ) ;
#127 = CARTESIAN_POINT ( 'NONE',  ( 0.0000000000000000000, 0.0000000000000000000, 0.0000000000000000000 ) ) ;
#128 = ORIENTED_EDGE ( 'NONE', *, *, #151, .F. ) ;
#129 = EDGE_CURVE ( 'NONE', #20, #39, #296, .T. ) ;
#130 = FACE_OUTER_BOUND ( 'NONE', #37, .T. ) ;
#131 = DIRECTION ( 'NONE',  ( -0.0000000000000000000, 0.0000000000000000000, -1.000000000000000000 ) ) ;
#132 = FACE_OUTER_BOUND ( 'NONE', #145, .T. ) ;
#133 = VECTOR ( 'NONE', #265, 39.37007874015748854 ) ;
#134 = DIRECTION ( 'NONE',  ( -1.000000000000000000, 0.0000000000000000000, 0.0000000000000000000 ) ) ;
#135 = EDGE_LOOP ( 'NONE', ( #170, #148 ) ) ;
#136 = DIRECTION ( 'NONE',  ( -0.0000000000000000000, -0.0000000000000000000, -1.000000000000000000 ) ) ;
#137 = ORIENTED_EDGE ( 'NONE', *, *, #222, .T. ) ;
#138 = CYLINDRICAL_SURFACE ( 'NONE', #140, 0.2499500000000000888 ) ;
#139 = CIRCLE ( 'NONE', #24, 0.2500000000000000000 ) ;
#140 = AXIS2_PLACEMENT_3D ( 'NONE', #239, #271, #195 ) ;
#141 = DIRECTION ( 'NONE',  ( 1.000000000000000000, 0.0000000000000000000, 0.0000000000000000000 ) ) ;
#142 = VERTEX_POINT ( 'NONE', #211 ) ;
#143 = DIRECTION ( 'NONE',  ( 0.0000000000000000000, 0.0000000000000000000, 1.000000000000000000 ) ) ;
#144 = LENGTH_MEASURE_WITH_UNIT ( LENGTH_MEASURE( 0.02539999999999999897 ), #116 );
#145 = EDGE_LOOP ( 'NONE', ( #68, #29, #205, #47 ) ) ;
#146 = ORIENTED_EDGE ( 'NONE', *, *, #171, .T. ) ;
#147 = CARTESIAN_POINT ( 'NONE',  ( 0.007499999999999999722, 0.0000000000000000000, 1.707404996040164512E-17 ) ) ;
#148 = ORIENTED_EDGE ( 'NONE', *, *, #188, .T. ) ;
#149 =( CONVERSION_BASED_UNIT ( 'INCH', #224 ) LENGTH_UNIT ( ) NAMED_UNIT ( #58 ) );
#150 =( GEOMETRIC_REPRESENTATION_CONTEXT ( 3 ) GLOBAL_UNCERTAINTY_ASSIGNED_CONTEXT ( ( #305 ) ) GLOBAL_UNIT_ASSIGNED_CONTEXT ( ( #252, #273, #45 ) ) REPRESENTATION_CONTEXT ( 'NONE', 'WORKASPACE' ) );
#151 = EDGE_CURVE ( 'NONE', #301, #190, #282, .T. ) ;
#152 = EDGE_CURVE ( 'NONE', #226, #20, #157, .T. ) ;
#153 = DIRECTION ( 'NONE',  ( 0.0000000000000000000, 0.0000000000000000000, -1.000000000000000000 ) ) ;
#154 = PRODUCT_DEFINITION ( 'UNKNOWN', '', #217, #285 ) ;
#155 = CARTESIAN_POINT ( 'NONE',  ( 0.0000000000000000000, 0.0000000000000000000, 3.000000000000000444 ) ) ;
#156 = APPLICATION_CONTEXT ( 'automotive_design' ) ;
#157 = LINE ( 'NONE', #22, #202 ) ;
#158 = CARTESIAN_POINT ( 'NONE',  ( -0.2499500000000000888, 0.0000000000000000000, 0.0000000000000000000 ) ) ;
#159 = AXIS2_PLACEMENT_3D ( 'NONE', #23, #50, #80 ) ;
#160 = DIRECTION ( 'NONE',  ( -1.000000000000000000, 0.0000000000000000000, 0.0000000000000000000 ) ) ;
#161 = ADVANCED_FACE ( 'NONE', ( #233, #57 ), #85, .T. ) ;
#162 = DIRECTION ( 'NONE',  ( -0.0000000000000000000, -0.0000000000000000000, -1.000000000000000000 ) ) ;
#163 = CARTESIAN_POINT ( 'NONE',  ( 0.2500000000000000000, 3.061616997868382402E-17, 3.000000000000000444 ) ) ;
#164 = EDGE_CURVE ( 'NONE', #288, #39, #229, .T. ) ;
#165 = DIRECTION ( 'NONE',  ( -0.0000000000000000000, -0.0000000000000000000, -1.000000000000000000 ) ) ;
#166 = EDGE_LOOP ( 'NONE', ( #56, #212, #73, #248 ) ) ;
#167 = CARTESIAN_POINT ( 'NONE',  ( 0.0000000000000000000, 0.0000000000000000000, 3.000000000000000444 ) ) ;
#168 = DIRECTION ( 'NONE',  ( 1.000000000000000000, 0.0000000000000000000, 0.0000000000000000000 ) ) ;
#169 = LINE ( 'NONE', #147, #72 ) ;
#170 = ORIENTED_EDGE ( 'NONE', *, *, #249, .T. ) ;
#171 = EDGE_CURVE ( 'NONE', #323, #315, #46, .T. ) ;
#172 = ADVANCED_FACE ( 'NONE', ( #132 ), #208, .T. ) ;
#173 = FILL_AREA_STYLE_COLOUR ( '', #274 ) ;
#174 =( GEOMETRIC_REPRESENTATION_CONTEXT ( 3 ) GLOBAL_UNCERTAINTY_ASSIGNED_CONTEXT ( ( #19 ) ) GLOBAL_UNIT_ASSIGNED_CONTEXT ( ( #149, #300, #302 ) ) REPRESENTATION_CONTEXT ( 'NONE', 'WORKASPACE' ) );
#175 = DIRECTION ( 'NONE',  ( -0.0000000000000000000, -0.0000000000000000000, -1.000000000000000000 ) ) ;
#176 = SURFACE_STYLE_FILL_AREA ( #40 ) ;
#177 = CARTESIAN_POINT ( 'NONE',  ( 0.0000000000000000000, 0.0000000000000000000, 3.000000000000000444 ) ) ;
#178 = AXIS2_PLACEMENT_3D ( 'NONE', #100, #175, #93 ) ;
#179 = VECTOR ( 'NONE', #311, 39.37007874015748854 ) ;
#180 = LINE ( 'NONE', #158, #41 ) ;
#181 = DIRECTION ( 'NONE',  ( -0.0000000000000000000, -0.0000000000000000000, -1.000000000000000000 ) ) ;
#182 = FACE_OUTER_BOUND ( 'NONE', #166, .T. ) ;
#183 = AXIS2_PLACEMENT_3D ( 'NONE', #84, #278, #2 ) ;
#184 = AXIS2_PLACEMENT_3D ( 'NONE', #219, #143, #141 ) ;
#185 = EDGE_CURVE ( 'NONE', #303, #240, #94, .T. ) ;
#186 = DIRECTION ( 'NONE',  ( -1.000000000000000000, 0.0000000000000000000, 0.0000000000000000000 ) ) ;
#187 = CARTESIAN_POINT ( 'NONE',  ( -0.2500000000000000000, 0.0000000000000000000, 2.985000000000001208 ) ) ;
#188 = EDGE_CURVE ( 'NONE', #142, #269, #316, .T. ) ;
#189 = ORIENTED_EDGE ( 'NONE', *, *, #44, .F. ) ;
#190 = VERTEX_POINT ( 'NONE', #213 ) ;
#191 = LINE ( 'NONE', #11, #42 ) ;
#192 = EDGE_LOOP ( 'NONE', ( #15, #262, #137, #189 ) ) ;
#193 = ADVANCED_FACE ( 'NONE', ( #234 ), #5, .T. ) ;
#194 = EDGE_LOOP ( 'NONE', ( #329, #77, #310, #128 ) ) ;
#195 = DIRECTION ( 'NONE',  ( -1.000000000000000000, 0.0000000000000000000, 0.0000000000000000000 ) ) ;
#196 = STYLED_ITEM ( 'NONE', ( #12 ), #307 ) ;
#197 = ORIENTED_EDGE ( 'NONE', *, *, #129, .F. ) ;
#198 = DIRECTION ( 'NONE',  ( 0.0000000000000000000, 0.0000000000000000000, 1.000000000000000000 ) ) ;
#199 = EDGE_CURVE ( 'NONE', #190, #301, #328, .T. ) ;
#200 = DIRECTION ( 'NONE',  ( 1.000000000000000000, 0.0000000000000000000, 0.0000000000000000000 ) ) ;
#201 = APPLICATION_CONTEXT ( 'automotive_design' ) ;
#202 = VECTOR ( 'NONE', #286, 39.37007874015748143 ) ;
#203 = SURFACE_STYLE_USAGE ( .BOTH. , #124 ) ;
#204 = DIRECTION ( 'NONE',  ( 0.0000000000000000000, 0.0000000000000000000, -1.000000000000000000 ) ) ;
#205 = ORIENTED_EDGE ( 'NONE', *, *, #199, .F. ) ;
#206 = COLOUR_RGB ( '',0.7921568627450980005, 0.8196078431372548767, 0.9333333333333333481 ) ;
#207 = CARTESIAN_POINT ( 'NONE',  ( 0.0000000000000000000, 0.0000000000000000000, 1.000000000000000000 ) ) ;
#208 = CYLINDRICAL_SURFACE ( 'NONE', #4, 0.2499500000000000888 ) ;
#209 = CARTESIAN_POINT ( 'NONE',  ( 0.0000000000000000000, 0.0000000000000000000, 0.2424499999999991384 ) ) ;
#210 = AXIS2_PLACEMENT_3D ( 'NONE', #243, #314, #34 ) ;
#211 = CARTESIAN_POINT ( 'NONE',  ( -0.007499999999999999722, 1.576426592202430407E-17, 1.707404996040164512E-17 ) ) ;
#212 = ORIENTED_EDGE ( 'NONE', *, *, #230, .T. ) ;
#213 = CARTESIAN_POINT ( 'NONE',  ( -0.2499500000000000333, 3.061004674468809528E-17, 0.2424499999999991384 ) ) ;
#214 = ORIENTED_EDGE ( 'NONE', *, *, #164, .F. ) ;
#215 = CARTESIAN_POINT ( 'NONE',  ( 0.0000000000000000000, 0.0000000000000000000, 1.707404996040164512E-17 ) ) ;
#216 = AXIS2_PLACEMENT_3D ( 'NONE', #177, #276, #327 ) ;
#217 = PRODUCT_DEFINITION_FORMATION_WITH_SPECIFIED_SOURCE ( 'ANY', '', #225, .NOT_KNOWN. ) ;
#218 = CARTESIAN_POINT ( 'NONE',  ( 0.0000000000000000000, 0.0000000000000000000, 2.985000000000001208 ) ) ;
#219 = CARTESIAN_POINT ( 'NONE',  ( 0.0000000000000000000, 0.0000000000000000000, 1.707404996040164512E-17 ) ) ;
#220 = FACE_OUTER_BOUND ( 'NONE', #192, .T. ) ;
#221 = DIRECTION ( 'NONE',  ( 0.7071067811865487940, 0.0000000000000000000, 0.7071067811865462405 ) ) ;
#222 = EDGE_CURVE ( 'NONE', #323, #226, #7, .T. ) ;
#223 = APPLICATION_PROTOCOL_DEFINITION ( 'draft international standard', 'automotive_design', 1998, #201 ) ;
#224 = LENGTH_MEASURE_WITH_UNIT ( LENGTH_MEASURE( 0.02539999999999999897 ), #74 );
#225 = PRODUCT ( 'Micro_DM-500-290X', 'Micro_DM-500-290X', '', ( #125 ) ) ;
#226 = VERTEX_POINT ( 'NONE', #187 ) ;
#227 = ADVANCED_FACE ( 'NONE', ( #263 ), #138, .T. ) ;
#228 = CARTESIAN_POINT ( 'NONE',  ( 0.0000000000000000000, 0.0000000000000000000, 1.707404996040164512E-17 ) ) ;
#229 = LINE ( 'NONE', #163, #97 ) ;
#230 = EDGE_CURVE ( 'NONE', #315, #288, #118, .T. ) ;
#231 = AXIS2_PLACEMENT_3D ( 'NONE', #258, #162, #10 ) ;
#232 = MECHANICAL_DESIGN_GEOMETRIC_PRESENTATION_REPRESENTATION (  '', ( #253 ), #174 ) ;
#233 = FACE_BOUND ( 'NONE', #293, .T. ) ;
#234 = FACE_OUTER_BOUND ( 'NONE', #92, .T. ) ;
#235 = ORIENTED_EDGE ( 'NONE', *, *, #152, .T. ) ;
#236 = DIRECTION ( 'NONE',  ( -1.000000000000000000, 0.0000000000000000000, 0.0000000000000000000 ) ) ;
#237 = EDGE_LOOP ( 'NONE', ( #21, #43, #59, #267 ) ) ;
#238 = MECHANICAL_DESIGN_GEOMETRIC_PRESENTATION_REPRESENTATION (  '', ( #196 ), #78 ) ;
#239 = CARTESIAN_POINT ( 'NONE',  ( 0.0000000000000000000, 0.0000000000000000000, 0.0000000000000000000 ) ) ;
#240 = VERTEX_POINT ( 'NONE', #60 ) ;
#241 = CARTESIAN_POINT ( 'NONE',  ( 0.2350000000000011524, 2.969768487932338510E-17, 3.000000000000000444 ) ) ;
#242 = ORIENTED_EDGE ( 'NONE', *, *, #249, .F. ) ;
#243 = CARTESIAN_POINT ( 'NONE',  ( 0.0000000000000000000, 0.0000000000000000000, 1.000000000000000000 ) ) ;
#244 = DIMENSIONAL_EXPONENTS ( 1.000000000000000000, 0.0000000000000000000, 0.0000000000000000000, 0.0000000000000000000, 0.0000000000000000000, 0.0000000000000000000, 0.0000000000000000000 ) ;
#245 = ORIENTED_EDGE ( 'NONE', *, *, #63, .T. ) ;
#246 = CARTESIAN_POINT ( 'NONE',  ( 0.2350000000000011524, 2.877919977996294002E-17, 3.000000000000000444 ) ) ;
#247 = DIMENSIONAL_EXPONENTS ( 1.000000000000000000, 0.0000000000000000000, 0.0000000000000000000, 0.0000000000000000000, 0.0000000000000000000, 0.0000000000000000000, 0.0000000000000000000 ) ;
#248 = ORIENTED_EDGE ( 'NONE', *, *, #222, .F. ) ;
#249 = EDGE_CURVE ( 'NONE', #269, #142, #283, .T. ) ;
#250 = CARTESIAN_POINT ( 'NONE',  ( 0.2499500000000000333, 0.0000000000000000000, 0.2424499999999991384 ) ) ;
#251 = EDGE_LOOP ( 'NONE', ( #295, #245 ) ) ;
#252 =( CONVERSION_BASED_UNIT ( 'INCH', #95 ) LENGTH_UNIT ( ) NAMED_UNIT ( #244 ) );
#253 = STYLED_ITEM ( 'NONE', ( #70 ), #79 ) ;
#254 = ADVANCED_FACE ( 'NONE', ( #64 ), #89, .T. ) ;
#255 = ORIENTED_EDGE ( 'NONE', *, *, #268, .T. ) ;
#256 = AXIS2_PLACEMENT_3D ( 'NONE', #17, #153, #122 ) ;
#257 = DIRECTION ( 'NONE',  ( 1.000000000000000000, 0.0000000000000000000, 0.0000000000000000000 ) ) ;
#258 = CARTESIAN_POINT ( 'NONE',  ( 0.0000000000000000000, 0.0000000000000000000, 1.000000000000000000 ) ) ;
#259 = FACE_OUTER_BOUND ( 'NONE', #135, .T. ) ;
#260 = CARTESIAN_POINT ( 'NONE',  ( 0.0000000000000000000, 0.0000000000000000000, 0.0000000000000000000 ) ) ;
#261 = CARTESIAN_POINT ( 'NONE',  ( 0.0000000000000000000, 0.0000000000000000000, 1.707404996040164512E-17 ) ) ;
#262 = ORIENTED_EDGE ( 'NONE', *, *, #171, .F. ) ;
#263 = FACE_OUTER_BOUND ( 'NONE', #194, .T. ) ;
#264 = PRESENTATION_LAYER_ASSIGNMENT (  '', '', ( #196 ) ) ;
#265 = DIRECTION ( 'NONE',  ( 0.7071067811865402453, 8.659560562354845344E-17, -0.7071067811865546782 ) ) ;
#266 = DIRECTION ( 'NONE',  ( -1.000000000000000000, 0.0000000000000000000, 0.0000000000000000000 ) ) ;
#267 = ORIENTED_EDGE ( 'NONE', *, *, #325, .F. ) ;
#268 = EDGE_CURVE ( 'NONE', #226, #288, #48, .T. ) ;
#269 = VERTEX_POINT ( 'NONE', #317 ) ;
#270 = PLANE ( 'NONE',  #216 ) ;
#271 = DIRECTION ( 'NONE',  ( -0.0000000000000000000, -0.0000000000000000000, -1.000000000000000000 ) ) ;
#272 = EDGE_LOOP ( 'NONE', ( #214, #313, #235, #113 ) ) ;
#273 =( NAMED_UNIT ( * ) PLANE_ANGLE_UNIT ( ) SI_UNIT ( $, .RADIAN. ) );
#274 = COLOUR_RGB ( '',0.7921568627450980005, 0.8196078431372548767, 0.9333333333333333481 ) ;
#275 = ORIENTED_EDGE ( 'NONE', *, *, #164, .T. ) ;
#276 = DIRECTION ( 'NONE',  ( 0.0000000000000000000, 0.0000000000000000000, 1.000000000000000000 ) ) ;
#277 = AXIS2_PLACEMENT_3D ( 'NONE', #28, #108, #55 ) ;
#278 = DIRECTION ( 'NONE',  ( 0.0000000000000000000, 0.0000000000000000000, 1.000000000000000000 ) ) ;
#279 = PLANE ( 'NONE',  #31 ) ;
#280 = PRODUCT_RELATED_PRODUCT_CATEGORY ( 'part', '', ( #225 ) ) ;
#281 = CARTESIAN_POINT ( 'NONE',  ( 0.0000000000000000000, 0.0000000000000000000, 0.0000000000000000000 ) ) ;
#282 = CIRCLE ( 'NONE', #159, 0.2499500000000000333 ) ;
#283 = CIRCLE ( 'NONE', #299, 0.007499999999999999722 ) ;
#284 = DIRECTION ( 'NONE',  ( -1.000000000000000000, 0.0000000000000000000, 0.0000000000000000000 ) ) ;
#285 = PRODUCT_DEFINITION_CONTEXT ( 'detailed design', #201, 'design' ) ;
#286 = DIRECTION ( 'NONE',  ( -0.0000000000000000000, -0.0000000000000000000, -1.000000000000000000 ) ) ;
#287 = EDGE_CURVE ( 'NONE', #142, #190, #191, .T. ) ;
#288 = VERTEX_POINT ( 'NONE', #86 ) ;
#289 = SURFACE_SIDE_STYLE ('',( #62 ) ) ;
#290 = AXIS2_PLACEMENT_3D ( 'NONE', #155, #298, #257 ) ;
#291 = DIRECTION ( 'NONE',  ( -0.7071067811865487940, 8.659560562354948882E-17, 0.7071067811865462405 ) ) ;
#292 = FILL_AREA_STYLE ('',( #61 ) ) ;
#293 = EDGE_LOOP ( 'NONE', ( #102, #90 ) ) ;
#294 = DIRECTION ( 'NONE',  ( -1.000000000000000000, 0.0000000000000000000, 0.0000000000000000000 ) ) ;
#295 = ORIENTED_EDGE ( 'NONE', *, *, #129, .T. ) ;
#296 = CIRCLE ( 'NONE', #231, 0.2500000000000000000 ) ;
#297 = AXIS2_PLACEMENT_3D ( 'NONE', #207, #181, #308 ) ;
#298 = DIRECTION ( 'NONE',  ( 0.0000000000000000000, 0.0000000000000000000, 1.000000000000000000 ) ) ;
#299 = AXIS2_PLACEMENT_3D ( 'NONE', #215, #321, #266 ) ;
#300 =( NAMED_UNIT ( * ) PLANE_ANGLE_UNIT ( ) SI_UNIT ( $, .RADIAN. ) );
#301 = VERTEX_POINT ( 'NONE', #250 ) ;
#302 =( NAMED_UNIT ( * ) SI_UNIT ( $, .STERADIAN. ) SOLID_ANGLE_UNIT ( ) );
#303 = VERTEX_POINT ( 'NONE', #16 ) ;
#304 = LINE ( 'NONE', #30, #8 ) ;
#305 = UNCERTAINTY_MEASURE_WITH_UNIT (LENGTH_MEASURE( 1.000000000000000082E-05 ), #252, 'distance_accuracy_value', 'NONE');
#306 = DIRECTION ( 'NONE',  ( 0.0000000000000000000, 0.0000000000000000000, 1.000000000000000000 ) ) ;
#307 = MANIFOLD_SOLID_BREP ( 'Cut-Revolve4', #76 ) ;
#308 = DIRECTION ( 'NONE',  ( -1.000000000000000000, 0.0000000000000000000, 0.0000000000000000000 ) ) ;
#309 = DIRECTION ( 'NONE',  ( 0.0000000000000000000, 0.0000000000000000000, -1.000000000000000000 ) ) ;
#310 = ORIENTED_EDGE ( 'NONE', *, *, #126, .T. ) ;
#311 = DIRECTION ( 'NONE',  ( -0.7071067811865402453, 0.0000000000000000000, -0.7071067811865546782 ) ) ;
#312 = DIRECTION ( 'NONE',  ( -0.0000000000000000000, -0.0000000000000000000, -1.000000000000000000 ) ) ;
#313 = ORIENTED_EDGE ( 'NONE', *, *, #44, .T. ) ;
#314 = DIRECTION ( 'NONE',  ( -0.0000000000000000000, -0.0000000000000000000, -1.000000000000000000 ) ) ;
#315 = VERTEX_POINT ( 'NONE', #241 ) ;
#316 = CIRCLE ( 'NONE', #88, 0.007499999999999999722 ) ;
#317 = CARTESIAN_POINT ( 'NONE',  ( 0.007499999999999999722, 0.0000000000000000000, 1.707404996040164512E-17 ) ) ;
#318 = ADVANCED_FACE ( 'NONE', ( #67 ), #9, .T. ) ;
#319 = SURFACE_STYLE_USAGE ( .BOTH. , #289 ) ;
#320 = EDGE_LOOP ( 'NONE', ( #146, #33 ) ) ;
#321 = DIRECTION ( 'NONE',  ( -0.0000000000000000000, -0.0000000000000000000, -1.000000000000000000 ) ) ;
#322 = EDGE_CURVE ( 'NONE', #240, #303, #123, .T. ) ;
#323 = VERTEX_POINT ( 'NONE', #36 ) ;
#324 = AXIS2_PLACEMENT_3D ( 'NONE', #167, #165, #294 ) ;
#325 = EDGE_CURVE ( 'NONE', #269, #301, #169, .T. ) ;
#326 = CIRCLE ( 'NONE', #290, 0.2350000000000011524 ) ;
#327 = DIRECTION ( 'NONE',  ( 1.000000000000000000, 0.0000000000000000000, -0.0000000000000000000 ) ) ;
#328 = CIRCLE ( 'NONE', #99, 0.2499500000000000333 ) ;
#329 = ORIENTED_EDGE ( 'NONE', *, *, #98, .F. ) ;
ENDSEC;
END-ISO-10303-21;
