ISO-10303-21;
HEADER;
FILE_DESCRIPTION (( 'STEP AP214' ),
    '1' );
FILE_NAME ('Micro_RSC-375-1.STEP',
    '2021-09-03T17:51:47',
    ( '' ),
    ( '' ),
    'SwSTEP 2.0',
    'SolidWorks 2020',
    '' );
FILE_SCHEMA (( 'AUTOMOTIVE_DESIGN' ));
ENDSEC;

DATA;
#1 = DIRECTION ( 'NONE',  ( 1.000000000000000000, 0.0000000000000000000, 0.0000000000000000000 ) ) ;
#2 = CARTESIAN_POINT ( 'NONE',  ( 0.0000000000000000000, 0.0000000000000000000, 2.500000000000000000 ) ) ;
#3 = PRODUCT_DEFINITION_FORMATION_WITH_SPECIFIED_SOURCE ( 'ANY', '', #216, .NOT_KNOWN. ) ;
#4 = EDGE_LOOP ( 'NONE', ( #156, #86, #13, #208 ) ) ;
#5 = VERTEX_POINT ( 'NONE', #155 ) ;
#6 = ORIENTED_EDGE ( 'NONE', *, *, #125, .F. ) ;
#7 = STYLED_ITEM ( 'NONE', ( #100 ), #67 ) ;
#8 = CARTESIAN_POINT ( 'NONE',  ( 0.0000000000000000000, 0.0000000000000000000, 2.500000000000000000 ) ) ;
#9 = LINE ( 'NONE', #90, #162 ) ;
#10 = CIRCLE ( 'NONE', #85, 0.1875000000000000278 ) ;
#11 = ADVANCED_FACE ( 'NONE', ( #104 ), #169, .T. ) ;
#12 = DIMENSIONAL_EXPONENTS ( 1.000000000000000000, 0.0000000000000000000, 0.0000000000000000000, 0.0000000000000000000, 0.0000000000000000000, 0.0000000000000000000, 0.0000000000000000000 ) ;
#13 = ORIENTED_EDGE ( 'NONE', *, *, #178, .T. ) ;
#14 =( CONVERSION_BASED_UNIT ( 'INCH', #132 ) LENGTH_UNIT ( ) NAMED_UNIT ( #245 ) );
#15 = COLOUR_RGB ( '',0.7921568627450980005, 0.8196078431372548767, 0.9333333333333333481 ) ;
#16 = CARTESIAN_POINT ( 'NONE',  ( 0.0000000000000000000, 0.0000000000000000000, 0.0000000000000000000 ) ) ;
#17 = PRODUCT_DEFINITION ( 'UNKNOWN', '', #3, #246 ) ;
#18 = CARTESIAN_POINT ( 'NONE',  ( 0.0000000000000000000, 0.0000000000000000000, 0.0000000000000000000 ) ) ;
#19 = SURFACE_STYLE_FILL_AREA ( #153 ) ;
#20 = ORIENTED_EDGE ( 'NONE', *, *, #22, .F. ) ;
#21 = CARTESIAN_POINT ( 'NONE',  ( 0.0000000000000000000, 0.0000000000000000000, 2.484999999999999432 ) ) ;
#22 = EDGE_CURVE ( 'NONE', #84, #177, #181, .T. ) ;
#23 = AXIS2_PLACEMENT_3D ( 'NONE', #93, #32, #107 ) ;
#24 = DIRECTION ( 'NONE',  ( -1.000000000000000000, 0.0000000000000000000, 0.0000000000000000000 ) ) ;
#25 = VERTEX_POINT ( 'NONE', #217 ) ;
#26 = ORIENTED_EDGE ( 'NONE', *, *, #83, .F. ) ;
#27 = FACE_OUTER_BOUND ( 'NONE', #4, .T. ) ;
#28 =( NAMED_UNIT ( * ) SI_UNIT ( $, .STERADIAN. ) SOLID_ANGLE_UNIT ( ) );
#29 = ADVANCED_FACE ( 'NONE', ( #174 ), #139, .T. ) ;
#30 = CYLINDRICAL_SURFACE ( 'NONE', #176, 0.1875000000000000278 ) ;
#31 = VECTOR ( 'NONE', #190, 39.37007874015748143 ) ;
#32 = DIRECTION ( 'NONE',  ( 0.0000000000000000000, 0.0000000000000000000, 1.000000000000000000 ) ) ;
#33 = ORIENTED_EDGE ( 'NONE', *, *, #135, .T. ) ;
#34 =( CONVERSION_BASED_UNIT ( 'INCH', #37 ) LENGTH_UNIT ( ) NAMED_UNIT ( #127 ) );
#35 = VECTOR ( 'NONE', #205, 39.37007874015748854 ) ;
#36 = LINE ( 'NONE', #189, #31 ) ;
#37 = LENGTH_MEASURE_WITH_UNIT ( LENGTH_MEASURE( 0.02539999999999999897 ), #225 );
#38 = DIRECTION ( 'NONE',  ( 1.000000000000000000, 0.0000000000000000000, 0.0000000000000000000 ) ) ;
#39 = MECHANICAL_DESIGN_GEOMETRIC_PRESENTATION_REPRESENTATION (  '', ( #102 ), #109 ) ;
#40 = ORIENTED_EDGE ( 'NONE', *, *, #171, .T. ) ;
#41 = ORIENTED_EDGE ( 'NONE', *, *, #197, .F. ) ;
#42 = ORIENTED_EDGE ( 'NONE', *, *, #214, .F. ) ;
#43 = EDGE_CURVE ( 'NONE', #5, #25, #74, .T. ) ;
#44 = CARTESIAN_POINT ( 'NONE',  ( 0.0000000000000000000, 0.0000000000000000000, 0.0000000000000000000 ) ) ;
#45 = DIRECTION ( 'NONE',  ( 1.000000000000000000, 0.0000000000000000000, -0.0000000000000000000 ) ) ;
#46 = CARTESIAN_POINT ( 'NONE',  ( 0.0000000000000000000, 0.0000000000000000000, 0.3178313231888877932 ) ) ;
#47 = FILL_AREA_STYLE ('',( #50 ) ) ;
#48 = ADVANCED_FACE ( 'NONE', ( #232 ), #77, .F. ) ;
#49 = DIRECTION ( 'NONE',  ( -0.0000000000000000000, -0.0000000000000000000, -1.000000000000000000 ) ) ;
#50 = FILL_AREA_STYLE_COLOUR ( '', #15 ) ;
#51 = AXIS2_PLACEMENT_3D ( 'NONE', #21, #157, #65 ) ;
#52 = EDGE_LOOP ( 'NONE', ( #118, #81 ) ) ;
#53 = APPLICATION_CONTEXT ( 'automotive_design' ) ;
#54 = CARTESIAN_POINT ( 'NONE',  ( -0.1875000000000000278, 0.0000000000000000000, 0.3178313231888877932 ) ) ;
#55 =( GEOMETRIC_REPRESENTATION_CONTEXT ( 3 ) GLOBAL_UNCERTAINTY_ASSIGNED_CONTEXT ( ( #87 ) ) GLOBAL_UNIT_ASSIGNED_CONTEXT ( ( #34, #112, #227 ) ) REPRESENTATION_CONTEXT ( 'NONE', 'WORKASPACE' ) );
#56 =( LENGTH_UNIT ( ) NAMED_UNIT ( * ) SI_UNIT ( $, .METRE. ) );
#57 = DIRECTION ( 'NONE',  ( -0.0000000000000000000, -0.0000000000000000000, -1.000000000000000000 ) ) ;
#58 = CLOSED_SHELL ( 'NONE', ( #249, #76, #98, #184, #29, #11, #218, #48 ) ) ;
#59 = SHAPE_DEFINITION_REPRESENTATION ( #140, #67 ) ;
#60 = DIRECTION ( 'NONE',  ( 1.000000000000000000, 0.0000000000000000000, -0.0000000000000000000 ) ) ;
#61 = ORIENTED_EDGE ( 'NONE', *, *, #125, .T. ) ;
#62 = ORIENTED_EDGE ( 'NONE', *, *, #94, .T. ) ;
#63 = CIRCLE ( 'NONE', #23, 0.1724999999999995981 ) ;
#64 =( GEOMETRIC_REPRESENTATION_CONTEXT ( 3 ) GLOBAL_UNCERTAINTY_ASSIGNED_CONTEXT ( ( #211 ) ) GLOBAL_UNIT_ASSIGNED_CONTEXT ( ( #14, #151, #170 ) ) REPRESENTATION_CONTEXT ( 'NONE', 'WORKASPACE' ) );
#65 = DIRECTION ( 'NONE',  ( 1.000000000000000000, 0.0000000000000000000, 0.0000000000000000000 ) ) ;
#66 = CARTESIAN_POINT ( 'NONE',  ( 0.0000000000000000000, 0.0000000000000000000, 2.500000000000000000 ) ) ;
#67 = ADVANCED_BREP_SHAPE_REPRESENTATION ( 'Micro_RSC-375-1', ( #206, #201 ), #55 ) ;
#68 = CARTESIAN_POINT ( 'NONE',  ( 0.003999999999999999216, 0.0000000000000000000, 0.0000000000000000000 ) ) ;
#69 = DIRECTION ( 'NONE',  ( -1.000000000000000000, 0.0000000000000000000, 0.0000000000000000000 ) ) ;
#70 = CIRCLE ( 'NONE', #96, 0.1875000000000000278 ) ;
#71 = DIRECTION ( 'NONE',  ( -0.0000000000000000000, -0.0000000000000000000, -1.000000000000000000 ) ) ;
#72 = CARTESIAN_POINT ( 'NONE',  ( -0.003999999999999999216, 1.172599310183590719E-17, 0.0000000000000000000 ) ) ;
#73 = SURFACE_STYLE_USAGE ( .BOTH. , #239 ) ;
#74 = CIRCLE ( 'NONE', #228, 0.1724999999999995981 ) ;
#75 = CONICAL_SURFACE ( 'NONE', #138, 0.003999999999999999216, 0.5235987755983005920 ) ;
#76 = ADVANCED_FACE ( 'NONE', ( #133 ), #106, .T. ) ;
#77 = PLANE ( 'NONE',  #191 ) ;
#78 = APPLICATION_CONTEXT ( 'automotive_design' ) ;
#79 = AXIS2_PLACEMENT_3D ( 'NONE', #16, #57, #128 ) ;
#80 = ORIENTED_EDGE ( 'NONE', *, *, #22, .T. ) ;
#81 = ORIENTED_EDGE ( 'NONE', *, *, #240, .T. ) ;
#82 = DIRECTION ( 'NONE',  ( 0.0000000000000000000, 0.0000000000000000000, 1.000000000000000000 ) ) ;
#83 = EDGE_CURVE ( 'NONE', #177, #84, #70, .T. ) ;
#84 = VERTEX_POINT ( 'NONE', #111 ) ;
#85 = AXIS2_PLACEMENT_3D ( 'NONE', #46, #89, #69 ) ;
#86 = ORIENTED_EDGE ( 'NONE', *, *, #83, .T. ) ;
#87 = UNCERTAINTY_MEASURE_WITH_UNIT (LENGTH_MEASURE( 1.000000000000000082E-05 ), #34, 'distance_accuracy_value', 'NONE');
#88 = SURFACE_STYLE_FILL_AREA ( #47 ) ;
#89 = DIRECTION ( 'NONE',  ( -0.0000000000000000000, -0.0000000000000000000, -1.000000000000000000 ) ) ;
#90 = CARTESIAN_POINT ( 'NONE',  ( -0.1724999999999995981, 0.0000000000000000000, 2.500000000000000000 ) ) ;
#91 = PRESENTATION_LAYER_ASSIGNMENT (  '', '', ( #7 ) ) ;
#92 = AXIS2_PLACEMENT_3D ( 'NONE', #113, #131, #38 ) ;
#93 = CARTESIAN_POINT ( 'NONE',  ( 0.0000000000000000000, 0.0000000000000000000, 2.500000000000000000 ) ) ;
#94 = EDGE_CURVE ( 'NONE', #25, #5, #63, .T. ) ;
#95 = CARTESIAN_POINT ( 'NONE',  ( 0.1875000000000000278, 2.296212748401287726E-17, 0.3178313231888877932 ) ) ;
#96 = AXIS2_PLACEMENT_3D ( 'NONE', #238, #183, #236 ) ;
#97 = MECHANICAL_DESIGN_GEOMETRIC_PRESENTATION_REPRESENTATION (  '', ( #7 ), #64 ) ;
#98 = ADVANCED_FACE ( 'NONE', ( #185 ), #222, .T. ) ;
#99 = FILL_AREA_STYLE_COLOUR ( '', #230 ) ;
#100 = PRESENTATION_STYLE_ASSIGNMENT (( #229 ) ) ;
#101 = VERTEX_POINT ( 'NONE', #95 ) ;
#102 = STYLED_ITEM ( 'NONE', ( #146 ), #206 ) ;
#103 = ORIENTED_EDGE ( 'NONE', *, *, #135, .F. ) ;
#104 = FACE_OUTER_BOUND ( 'NONE', #234, .T. ) ;
#105 = VERTEX_POINT ( 'NONE', #72 ) ;
#106 = CONICAL_SURFACE ( 'NONE', #247, 0.1724999999999995981, 0.7853981633974357335 ) ;
#107 = DIRECTION ( 'NONE',  ( 1.000000000000000000, 0.0000000000000000000, 0.0000000000000000000 ) ) ;
#108 = LINE ( 'NONE', #186, #35 ) ;
#109 =( GEOMETRIC_REPRESENTATION_CONTEXT ( 3 ) GLOBAL_UNCERTAINTY_ASSIGNED_CONTEXT ( ( #116 ) ) GLOBAL_UNIT_ASSIGNED_CONTEXT ( ( #160, #123, #28 ) ) REPRESENTATION_CONTEXT ( 'NONE', 'WORKASPACE' ) );
#110 = ORIENTED_EDGE ( 'NONE', *, *, #43, .T. ) ;
#111 = CARTESIAN_POINT ( 'NONE',  ( -0.1875000000000000278, 0.0000000000000000000, 2.484999999999999432 ) ) ;
#112 =( NAMED_UNIT ( * ) PLANE_ANGLE_UNIT ( ) SI_UNIT ( $, .RADIAN. ) );
#113 = CARTESIAN_POINT ( 'NONE',  ( 0.0000000000000000000, 0.0000000000000000000, 0.0000000000000000000 ) ) ;
#114 = DIRECTION ( 'NONE',  ( -0.0000000000000000000, -0.0000000000000000000, -1.000000000000000000 ) ) ;
#115 = VERTEX_POINT ( 'NONE', #68 ) ;
#116 = UNCERTAINTY_MEASURE_WITH_UNIT (LENGTH_MEASURE( 1.000000000000000082E-05 ), #160, 'distance_accuracy_value', 'NONE');
#117 = DIRECTION ( 'NONE',  ( -1.000000000000000000, 0.0000000000000000000, 0.0000000000000000000 ) ) ;
#118 = ORIENTED_EDGE ( 'NONE', *, *, #214, .T. ) ;
#119 = ORIENTED_EDGE ( 'NONE', *, *, #171, .F. ) ;
#120 = CARTESIAN_POINT ( 'NONE',  ( 0.0000000000000000000, 0.0000000000000000000, 2.500000000000000000 ) ) ;
#121 = DIRECTION ( 'NONE',  ( -0.0000000000000000000, -0.0000000000000000000, -1.000000000000000000 ) ) ;
#122 = AXIS2_PLACEMENT_3D ( 'NONE', #161, #49, #144 ) ;
#123 =( NAMED_UNIT ( * ) PLANE_ANGLE_UNIT ( ) SI_UNIT ( $, .RADIAN. ) );
#124 = CARTESIAN_POINT ( 'NONE',  ( 0.1875000000000000278, 2.296212748401287726E-17, 2.484999999999999432 ) ) ;
#125 = EDGE_CURVE ( 'NONE', #105, #233, #166, .T. ) ;
#126 = DIRECTION ( 'NONE',  ( -0.5000000000000013323, 6.123233995736782060E-17, 0.8660254037844377084 ) ) ;
#127 = DIMENSIONAL_EXPONENTS ( 1.000000000000000000, 0.0000000000000000000, 0.0000000000000000000, 0.0000000000000000000, 0.0000000000000000000, 0.0000000000000000000, 0.0000000000000000000 ) ;
#128 = DIRECTION ( 'NONE',  ( -1.000000000000000000, 0.0000000000000000000, 0.0000000000000000000 ) ) ;
#129 = APPLICATION_PROTOCOL_DEFINITION ( 'draft international standard', 'automotive_design', 1998, #53 ) ;
#130 = EDGE_CURVE ( 'NONE', #5, #84, #9, .T. ) ;
#131 = DIRECTION ( 'NONE',  ( 0.0000000000000000000, 0.0000000000000000000, 1.000000000000000000 ) ) ;
#132 = LENGTH_MEASURE_WITH_UNIT ( LENGTH_MEASURE( 0.02539999999999999897 ), #56 );
#133 = FACE_OUTER_BOUND ( 'NONE', #136, .T. ) ;
#134 = PRODUCT_CONTEXT ( 'NONE', #53, 'mechanical' ) ;
#135 = EDGE_CURVE ( 'NONE', #233, #101, #10, .T. ) ;
#136 = EDGE_LOOP ( 'NONE', ( #167, #40, #20, #137 ) ) ;
#137 = ORIENTED_EDGE ( 'NONE', *, *, #130, .F. ) ;
#138 = AXIS2_PLACEMENT_3D ( 'NONE', #18, #244, #152 ) ;
#139 = PLANE ( 'NONE',  #149 ) ;
#140 = PRODUCT_DEFINITION_SHAPE ( 'NONE', 'NONE',  #17 ) ;
#141 = DIRECTION ( 'NONE',  ( 0.0000000000000000000, 0.0000000000000000000, 1.000000000000000000 ) ) ;
#142 = CARTESIAN_POINT ( 'NONE',  ( 0.1724999999999995981, 2.112515728529179297E-17, 2.500000000000000000 ) ) ;
#143 = CIRCLE ( 'NONE', #122, 0.1875000000000000278 ) ;
#144 = DIRECTION ( 'NONE',  ( -1.000000000000000000, 0.0000000000000000000, 0.0000000000000000000 ) ) ;
#145 = DIRECTION ( 'NONE',  ( -1.000000000000000000, 0.0000000000000000000, 0.0000000000000000000 ) ) ;
#146 = PRESENTATION_STYLE_ASSIGNMENT (( #73 ) ) ;
#147 = EDGE_LOOP ( 'NONE', ( #235, #61, #33, #41 ) ) ;
#148 =( LENGTH_UNIT ( ) NAMED_UNIT ( * ) SI_UNIT ( $, .METRE. ) );
#149 = AXIS2_PLACEMENT_3D ( 'NONE', #215, #175, #45 ) ;
#150 = CONICAL_SURFACE ( 'NONE', #92, 0.003999999999999999216, 0.5235987755983005920 ) ;
#151 =( NAMED_UNIT ( * ) PLANE_ANGLE_UNIT ( ) SI_UNIT ( $, .RADIAN. ) );
#152 = DIRECTION ( 'NONE',  ( 1.000000000000000000, 0.0000000000000000000, 0.0000000000000000000 ) ) ;
#153 = FILL_AREA_STYLE ('',( #99 ) ) ;
#154 = CARTESIAN_POINT ( 'NONE',  ( 0.0000000000000000000, 0.0000000000000000000, 0.0000000000000000000 ) ) ;
#155 = CARTESIAN_POINT ( 'NONE',  ( -0.1724999999999995981, 0.0000000000000000000, 2.500000000000000000 ) ) ;
#156 = ORIENTED_EDGE ( 'NONE', *, *, #223, .F. ) ;
#157 = DIRECTION ( 'NONE',  ( 0.0000000000000000000, 0.0000000000000000000, -1.000000000000000000 ) ) ;
#158 = EDGE_CURVE ( 'NONE', #101, #233, #143, .T. ) ;
#159 = EDGE_LOOP ( 'NONE', ( #6, #42, #213, #193 ) ) ;
#160 =( CONVERSION_BASED_UNIT ( 'INCH', #182 ) LENGTH_UNIT ( ) NAMED_UNIT ( #12 ) );
#161 = CARTESIAN_POINT ( 'NONE',  ( 0.0000000000000000000, 0.0000000000000000000, 0.3178313231888877932 ) ) ;
#162 = VECTOR ( 'NONE', #202, 39.37007874015748854 ) ;
#163 = CIRCLE ( 'NONE', #79, 0.003999999999999999216 ) ;
#164 = CARTESIAN_POINT ( 'NONE',  ( 0.0000000000000000000, 0.0000000000000000000, 2.500000000000000000 ) ) ;
#165 = CARTESIAN_POINT ( 'NONE',  ( -0.003999999999999999216, 4.898587196589411612E-19, 0.0000000000000000000 ) ) ;
#166 = LINE ( 'NONE', #165, #210 ) ;
#167 = ORIENTED_EDGE ( 'NONE', *, *, #94, .F. ) ;
#168 = FACE_OUTER_BOUND ( 'NONE', #159, .T. ) ;
#169 = CONICAL_SURFACE ( 'NONE', #200, 0.1724999999999995981, 0.7853981633974357335 ) ;
#170 =( NAMED_UNIT ( * ) SI_UNIT ( $, .STERADIAN. ) SOLID_ANGLE_UNIT ( ) );
#171 = EDGE_CURVE ( 'NONE', #25, #177, #221, .T. ) ;
#172 = PRODUCT_RELATED_PRODUCT_CATEGORY ( 'part', '', ( #216 ) ) ;
#173 = APPLICATION_PROTOCOL_DEFINITION ( 'draft international standard', 'automotive_design', 1998, #78 ) ;
#174 = FACE_OUTER_BOUND ( 'NONE', #226, .T. ) ;
#175 = DIRECTION ( 'NONE',  ( 0.0000000000000000000, 0.0000000000000000000, 1.000000000000000000 ) ) ;
#176 = AXIS2_PLACEMENT_3D ( 'NONE', #164, #121, #187 ) ;
#177 = VERTEX_POINT ( 'NONE', #124 ) ;
#178 = EDGE_CURVE ( 'NONE', #84, #233, #204, .T. ) ;
#179 = DIRECTION ( 'NONE',  ( 0.0000000000000000000, 0.0000000000000000000, -1.000000000000000000 ) ) ;
#180 = ORIENTED_EDGE ( 'NONE', *, *, #178, .F. ) ;
#181 = CIRCLE ( 'NONE', #51, 0.1875000000000000278 ) ;
#182 = LENGTH_MEASURE_WITH_UNIT ( LENGTH_MEASURE( 0.02539999999999999897 ), #148 );
#183 = DIRECTION ( 'NONE',  ( 0.0000000000000000000, 0.0000000000000000000, -1.000000000000000000 ) ) ;
#184 = ADVANCED_FACE ( 'NONE', ( #27 ), #30, .T. ) ;
#185 = FACE_OUTER_BOUND ( 'NONE', #242, .T. ) ;
#186 = CARTESIAN_POINT ( 'NONE',  ( 0.003999999999999999216, 0.0000000000000000000, 0.0000000000000000000 ) ) ;
#187 = DIRECTION ( 'NONE',  ( -1.000000000000000000, 0.0000000000000000000, 0.0000000000000000000 ) ) ;
#188 = VECTOR ( 'NONE', #219, 39.37007874015748854 ) ;
#189 = CARTESIAN_POINT ( 'NONE',  ( 0.1875000000000000278, 2.296212748401287726E-17, 2.500000000000000000 ) ) ;
#190 = DIRECTION ( 'NONE',  ( -0.0000000000000000000, -0.0000000000000000000, -1.000000000000000000 ) ) ;
#191 = AXIS2_PLACEMENT_3D ( 'NONE', #154, #231, #60 ) ;
#192 = CIRCLE ( 'NONE', #248, 0.003999999999999999216 ) ;
#193 = ORIENTED_EDGE ( 'NONE', *, *, #158, .T. ) ;
#194 = ORIENTED_EDGE ( 'NONE', *, *, #223, .T. ) ;
#195 = DIRECTION ( 'NONE',  ( 0.0000000000000000000, 0.0000000000000000000, -1.000000000000000000 ) ) ;
#196 = ORIENTED_EDGE ( 'NONE', *, *, #43, .F. ) ;
#197 = EDGE_CURVE ( 'NONE', #115, #101, #108, .T. ) ;
#198 = DIRECTION ( 'NONE',  ( 1.000000000000000000, 0.0000000000000000000, 0.0000000000000000000 ) ) ;
#199 = ORIENTED_EDGE ( 'NONE', *, *, #130, .T. ) ;
#200 = AXIS2_PLACEMENT_3D ( 'NONE', #66, #179, #117 ) ;
#201 = AXIS2_PLACEMENT_3D ( 'NONE', #44, #82, #198 ) ;
#202 = DIRECTION ( 'NONE',  ( -0.7071067811865385799, 0.0000000000000000000, -0.7071067811865563435 ) ) ;
#203 = DIRECTION ( 'NONE',  ( -0.0000000000000000000, -0.0000000000000000000, -1.000000000000000000 ) ) ;
#204 = LINE ( 'NONE', #241, #220 ) ;
#205 = DIRECTION ( 'NONE',  ( 0.5000000000000013323, 0.0000000000000000000, 0.8660254037844377084 ) ) ;
#206 = MANIFOLD_SOLID_BREP ( 'Cut-Revolve1', #58 ) ;
#207 = SURFACE_SIDE_STYLE ('',( #19 ) ) ;
#208 = ORIENTED_EDGE ( 'NONE', *, *, #158, .F. ) ;
#209 = DIRECTION ( 'NONE',  ( -1.000000000000000000, 0.0000000000000000000, 0.0000000000000000000 ) ) ;
#210 = VECTOR ( 'NONE', #126, 39.37007874015748854 ) ;
#211 = UNCERTAINTY_MEASURE_WITH_UNIT (LENGTH_MEASURE( 1.000000000000000082E-05 ), #14, 'distance_accuracy_value', 'NONE');
#212 = FACE_OUTER_BOUND ( 'NONE', #147, .T. ) ;
#213 = ORIENTED_EDGE ( 'NONE', *, *, #197, .T. ) ;
#214 = EDGE_CURVE ( 'NONE', #115, #105, #192, .T. ) ;
#215 = CARTESIAN_POINT ( 'NONE',  ( 0.0000000000000000000, 0.0000000000000000000, 2.500000000000000000 ) ) ;
#216 = PRODUCT ( 'Micro_RSC-375-1', 'Micro_RSC-375-1', '', ( #134 ) ) ;
#217 = CARTESIAN_POINT ( 'NONE',  ( 0.1724999999999995981, 2.204364238465233357E-17, 2.500000000000000000 ) ) ;
#218 = ADVANCED_FACE ( 'NONE', ( #168 ), #75, .T. ) ;
#219 = DIRECTION ( 'NONE',  ( 0.7071067811865385799, 8.659560562354823157E-17, -0.7071067811865563435 ) ) ;
#220 = VECTOR ( 'NONE', #71, 39.37007874015748143 ) ;
#221 = LINE ( 'NONE', #142, #188 ) ;
#222 = CYLINDRICAL_SURFACE ( 'NONE', #243, 0.1875000000000000278 ) ;
#223 = EDGE_CURVE ( 'NONE', #177, #101, #36, .T. ) ;
#224 = CARTESIAN_POINT ( 'NONE',  ( 0.0000000000000000000, 0.0000000000000000000, 0.0000000000000000000 ) ) ;
#225 =( LENGTH_UNIT ( ) NAMED_UNIT ( * ) SI_UNIT ( $, .METRE. ) );
#226 = EDGE_LOOP ( 'NONE', ( #110, #62 ) ) ;
#227 =( NAMED_UNIT ( * ) SI_UNIT ( $, .STERADIAN. ) SOLID_ANGLE_UNIT ( ) );
#228 = AXIS2_PLACEMENT_3D ( 'NONE', #120, #141, #1 ) ;
#229 = SURFACE_STYLE_USAGE ( .BOTH. , #207 ) ;
#230 = COLOUR_RGB ( '',0.7921568627450980005, 0.8196078431372548767, 0.9333333333333333481 ) ;
#231 = DIRECTION ( 'NONE',  ( 0.0000000000000000000, 0.0000000000000000000, 1.000000000000000000 ) ) ;
#232 = FACE_OUTER_BOUND ( 'NONE', #52, .T. ) ;
#233 = VERTEX_POINT ( 'NONE', #54 ) ;
#234 = EDGE_LOOP ( 'NONE', ( #119, #196, #199, #26 ) ) ;
#235 = ORIENTED_EDGE ( 'NONE', *, *, #240, .F. ) ;
#236 = DIRECTION ( 'NONE',  ( 1.000000000000000000, 0.0000000000000000000, 0.0000000000000000000 ) ) ;
#237 = PRESENTATION_LAYER_ASSIGNMENT (  '', '', ( #102 ) ) ;
#238 = CARTESIAN_POINT ( 'NONE',  ( 0.0000000000000000000, 0.0000000000000000000, 2.484999999999999432 ) ) ;
#239 = SURFACE_SIDE_STYLE ('',( #88 ) ) ;
#240 = EDGE_CURVE ( 'NONE', #105, #115, #163, .T. ) ;
#241 = CARTESIAN_POINT ( 'NONE',  ( -0.1875000000000000278, 0.0000000000000000000, 2.500000000000000000 ) ) ;
#242 = EDGE_LOOP ( 'NONE', ( #80, #194, #103, #180 ) ) ;
#243 = AXIS2_PLACEMENT_3D ( 'NONE', #8, #203, #145 ) ;
#244 = DIRECTION ( 'NONE',  ( 0.0000000000000000000, 0.0000000000000000000, 1.000000000000000000 ) ) ;
#245 = DIMENSIONAL_EXPONENTS ( 1.000000000000000000, 0.0000000000000000000, 0.0000000000000000000, 0.0000000000000000000, 0.0000000000000000000, 0.0000000000000000000, 0.0000000000000000000 ) ;
#246 = PRODUCT_DEFINITION_CONTEXT ( 'detailed design', #78, 'design' ) ;
#247 = AXIS2_PLACEMENT_3D ( 'NONE', #2, #195, #24 ) ;
#248 = AXIS2_PLACEMENT_3D ( 'NONE', #224, #114, #209 ) ;
#249 = ADVANCED_FACE ( 'NONE', ( #212 ), #150, .T. ) ;
ENDSEC;
END-ISO-10303-21;
