ISO-10303-21;
HEADER;
FILE_DESCRIPTION (( 'STEP AP214' ),
    '1' );
FILE_NAME ('05397.STEP',
    '2023-06-22T16:05:37',
    ( '' ),
    ( '' ),
    'SwSTEP 2.0',
    'SolidWorks 2023',
    '' );
FILE_SCHEMA (( 'AUTOMOTIVE_DESIGN' ));
ENDSEC;

DATA;
#1 = DIRECTION ( 'NONE',  ( -0.000000000000000000, -1.000000000000000000, -0.000000000000000000 ) ) ;
#2 = SURFACE_STYLE_FILL_AREA ( #268 ) ;
#3 = LINE ( 'NONE', #24, #185 ) ;
#4 = SURFACE_STYLE_FILL_AREA ( #287 ) ;
#5 = ORIENTED_EDGE ( 'NONE', *, *, #228, .F. ) ;
#6 = AXIS2_PLACEMENT_3D ( 'NONE', #67, #51, #47 ) ;
#7 = STYLED_ITEM ( 'NONE', ( #65 ), #267 ) ;
#8 = ORIENTED_EDGE ( 'NONE', *, *, #193, .T. ) ;
#9 =( LENGTH_UNIT ( ) NAMED_UNIT ( * ) SI_UNIT ( $, .METRE. ) );
#10 = CARTESIAN_POINT ( 'NONE',  ( 2.678914873134835064E-17, 0.5625000000000001110, 0.2187500000000000000 ) ) ;
#11 = UNCERTAINTY_MEASURE_WITH_UNIT (LENGTH_MEASURE( 1.000000000000000082E-05 ), #157, 'distance_accuracy_value', 'NONE');
#12 = AXIS2_PLACEMENT_3D ( 'NONE', #229, #120, #209 ) ;
#13 = VECTOR ( 'NONE', #50, 39.37007874015748143 ) ;
#14 = DIRECTION ( 'NONE',  ( 0.000000000000000000, 0.000000000000000000, -1.000000000000000000 ) ) ;
#15 = CYLINDRICAL_SURFACE ( 'NONE', #25, 0.2187499999999998612 ) ;
#16 = LENGTH_MEASURE_WITH_UNIT ( LENGTH_MEASURE( 0.02539999999999999897 ), #9 );
#17 = EDGE_LOOP ( 'NONE', ( #156, #38 ) ) ;
#18 = SURFACE_STYLE_USAGE ( .BOTH. , #208 ) ;
#19 = MECHANICAL_DESIGN_GEOMETRIC_PRESENTATION_REPRESENTATION (  '', ( #245 ), #86 ) ;
#20 = CIRCLE ( 'NONE', #223, 0.2187500000000000000 ) ;
#21 =( LENGTH_UNIT ( ) NAMED_UNIT ( * ) SI_UNIT ( $, .METRE. ) );
#22 = DIRECTION ( 'NONE',  ( 0.000000000000000000, -1.000000000000000000, -0.000000000000000000 ) ) ;
#23 = ORIENTED_EDGE ( 'NONE', *, *, #88, .T. ) ;
#24 = CARTESIAN_POINT ( 'NONE',  ( 2.678914873134835064E-17, 0.000000000000000000, 0.2187500000000000000 ) ) ;
#25 = AXIS2_PLACEMENT_3D ( 'NONE', #179, #271, #272 ) ;
#26 = PRODUCT_DEFINITION_FORMATION_WITH_SPECIFIED_SOURCE ( 'ANY', '', #251, .NOT_KNOWN. ) ;
#27 = DIRECTION ( 'NONE',  ( 0.000000000000000000, 0.000000000000000000, -1.000000000000000000 ) ) ;
#28 = PRODUCT_CONTEXT ( 'NONE', #75, 'mechanical' ) ;
#29 = PRESENTATION_STYLE_ASSIGNMENT (( #242 ) ) ;
#30 = CARTESIAN_POINT ( 'NONE',  ( -0.2187500000000000000, 0.5625000000000001110, 0.000000000000000000 ) ) ;
#31 = EDGE_LOOP ( 'NONE', ( #83, #33, #8, #5 ) ) ;
#32 = DIRECTION ( 'NONE',  ( 1.259636707694420928E-16, 1.000000000000000000, -0.000000000000000000 ) ) ;
#33 = ORIENTED_EDGE ( 'NONE', *, *, #117, .T. ) ;
#34 = VERTEX_POINT ( 'NONE', #53 ) ;
#35 =( NAMED_UNIT ( * ) SI_UNIT ( $, .STERADIAN. ) SOLID_ANGLE_UNIT ( ) );
#36 = MECHANICAL_DESIGN_GEOMETRIC_PRESENTATION_REPRESENTATION (  '', ( #158 ), #108 ) ;
#37 =( GEOMETRIC_REPRESENTATION_CONTEXT ( 3 ) GLOBAL_UNCERTAINTY_ASSIGNED_CONTEXT ( ( #178 ) ) GLOBAL_UNIT_ASSIGNED_CONTEXT ( ( #62, #269, #227 ) ) REPRESENTATION_CONTEXT ( 'NONE', 'WORKASPACE' ) );
#38 = ORIENTED_EDGE ( 'NONE', *, *, #278, .F. ) ;
#39 = DIRECTION ( 'NONE',  ( 1.259636707694420928E-16, 1.000000000000000000, -0.000000000000000000 ) ) ;
#40 = ADVANCED_FACE ( 'NONE', ( #220 ), #80, .T. ) ;
#41 = FACE_OUTER_BOUND ( 'NONE', #81, .T. ) ;
#42 = DIRECTION ( 'NONE',  ( 1.259636707694420928E-16, 1.000000000000000000, -0.000000000000000000 ) ) ;
#43 = STYLED_ITEM ( 'NONE', ( #82 ), #177 ) ;
#44 = EDGE_LOOP ( 'NONE', ( #131, #56 ) ) ;
#45 = SURFACE_STYLE_FILL_AREA ( #119 ) ;
#46 = DIRECTION ( 'NONE',  ( 1.000000000000000000, 0.000000000000000000, 0.000000000000000000 ) ) ;
#47 = DIRECTION ( 'NONE',  ( 0.000000000000000000, 0.000000000000000000, -1.000000000000000000 ) ) ;
#48 = AXIS2_PLACEMENT_3D ( 'NONE', #298, #256, #46 ) ;
#49 = APPLICATION_CONTEXT ( 'automotive_design' ) ;
#50 = DIRECTION ( 'NONE',  ( 1.259636707694420928E-16, 1.000000000000000000, -0.000000000000000000 ) ) ;
#51 = DIRECTION ( 'NONE',  ( -0.000000000000000000, -1.000000000000000000, -0.000000000000000000 ) ) ;
#52 = ADVANCED_FACE ( 'NONE', ( #165 ), #295, .T. ) ;
#53 = CARTESIAN_POINT ( 'NONE',  ( 0.000000000000000000, 0.5625000000000001110, -0.2187500000000000000 ) ) ;
#54 = CARTESIAN_POINT ( 'NONE',  ( 0.000000000000000000, 0.000000000000000000, -0.2187500000000000000 ) ) ;
#55 =( NAMED_UNIT ( * ) PLANE_ANGLE_UNIT ( ) SI_UNIT ( $, .RADIAN. ) );
#56 = ORIENTED_EDGE ( 'NONE', *, *, #117, .F. ) ;
#57 = DIRECTION ( 'NONE',  ( 1.259636707694420928E-16, 1.000000000000000000, -0.000000000000000000 ) ) ;
#58 = VECTOR ( 'NONE', #1, 39.37007874015748143 ) ;
#59 =( LENGTH_UNIT ( ) NAMED_UNIT ( * ) SI_UNIT ( $, .METRE. ) );
#60 = UNCERTAINTY_MEASURE_WITH_UNIT (LENGTH_MEASURE( 1.000000000000000082E-05 ), #275, 'distance_accuracy_value', 'NONE');
#61 =( GEOMETRIC_REPRESENTATION_CONTEXT ( 3 ) GLOBAL_UNCERTAINTY_ASSIGNED_CONTEXT ( ( #225 ) ) GLOBAL_UNIT_ASSIGNED_CONTEXT ( ( #291, #253, #115 ) ) REPRESENTATION_CONTEXT ( 'NONE', 'WORKASPACE' ) );
#62 =( CONVERSION_BASED_UNIT ( 'INCH', #109 ) LENGTH_UNIT ( ) NAMED_UNIT ( #234 ) );
#63 = ORIENTED_EDGE ( 'NONE', *, *, #278, .T. ) ;
#64 = VERTEX_POINT ( 'NONE', #30 ) ;
#65 = PRESENTATION_STYLE_ASSIGNMENT (( #126 ) ) ;
#66 = PRODUCT_RELATED_PRODUCT_CATEGORY ( 'part', '', ( #251 ) ) ;
#67 = CARTESIAN_POINT ( 'NONE',  ( 0.000000000000000000, 0.000000000000000000, 0.000000000000000000 ) ) ;
#68 = MANIFOLD_SOLID_BREP ( 'Revolve - Tool Body (Straight Shanked)', #190 ) ;
#69 = CIRCLE ( 'NONE', #191, 0.2187499999999997224 ) ;
#70 = EDGE_LOOP ( 'NONE', ( #174, #63, #138, #296 ) ) ;
#71 = PLANE ( 'NONE',  #12 ) ;
#72 = EDGE_CURVE ( 'NONE', #137, #284, #79, .T. ) ;
#73 = PRESENTATION_LAYER_ASSIGNMENT (  '', '', ( #43 ) ) ;
#74 = CARTESIAN_POINT ( 'NONE',  ( 0.000000000000000000, 0.000000000000000000, 0.000000000000000000 ) ) ;
#75 = APPLICATION_CONTEXT ( 'automotive_design' ) ;
#76 = SURFACE_SIDE_STYLE ('',( #4 ) ) ;
#77 = LENGTH_MEASURE_WITH_UNIT ( LENGTH_MEASURE( 0.02539999999999999897 ), #21 );
#78 = FILL_AREA_STYLE_COLOUR ( '', #262 ) ;
#79 = CIRCLE ( 'NONE', #232, 0.2187500000000000000 ) ;
#80 = CYLINDRICAL_SURFACE ( 'NONE', #184, 0.2187500000000000000 ) ;
#81 = EDGE_LOOP ( 'NONE', ( #23, #133, #293, #135 ) ) ;
#82 = PRESENTATION_STYLE_ASSIGNMENT (( #171 ) ) ;
#83 = ORIENTED_EDGE ( 'NONE', *, *, #219, .F. ) ;
#84 = CARTESIAN_POINT ( 'NONE',  ( -6.065921084684207584E-32, 0.5625000000000001110, 0.000000000000000000 ) ) ;
#85 =( NAMED_UNIT ( * ) PLANE_ANGLE_UNIT ( ) SI_UNIT ( $, .RADIAN. ) );
#86 =( GEOMETRIC_REPRESENTATION_CONTEXT ( 3 ) GLOBAL_UNCERTAINTY_ASSIGNED_CONTEXT ( ( #136 ) ) GLOBAL_UNIT_ASSIGNED_CONTEXT ( ( #183, #247, #106 ) ) REPRESENTATION_CONTEXT ( 'NONE', 'WORKASPACE' ) );
#87 =( LENGTH_UNIT ( ) NAMED_UNIT ( * ) SI_UNIT ( $, .METRE. ) );
#88 = EDGE_CURVE ( 'NONE', #64, #169, #154, .T. ) ;
#89 = ORIENTED_EDGE ( 'NONE', *, *, #210, .T. ) ;
#90 = COLOUR_RGB ( '',1.000000000000000000, 0.000000000000000000, 0.000000000000000000 ) ;
#91 = AXIS2_PLACEMENT_3D ( 'NONE', #282, #130, #196 ) ;
#92 = SURFACE_SIDE_STYLE ('',( #186 ) ) ;
#93 = ADVANCED_FACE ( 'NONE', ( #41 ), #15, .T. ) ;
#94 = FACE_OUTER_BOUND ( 'NONE', #276, .T. ) ;
#95 = PRESENTATION_LAYER_ASSIGNMENT (  '', '', ( #158 ) ) ;
#96 = PRESENTATION_LAYER_ASSIGNMENT (  '', '', ( #7 ) ) ;
#97 = DIRECTION ( 'NONE',  ( 1.259636707694420928E-16, 1.000000000000000000, -0.000000000000000000 ) ) ;
#98 = ADVANCED_FACE ( 'NONE', ( #270 ), #182, .T. ) ;
#99 = LENGTH_MEASURE_WITH_UNIT ( LENGTH_MEASURE( 0.02539999999999999897 ), #221 );
#100 = AXIS2_PLACEMENT_3D ( 'NONE', #139, #257, #153 ) ;
#101 = AXIS2_PLACEMENT_3D ( 'NONE', #213, #22, #124 ) ;
#102 = SURFACE_STYLE_USAGE ( .BOTH. , #308 ) ;
#103 = PLANE ( 'NONE',  #301 ) ;
#104 = CARTESIAN_POINT ( 'NONE',  ( 0.000000000000000000, 0.000000000000000000, -0.2187500000000000000 ) ) ;
#105 = FILL_AREA_STYLE ('',( #151 ) ) ;
#106 =( NAMED_UNIT ( * ) SI_UNIT ( $, .STERADIAN. ) SOLID_ANGLE_UNIT ( ) );
#107 = ADVANCED_FACE ( 'NONE', ( #128 ), #103, .T. ) ;
#108 =( GEOMETRIC_REPRESENTATION_CONTEXT ( 3 ) GLOBAL_UNCERTAINTY_ASSIGNED_CONTEXT ( ( #250 ) ) GLOBAL_UNIT_ASSIGNED_CONTEXT ( ( #192, #55, #205 ) ) REPRESENTATION_CONTEXT ( 'NONE', 'WORKASPACE' ) );
#109 = LENGTH_MEASURE_WITH_UNIT ( LENGTH_MEASURE( 0.02539999999999999897 ), #87 );
#110 =( NAMED_UNIT ( * ) SI_UNIT ( $, .STERADIAN. ) SOLID_ANGLE_UNIT ( ) );
#111 = CARTESIAN_POINT ( 'NONE',  ( 0.000000000000000000, 0.5625000000000001110, 0.000000000000000000 ) ) ;
#112 =( LENGTH_UNIT ( ) NAMED_UNIT ( * ) SI_UNIT ( $, .METRE. ) );
#113 = FILL_AREA_STYLE_COLOUR ( '', #211 ) ;
#114 = CLOSED_SHELL ( 'NONE', ( #40, #107, #98, #267 ) ) ;
#115 =( NAMED_UNIT ( * ) SI_UNIT ( $, .STERADIAN. ) SOLID_ANGLE_UNIT ( ) );
#116 = PRESENTATION_STYLE_ASSIGNMENT (( #18 ) ) ;
#117 = EDGE_CURVE ( 'NONE', #169, #64, #259, .T. ) ;
#118 = APPLICATION_PROTOCOL_DEFINITION ( 'draft international standard', 'automotive_design', 1998, #75 ) ;
#119 = FILL_AREA_STYLE ('',( #113 ) ) ;
#120 = DIRECTION ( 'NONE',  ( -1.259636707694420928E-16, -1.000000000000000000, 0.000000000000000000 ) ) ;
#121 = CARTESIAN_POINT ( 'NONE',  ( 0.2187499999999999445, 2.750000000000000000, 2.678914873134834139E-17 ) ) ;
#122 = DIRECTION ( 'NONE',  ( 0.000000000000000000, 0.000000000000000000, -1.000000000000000000 ) ) ;
#123 =( GEOMETRIC_REPRESENTATION_CONTEXT ( 3 ) GLOBAL_UNCERTAINTY_ASSIGNED_CONTEXT ( ( #60 ) ) GLOBAL_UNIT_ASSIGNED_CONTEXT ( ( #275, #236, #110 ) ) REPRESENTATION_CONTEXT ( 'NONE', 'WORKASPACE' ) );
#124 = DIRECTION ( 'NONE',  ( 0.000000000000000000, 0.000000000000000000, -1.000000000000000000 ) ) ;
#125 = CARTESIAN_POINT ( 'NONE',  ( 0.000000000000000000, 0.000000000000000000, 0.000000000000000000 ) ) ;
#126 = SURFACE_STYLE_USAGE ( .BOTH. , #92 ) ;
#127 = DIRECTION ( 'NONE',  ( -1.000000000000000000, 1.259636707694420928E-16, 0.000000000000000000 ) ) ;
#128 = FACE_OUTER_BOUND ( 'NONE', #17, .T. ) ;
#129 = AXIS2_PLACEMENT_3D ( 'NONE', #147, #57, #246 ) ;
#130 = DIRECTION ( 'NONE',  ( 1.259636707694420928E-16, 1.000000000000000000, -0.000000000000000000 ) ) ;
#131 = ORIENTED_EDGE ( 'NONE', *, *, #88, .F. ) ;
#132 = ORIENTED_EDGE ( 'NONE', *, *, #285, .T. ) ;
#133 = ORIENTED_EDGE ( 'NONE', *, *, #219, .T. ) ;
#134 = CARTESIAN_POINT ( 'NONE',  ( -0.2187499999999995837, 2.750000000000000000, 0.000000000000000000 ) ) ;
#135 = ORIENTED_EDGE ( 'NONE', *, *, #193, .F. ) ;
#136 = UNCERTAINTY_MEASURE_WITH_UNIT (LENGTH_MEASURE( 1.000000000000000082E-05 ), #183, 'distance_accuracy_value', 'NONE');
#137 = VERTEX_POINT ( 'NONE', #260 ) ;
#138 = ORIENTED_EDGE ( 'NONE', *, *, #160, .T. ) ;
#139 = CARTESIAN_POINT ( 'NONE',  ( -6.065921084684207584E-32, 0.5625000000000001110, 0.000000000000000000 ) ) ;
#140 = MECHANICAL_DESIGN_GEOMETRIC_PRESENTATION_REPRESENTATION (  '', ( #43 ), #168 ) ;
#141 = SURFACE_SIDE_STYLE ('',( #265 ) ) ;
#142 = CARTESIAN_POINT ( 'NONE',  ( 0.2187500000000001388, 2.750000000000000000, 2.678914873134833215E-17 ) ) ;
#143 = MECHANICAL_DESIGN_GEOMETRIC_PRESENTATION_REPRESENTATION (  '', ( #297 ), #299 ) ;
#144 = CARTESIAN_POINT ( 'NONE',  ( -0.2187499999999994449, 2.750000000000000000, 0.000000000000000000 ) ) ;
#145 = CARTESIAN_POINT ( 'NONE',  ( 1.735436319937293753E-33, 0.5625000000000001110, 0.000000000000000000 ) ) ;
#146 = AXIS2_PLACEMENT_3D ( 'NONE', #84, #39, #279 ) ;
#147 = CARTESIAN_POINT ( 'NONE',  ( 2.755455298081544778E-16, 2.750000000000000000, 0.000000000000000000 ) ) ;
#148 = EDGE_LOOP ( 'NONE', ( #89, #264, #195, #230 ) ) ;
#149 =( NAMED_UNIT ( * ) PLANE_ANGLE_UNIT ( ) SI_UNIT ( $, .RADIAN. ) );
#150 = ADVANCED_FACE ( 'NONE', ( #94 ), #71, .F. ) ;
#151 = FILL_AREA_STYLE_COLOUR ( '', #166 ) ;
#152 = ORIENTED_EDGE ( 'NONE', *, *, #228, .T. ) ;
#153 = DIRECTION ( 'NONE',  ( -1.000000000000000000, 0.000000000000000000, 0.000000000000000000 ) ) ;
#154 = CIRCLE ( 'NONE', #100, 0.2187500000000000000 ) ;
#155 = CIRCLE ( 'NONE', #306, 0.2187500000000000000 ) ;
#156 = ORIENTED_EDGE ( 'NONE', *, *, #210, .F. ) ;
#157 =( CONVERSION_BASED_UNIT ( 'INCH', #274 ) LENGTH_UNIT ( ) NAMED_UNIT ( #281 ) );
#158 = STYLED_ITEM ( 'NONE', ( #305 ), #68 ) ;
#159 = CIRCLE ( 'NONE', #249, 0.2187500000000000000 ) ;
#160 = EDGE_CURVE ( 'NONE', #34, #284, #307, .T. ) ;
#161 = PLANE ( 'NONE',  #101 ) ;
#162 = SURFACE_STYLE_FILL_AREA ( #289 ) ;
#163 = PRESENTATION_LAYER_ASSIGNMENT (  '', '', ( #245 ) ) ;
#164 = CARTESIAN_POINT ( 'NONE',  ( 0.000000000000000000, 0.5625000000000001110, 0.000000000000000000 ) ) ;
#165 = FACE_OUTER_BOUND ( 'NONE', #31, .T. ) ;
#166 = COLOUR_RGB ( '',0.7921568627450980005, 0.8196078431372548767, 0.9333333333333333481 ) ;
#167 = SURFACE_SIDE_STYLE ('',( #2 ) ) ;
#168 =( GEOMETRIC_REPRESENTATION_CONTEXT ( 3 ) GLOBAL_UNCERTAINTY_ASSIGNED_CONTEXT ( ( #204 ) ) GLOBAL_UNIT_ASSIGNED_CONTEXT ( ( #288, #149, #35 ) ) REPRESENTATION_CONTEXT ( 'NONE', 'WORKASPACE' ) );
#169 = VERTEX_POINT ( 'NONE', #263 ) ;
#170 = PRESENTATION_STYLE_ASSIGNMENT (( #102 ) ) ;
#171 = SURFACE_STYLE_USAGE ( .BOTH. , #141 ) ;
#172 = DIRECTION ( 'NONE',  ( 0.000000000000000000, 1.000000000000000000, 0.000000000000000000 ) ) ;
#173 = DIRECTION ( 'NONE',  ( -0.000000000000000000, -1.000000000000000000, -0.000000000000000000 ) ) ;
#174 = ORIENTED_EDGE ( 'NONE', *, *, #200, .F. ) ;
#175 = DIRECTION ( 'NONE',  ( 0.000000000000000000, -0.000000000000000000, 1.000000000000000000 ) ) ;
#176 = PRODUCT_DEFINITION ( 'UNKNOWN', '', #26, #261 ) ;
#177 = MANIFOLD_SOLID_BREP ( 'Revolve - Cutting Edge', #114 ) ;
#178 = UNCERTAINTY_MEASURE_WITH_UNIT (LENGTH_MEASURE( 1.000000000000000082E-05 ), #62, 'distance_accuracy_value', 'NONE');
#179 = CARTESIAN_POINT ( 'NONE',  ( 2.755455298081544778E-16, 2.750000000000000000, 0.000000000000000000 ) ) ;
#180 = LENGTH_MEASURE_WITH_UNIT ( LENGTH_MEASURE( 0.02539999999999999897 ), #218 );
#181 = MECHANICAL_DESIGN_GEOMETRIC_PRESENTATION_REPRESENTATION (  '', ( #7 ), #61 ) ;
#182 = CYLINDRICAL_SURFACE ( 'NONE', #6, 0.2187500000000000000 ) ;
#183 =( CONVERSION_BASED_UNIT ( 'INCH', #180 ) LENGTH_UNIT ( ) NAMED_UNIT ( #207 ) );
#184 = AXIS2_PLACEMENT_3D ( 'NONE', #222, #173, #199 ) ;
#185 = VECTOR ( 'NONE', #224, 39.37007874015748143 ) ;
#186 = SURFACE_STYLE_FILL_AREA ( #215 ) ;
#187 =( NAMED_UNIT ( * ) SI_UNIT ( $, .STERADIAN. ) SOLID_ANGLE_UNIT ( ) );
#188 = DIRECTION ( 'NONE',  ( -1.000000000000000000, 0.000000000000000000, 0.000000000000000000 ) ) ;
#189 = DIRECTION ( 'NONE',  ( 0.000000000000000000, 0.000000000000000000, -1.000000000000000000 ) ) ;
#190 = CLOSED_SHELL ( 'NONE', ( #93, #303, #52, #150 ) ) ;
#191 = AXIS2_PLACEMENT_3D ( 'NONE', #203, #42, #188 ) ;
#192 =( CONVERSION_BASED_UNIT ( 'INCH', #99 ) LENGTH_UNIT ( ) NAMED_UNIT ( #300 ) );
#193 = EDGE_CURVE ( 'NONE', #64, #273, #309, .T. ) ;
#194 = FILL_AREA_STYLE_COLOUR ( '', #90 ) ;
#195 = ORIENTED_EDGE ( 'NONE', *, *, #285, .F. ) ;
#196 = DIRECTION ( 'NONE',  ( -1.000000000000000000, 0.000000000000000000, 0.000000000000000000 ) ) ;
#197 = PRESENTATION_LAYER_ASSIGNMENT (  '', '', ( #292 ) ) ;
#198 = ORIENTED_EDGE ( 'NONE', *, *, #231, .T. ) ;
#199 = DIRECTION ( 'NONE',  ( 0.000000000000000000, 0.000000000000000000, -1.000000000000000000 ) ) ;
#200 = EDGE_CURVE ( 'NONE', #202, #137, #3, .T. ) ;
#201 = DIRECTION ( 'NONE',  ( -0.000000000000000000, -1.000000000000000000, -0.000000000000000000 ) ) ;
#202 = VERTEX_POINT ( 'NONE', #10 ) ;
#203 = CARTESIAN_POINT ( 'NONE',  ( 2.755455298081544778E-16, 2.750000000000000000, 0.000000000000000000 ) ) ;
#204 = UNCERTAINTY_MEASURE_WITH_UNIT (LENGTH_MEASURE( 1.000000000000000082E-05 ), #288, 'distance_accuracy_value', 'NONE');
#205 =( NAMED_UNIT ( * ) SI_UNIT ( $, .STERADIAN. ) SOLID_ANGLE_UNIT ( ) );
#206 = COLOUR_RGB ( '',0.7921568627450980005, 0.8196078431372548767, 0.9333333333333333481 ) ;
#207 = DIMENSIONAL_EXPONENTS ( 1.000000000000000000, 0.000000000000000000, 0.000000000000000000, 0.000000000000000000, 0.000000000000000000, 0.000000000000000000, 0.000000000000000000 ) ;
#208 = SURFACE_SIDE_STYLE ('',( #45 ) ) ;
#209 = DIRECTION ( 'NONE',  ( 1.000000000000000000, -1.259636707694420928E-16, 0.000000000000000000 ) ) ;
#210 = EDGE_CURVE ( 'NONE', #34, #202, #159, .T. ) ;
#211 = COLOUR_RGB ( '',1.000000000000000000, 0.000000000000000000, 0.000000000000000000 ) ;
#212 = DIMENSIONAL_EXPONENTS ( 1.000000000000000000, 0.000000000000000000, 0.000000000000000000, 0.000000000000000000, 0.000000000000000000, 0.000000000000000000, 0.000000000000000000 ) ;
#213 = CARTESIAN_POINT ( 'NONE',  ( 0.000000000000000000, 0.000000000000000000, 0.000000000000000000 ) ) ;
#214 = DIMENSIONAL_EXPONENTS ( 1.000000000000000000, 0.000000000000000000, 0.000000000000000000, 0.000000000000000000, 0.000000000000000000, 0.000000000000000000, 0.000000000000000000 ) ;
#215 = FILL_AREA_STYLE ('',( #240 ) ) ;
#216 = LINE ( 'NONE', #142, #254 ) ;
#217 = PLANE ( 'NONE',  #286 ) ;
#218 =( LENGTH_UNIT ( ) NAMED_UNIT ( * ) SI_UNIT ( $, .METRE. ) );
#219 = EDGE_CURVE ( 'NONE', #169, #252, #216, .T. ) ;
#220 = FACE_OUTER_BOUND ( 'NONE', #148, .T. ) ;
#221 =( LENGTH_UNIT ( ) NAMED_UNIT ( * ) SI_UNIT ( $, .METRE. ) );
#222 = CARTESIAN_POINT ( 'NONE',  ( 0.000000000000000000, 0.000000000000000000, 0.000000000000000000 ) ) ;
#223 = AXIS2_PLACEMENT_3D ( 'NONE', #125, #304, #189 ) ;
#224 = DIRECTION ( 'NONE',  ( -0.000000000000000000, -1.000000000000000000, -0.000000000000000000 ) ) ;
#225 = UNCERTAINTY_MEASURE_WITH_UNIT (LENGTH_MEASURE( 1.000000000000000082E-05 ), #291, 'distance_accuracy_value', 'NONE');
#226 = PRESENTATION_LAYER_ASSIGNMENT (  '', '', ( #297 ) ) ;
#227 =( NAMED_UNIT ( * ) SI_UNIT ( $, .STERADIAN. ) SOLID_ANGLE_UNIT ( ) );
#228 = EDGE_CURVE ( 'NONE', #252, #273, #233, .T. ) ;
#229 = CARTESIAN_POINT ( 'NONE',  ( 0.2187500000000000000, 2.750000000000000000, 0.000000000000000000 ) ) ;
#230 = ORIENTED_EDGE ( 'NONE', *, *, #160, .F. ) ;
#231 = EDGE_CURVE ( 'NONE', #273, #252, #69, .T. ) ;
#232 = AXIS2_PLACEMENT_3D ( 'NONE', #74, #277, #14 ) ;
#233 = CIRCLE ( 'NONE', #91, 0.2187499999999997224 ) ;
#234 = DIMENSIONAL_EXPONENTS ( 1.000000000000000000, 0.000000000000000000, 0.000000000000000000, 0.000000000000000000, 0.000000000000000000, 0.000000000000000000, 0.000000000000000000 ) ;
#235 = FACE_OUTER_BOUND ( 'NONE', #266, .T. ) ;
#236 =( NAMED_UNIT ( * ) PLANE_ANGLE_UNIT ( ) SI_UNIT ( $, .RADIAN. ) );
#237 = ORIENTED_EDGE ( 'NONE', *, *, #72, .T. ) ;
#238 = COLOUR_RGB ( '',1.000000000000000000, 0.000000000000000000, 0.000000000000000000 ) ;
#239 = DIRECTION ( 'NONE',  ( -0.000000000000000000, -1.000000000000000000, -0.000000000000000000 ) ) ;
#240 = FILL_AREA_STYLE_COLOUR ( '', #238 ) ;
#241 = APPLICATION_PROTOCOL_DEFINITION ( 'draft international standard', 'automotive_design', 1998, #49 ) ;
#242 = SURFACE_STYLE_USAGE ( .BOTH. , #76 ) ;
#243 = ADVANCED_BREP_SHAPE_REPRESENTATION ( '05397', ( #177, #68, #48 ), #37 ) ;
#244 = FACE_OUTER_BOUND ( 'NONE', #44, .T. ) ;
#245 = STYLED_ITEM ( 'NONE', ( #29 ), #107 ) ;
#246 = DIRECTION ( 'NONE',  ( -1.000000000000000000, 0.000000000000000000, 0.000000000000000000 ) ) ;
#247 =( NAMED_UNIT ( * ) PLANE_ANGLE_UNIT ( ) SI_UNIT ( $, .RADIAN. ) );
#248 = CARTESIAN_POINT ( 'NONE',  ( 0.000000000000000000, 0.5625000000000001110, 0.000000000000000000 ) ) ;
#249 = AXIS2_PLACEMENT_3D ( 'NONE', #111, #201, #122 ) ;
#250 = UNCERTAINTY_MEASURE_WITH_UNIT (LENGTH_MEASURE( 1.000000000000000082E-05 ), #192, 'distance_accuracy_value', 'NONE');
#251 = PRODUCT ( '05397', '05397', '', ( #28 ) ) ;
#252 = VERTEX_POINT ( 'NONE', #121 ) ;
#253 =( NAMED_UNIT ( * ) PLANE_ANGLE_UNIT ( ) SI_UNIT ( $, .RADIAN. ) );
#254 = VECTOR ( 'NONE', #97, 39.37007874015748143 ) ;
#255 = PRODUCT_DEFINITION_SHAPE ( 'NONE', 'NONE',  #176 ) ;
#256 = DIRECTION ( 'NONE',  ( 0.000000000000000000, 0.000000000000000000, 1.000000000000000000 ) ) ;
#257 = DIRECTION ( 'NONE',  ( 1.259636707694420928E-16, 1.000000000000000000, -0.000000000000000000 ) ) ;
#258 = DIMENSIONAL_EXPONENTS ( 1.000000000000000000, 0.000000000000000000, 0.000000000000000000, 0.000000000000000000, 0.000000000000000000, 0.000000000000000000, 0.000000000000000000 ) ;
#259 = CIRCLE ( 'NONE', #146, 0.2187500000000000000 ) ;
#260 = CARTESIAN_POINT ( 'NONE',  ( 2.678914873134835064E-17, 0.000000000000000000, 0.2187500000000000000 ) ) ;
#261 = PRODUCT_DEFINITION_CONTEXT ( 'detailed design', #49, 'design' ) ;
#262 = COLOUR_RGB ( '',1.000000000000000000, 0.000000000000000000, 0.000000000000000000 ) ;
#263 = CARTESIAN_POINT ( 'NONE',  ( 0.2187499999999999445, 0.5625000000000001110, 2.678914873134834139E-17 ) ) ;
#264 = ORIENTED_EDGE ( 'NONE', *, *, #200, .T. ) ;
#265 = SURFACE_STYLE_FILL_AREA ( #105 ) ;
#266 = EDGE_LOOP ( 'NONE', ( #132, #237 ) ) ;
#267 = ADVANCED_FACE ( 'NONE', ( #235 ), #161, .T. ) ;
#268 = FILL_AREA_STYLE ('',( #290 ) ) ;
#269 =( NAMED_UNIT ( * ) PLANE_ANGLE_UNIT ( ) SI_UNIT ( $, .RADIAN. ) );
#270 = FACE_OUTER_BOUND ( 'NONE', #70, .T. ) ;
#271 = DIRECTION ( 'NONE',  ( 1.259636707694420928E-16, 1.000000000000000000, -0.000000000000000000 ) ) ;
#272 = DIRECTION ( 'NONE',  ( -1.000000000000000000, 0.000000000000000000, 0.000000000000000000 ) ) ;
#273 = VERTEX_POINT ( 'NONE', #144 ) ;
#274 = LENGTH_MEASURE_WITH_UNIT ( LENGTH_MEASURE( 0.02539999999999999897 ), #112 );
#275 =( CONVERSION_BASED_UNIT ( 'INCH', #16 ) LENGTH_UNIT ( ) NAMED_UNIT ( #214 ) );
#276 = EDGE_LOOP ( 'NONE', ( #198, #152 ) ) ;
#277 = DIRECTION ( 'NONE',  ( -0.000000000000000000, -1.000000000000000000, -0.000000000000000000 ) ) ;
#278 = EDGE_CURVE ( 'NONE', #202, #34, #155, .T. ) ;
#279 = DIRECTION ( 'NONE',  ( -1.000000000000000000, 0.000000000000000000, 0.000000000000000000 ) ) ;
#280 = MECHANICAL_DESIGN_GEOMETRIC_PRESENTATION_REPRESENTATION (  '', ( #292 ), #123 ) ;
#281 = DIMENSIONAL_EXPONENTS ( 1.000000000000000000, 0.000000000000000000, 0.000000000000000000, 0.000000000000000000, 0.000000000000000000, 0.000000000000000000, 0.000000000000000000 ) ;
#282 = CARTESIAN_POINT ( 'NONE',  ( 2.755455298081544778E-16, 2.750000000000000000, 0.000000000000000000 ) ) ;
#283 = SHAPE_DEFINITION_REPRESENTATION ( #255, #243 ) ;
#284 = VERTEX_POINT ( 'NONE', #54 ) ;
#285 = EDGE_CURVE ( 'NONE', #284, #137, #20, .T. ) ;
#286 = AXIS2_PLACEMENT_3D ( 'NONE', #145, #32, #127 ) ;
#287 = FILL_AREA_STYLE ('',( #194 ) ) ;
#288 =( CONVERSION_BASED_UNIT ( 'INCH', #302 ) LENGTH_UNIT ( ) NAMED_UNIT ( #212 ) );
#289 = FILL_AREA_STYLE ('',( #78 ) ) ;
#290 = FILL_AREA_STYLE_COLOUR ( '', #206 ) ;
#291 =( CONVERSION_BASED_UNIT ( 'INCH', #77 ) LENGTH_UNIT ( ) NAMED_UNIT ( #258 ) );
#292 = STYLED_ITEM ( 'NONE', ( #170 ), #40 ) ;
#293 = ORIENTED_EDGE ( 'NONE', *, *, #231, .F. ) ;
#294 = SURFACE_STYLE_USAGE ( .BOTH. , #167 ) ;
#295 = CYLINDRICAL_SURFACE ( 'NONE', #129, 0.2187499999999998612 ) ;
#296 = ORIENTED_EDGE ( 'NONE', *, *, #72, .F. ) ;
#297 = STYLED_ITEM ( 'NONE', ( #116 ), #98 ) ;
#298 = CARTESIAN_POINT ( 'NONE',  ( 0.000000000000000000, 0.000000000000000000, 0.000000000000000000 ) ) ;
#299 =( GEOMETRIC_REPRESENTATION_CONTEXT ( 3 ) GLOBAL_UNCERTAINTY_ASSIGNED_CONTEXT ( ( #11 ) ) GLOBAL_UNIT_ASSIGNED_CONTEXT ( ( #157, #85, #187 ) ) REPRESENTATION_CONTEXT ( 'NONE', 'WORKASPACE' ) );
#300 = DIMENSIONAL_EXPONENTS ( 1.000000000000000000, 0.000000000000000000, 0.000000000000000000, 0.000000000000000000, 0.000000000000000000, 0.000000000000000000, 0.000000000000000000 ) ;
#301 = AXIS2_PLACEMENT_3D ( 'NONE', #248, #172, #175 ) ;
#302 = LENGTH_MEASURE_WITH_UNIT ( LENGTH_MEASURE( 0.02539999999999999897 ), #59 );
#303 = ADVANCED_FACE ( 'NONE', ( #244 ), #217, .F. ) ;
#304 = DIRECTION ( 'NONE',  ( -0.000000000000000000, -1.000000000000000000, -0.000000000000000000 ) ) ;
#305 = PRESENTATION_STYLE_ASSIGNMENT (( #294 ) ) ;
#306 = AXIS2_PLACEMENT_3D ( 'NONE', #164, #239, #27 ) ;
#307 = LINE ( 'NONE', #104, #58 ) ;
#308 = SURFACE_SIDE_STYLE ('',( #162 ) ) ;
#309 = LINE ( 'NONE', #134, #13 ) ;
ENDSEC;
END-ISO-10303-21;
