ISO-10303-21;
HEADER;
FILE_DESCRIPTION (( 'STEP AP214' ),
    '1' );
FILE_NAME ('83830.STEP',
    '2023-07-05T16:14:09',
    ( '' ),
    ( '' ),
    'SwSTEP 2.0',
    'SolidWorks 2023',
    '' );
FILE_SCHEMA (( 'AUTOMOTIVE_DESIGN' ));
ENDSEC;

DATA;
#1 = DIRECTION ( 'NONE',  ( -1.451753476719974375E-16, 1.000000000000000000, -0.000000000000000000 ) ) ;
#2 = CIRCLE ( 'NONE', #26, 0.1874999999999996947 ) ;
#3 = DIRECTION ( 'NONE',  ( -1.451753476719974375E-16, 1.000000000000000000, -0.000000000000000000 ) ) ;
#4 = AXIS2_PLACEMENT_3D ( 'NONE', #22, #10, #71 ) ;
#5 = COLOUR_RGB ( '',1.000000000000000000, 0.000000000000000000, 0.000000000000000000 ) ;
#6 = FILL_AREA_STYLE_COLOUR ( '', #124 ) ;
#7 = DIRECTION ( 'NONE',  ( 1.000000000000000000, 0.000000000000000000, 0.000000000000000000 ) ) ;
#8 = STYLED_ITEM ( 'NONE', ( #43 ), #250 ) ;
#9 = EDGE_CURVE ( 'NONE', #153, #167, #14, .T. ) ;
#10 = DIRECTION ( 'NONE',  ( -1.451753476719974375E-16, 1.000000000000000000, 0.000000000000000000 ) ) ;
#11 = APPLICATION_CONTEXT ( 'automotive_design' ) ;
#12 = DIRECTION ( 'NONE',  ( 1.000000000000000000, 0.000000000000000000, 0.000000000000000000 ) ) ;
#13 = CARTESIAN_POINT ( 'NONE',  ( 7.870206804039944582E-19, 0.1082531754730542695, 0.000000000000000000 ) ) ;
#14 = CIRCLE ( 'NONE', #55, 0.1875000000000000278 ) ;
#15 = PRODUCT_DEFINITION_FORMATION_WITH_SPECIFIED_SOURCE ( 'ANY', '', #73, .NOT_KNOWN. ) ;
#16 = ORIENTED_EDGE ( 'NONE', *, *, #35, .T. ) ;
#17 = SURFACE_STYLE_USAGE ( .BOTH. , #57 ) ;
#18 = ORIENTED_EDGE ( 'NONE', *, *, #222, .F. ) ;
#19 = PRESENTATION_LAYER_ASSIGNMENT (  '', '', ( #58 ) ) ;
#20 = ORIENTED_EDGE ( 'NONE', *, *, #136, .T. ) ;
#21 =( NAMED_UNIT ( * ) SI_UNIT ( $, .STERADIAN. ) SOLID_ANGLE_UNIT ( ) );
#22 = CARTESIAN_POINT ( 'NONE',  ( 2.859903368367275526E-16, 0.1082531754730542278, 0.000000000000000000 ) ) ;
#23 = CARTESIAN_POINT ( 'NONE',  ( 0.1874999999999999722, 2.500000000000000000, 0.000000000000000000 ) ) ;
#24 = EDGE_CURVE ( 'NONE', #264, #255, #89, .T. ) ;
#25 = CARTESIAN_POINT ( 'NONE',  ( -0.1874999999999994449, 0.1082531754730541723, 0.000000000000000000 ) ) ;
#26 = AXIS2_PLACEMENT_3D ( 'NONE', #229, #225, #28 ) ;
#27 = AXIS2_PLACEMENT_3D ( 'NONE', #236, #210, #150 ) ;
#28 = DIRECTION ( 'NONE',  ( -1.000000000000000000, -1.821231995776178437E-16, 0.000000000000000000 ) ) ;
#29 =( NAMED_UNIT ( * ) SI_UNIT ( $, .STERADIAN. ) SOLID_ANGLE_UNIT ( ) );
#30 = CARTESIAN_POINT ( 'NONE',  ( 2.862277805915282117E-16, 39.37007874015748143, 0.000000000000000000 ) ) ;
#31 =( LENGTH_UNIT ( ) NAMED_UNIT ( * ) SI_UNIT ( $, .METRE. ) );
#32 = AXIS2_PLACEMENT_3D ( 'NONE', #30, #191, #132 ) ;
#33 = LENGTH_MEASURE_WITH_UNIT ( LENGTH_MEASURE( 0.02539999999999999897 ), #193 );
#34 = DIMENSIONAL_EXPONENTS ( 1.000000000000000000, 0.000000000000000000, 0.000000000000000000, 0.000000000000000000, 0.000000000000000000, 0.000000000000000000, 0.000000000000000000 ) ;
#35 = EDGE_CURVE ( 'NONE', #120, #153, #108, .T. ) ;
#36 = DIRECTION ( 'NONE',  ( 0.000000000000000000, 0.000000000000000000, 1.000000000000000000 ) ) ;
#37 = VECTOR ( 'NONE', #104, 39.37007874015748854 ) ;
#38 =( CONVERSION_BASED_UNIT ( 'INCH', #56 ) LENGTH_UNIT ( ) NAMED_UNIT ( #239 ) );
#39 = VERTEX_POINT ( 'NONE', #25 ) ;
#40 =( NAMED_UNIT ( * ) SI_UNIT ( $, .STERADIAN. ) SOLID_ANGLE_UNIT ( ) );
#41 = STYLED_ITEM ( 'NONE', ( #172 ), #145 ) ;
#42 = COLOUR_RGB ( '',1.000000000000000000, 0.000000000000000000, 0.000000000000000000 ) ;
#43 = PRESENTATION_STYLE_ASSIGNMENT (( #224 ) ) ;
#44 = CARTESIAN_POINT ( 'NONE',  ( 0.1874999999999999722, 2.500000000000000000, 2.296212748401286801E-17 ) ) ;
#45 = ORIENTED_EDGE ( 'NONE', *, *, #9, .F. ) ;
#46 = MECHANICAL_DESIGN_GEOMETRIC_PRESENTATION_REPRESENTATION (  '', ( #8 ), #78 ) ;
#47 = FILL_AREA_STYLE_COLOUR ( '', #228 ) ;
#48 = FACE_OUTER_BOUND ( 'NONE', #237, .T. ) ;
#49 = PRESENTATION_LAYER_ASSIGNMENT (  '', '', ( #157 ) ) ;
#50 =( CONVERSION_BASED_UNIT ( 'INCH', #227 ) LENGTH_UNIT ( ) NAMED_UNIT ( #212 ) );
#51 = ADVANCED_FACE ( 'NONE', ( #93 ), #88, .F. ) ;
#52 = CARTESIAN_POINT ( 'NONE',  ( 7.870206804039944582E-19, 0.1082531754730542556, 0.000000000000000000 ) ) ;
#53 = PRESENTATION_STYLE_ASSIGNMENT (( #125 ) ) ;
#54 = EDGE_CURVE ( 'NONE', #120, #167, #122, .T. ) ;
#55 = AXIS2_PLACEMENT_3D ( 'NONE', #139, #95, #203 ) ;
#56 = LENGTH_MEASURE_WITH_UNIT ( LENGTH_MEASURE( 0.02539999999999999897 ), #31 );
#57 = SURFACE_SIDE_STYLE ('',( #192 ) ) ;
#58 = STYLED_ITEM ( 'NONE', ( #134 ), #170 ) ;
#59 = UNCERTAINTY_MEASURE_WITH_UNIT (LENGTH_MEASURE( 1.000000000000000082E-05 ), #117, 'distance_accuracy_value', 'NONE');
#60 =( NAMED_UNIT ( * ) PLANE_ANGLE_UNIT ( ) SI_UNIT ( $, .RADIAN. ) );
#61 = EDGE_CURVE ( 'NONE', #217, #39, #2, .T. ) ;
#62 = ORIENTED_EDGE ( 'NONE', *, *, #136, .F. ) ;
#63 = DIRECTION ( 'NONE',  ( -1.451753476719974375E-16, 1.000000000000000000, -0.000000000000000000 ) ) ;
#64 = ORIENTED_EDGE ( 'NONE', *, *, #54, .F. ) ;
#65 = FILL_AREA_STYLE ('',( #47 ) ) ;
#66 = SURFACE_STYLE_FILL_AREA ( #65 ) ;
#67 = SURFACE_SIDE_STYLE ('',( #141 ) ) ;
#68 = SURFACE_STYLE_USAGE ( .BOTH. , #246 ) ;
#69 = AXIS2_PLACEMENT_3D ( 'NONE', #13, #207, #12 ) ;
#70 =( NAMED_UNIT ( * ) PLANE_ANGLE_UNIT ( ) SI_UNIT ( $, .RADIAN. ) );
#71 = DIRECTION ( 'NONE',  ( -1.000000000000000000, -1.451753476719974375E-16, 0.000000000000000000 ) ) ;
#72 = FILL_AREA_STYLE ('',( #107 ) ) ;
#73 = PRODUCT ( '83830', '83830', '', ( #74 ) ) ;
#74 = PRODUCT_CONTEXT ( 'NONE', #230, 'mechanical' ) ;
#75 = DIMENSIONAL_EXPONENTS ( 1.000000000000000000, 0.000000000000000000, 0.000000000000000000, 0.000000000000000000, 0.000000000000000000, 0.000000000000000000, 0.000000000000000000 ) ;
#76 = CARTESIAN_POINT ( 'NONE',  ( -0.1875000000000000278, 0.1082531754730542695, 0.000000000000000000 ) ) ;
#77 = CLOSED_SHELL ( 'NONE', ( #233, #51, #263, #211 ) ) ;
#78 =( GEOMETRIC_REPRESENTATION_CONTEXT ( 3 ) GLOBAL_UNCERTAINTY_ASSIGNED_CONTEXT ( ( #59 ) ) GLOBAL_UNIT_ASSIGNED_CONTEXT ( ( #117, #60, #21 ) ) REPRESENTATION_CONTEXT ( 'NONE', 'WORKASPACE' ) );
#79 = ORIENTED_EDGE ( 'NONE', *, *, #24, .T. ) ;
#80 = UNCERTAINTY_MEASURE_WITH_UNIT (LENGTH_MEASURE( 1.000000000000000082E-05 ), #171, 'distance_accuracy_value', 'NONE');
#81 = EDGE_LOOP ( 'NONE', ( #20, #241, #221, #160 ) ) ;
#82 = DIRECTION ( 'NONE',  ( 1.451753476719974375E-16, -1.000000000000000000, 0.000000000000000000 ) ) ;
#83 = ADVANCED_FACE ( 'NONE', ( #48 ), #180, .T. ) ;
#84 = MECHANICAL_DESIGN_GEOMETRIC_PRESENTATION_REPRESENTATION (  '', ( #157 ), #208 ) ;
#85 = DIRECTION ( 'NONE',  ( -1.000000000000000000, 0.000000000000000000, 0.000000000000000000 ) ) ;
#86 = CARTESIAN_POINT ( 'NONE',  ( 0.1874999999999999722, 0.1082531754730542417, 2.296212748401286801E-17 ) ) ;
#87 = EDGE_LOOP ( 'NONE', ( #123, #106, #257 ) ) ;
#88 = PLANE ( 'NONE',  #4 ) ;
#89 = CIRCLE ( 'NONE', #215, 0.1875000000000000555 ) ;
#90 = DIRECTION ( 'NONE',  ( -1.451753476719974375E-16, 1.000000000000000000, -0.000000000000000000 ) ) ;
#91 = FILL_AREA_STYLE ('',( #6 ) ) ;
#92 = ADVANCED_FACE ( 'NONE', ( #202 ), #238, .T. ) ;
#93 = FACE_OUTER_BOUND ( 'NONE', #198, .T. ) ;
#94 = AXIS2_PLACEMENT_3D ( 'NONE', #23, #82, #163 ) ;
#95 = DIRECTION ( 'NONE',  ( -7.270185627024815973E-18, -1.000000000000000000, -0.000000000000000000 ) ) ;
#96 = CIRCLE ( 'NONE', #204, 0.1875000000000000555 ) ;
#97 = SURFACE_SIDE_STYLE ('',( #213 ) ) ;
#98 =( NAMED_UNIT ( * ) PLANE_ANGLE_UNIT ( ) SI_UNIT ( $, .RADIAN. ) );
#99 = CYLINDRICAL_SURFACE ( 'NONE', #260, 0.1874999999999998890 ) ;
#100 = STYLED_ITEM ( 'NONE', ( #144 ), #92 ) ;
#101 = PLANE ( 'NONE',  #94 ) ;
#102 = CARTESIAN_POINT ( 'NONE',  ( -6.123233995736764803E-17, 2.500000000000000000, 0.000000000000000000 ) ) ;
#103 = CARTESIAN_POINT ( 'NONE',  ( 0.000000000000000000, 0.000000000000000000, 0.000000000000000000 ) ) ;
#104 = DIRECTION ( 'NONE',  ( -0.8660254037844397068, 0.4999999999999979461, 0.000000000000000000 ) ) ;
#105 = AXIS2_PLACEMENT_3D ( 'NONE', #173, #256, #115 ) ;
#106 = ORIENTED_EDGE ( 'NONE', *, *, #54, .T. ) ;
#107 = FILL_AREA_STYLE_COLOUR ( '', #5 ) ;
#108 = LINE ( 'NONE', #103, #37 ) ;
#109 = DIMENSIONAL_EXPONENTS ( 1.000000000000000000, 0.000000000000000000, 0.000000000000000000, 0.000000000000000000, 0.000000000000000000, 0.000000000000000000, 0.000000000000000000 ) ;
#110 = CARTESIAN_POINT ( 'NONE',  ( 0.000000000000000000, 0.000000000000000000, 0.000000000000000000 ) ) ;
#111 = FILL_AREA_STYLE ('',( #154 ) ) ;
#112 = AXIS2_PLACEMENT_3D ( 'NONE', #52, #128, #181 ) ;
#113 = FACE_OUTER_BOUND ( 'NONE', #87, .T. ) ;
#114 = FILL_AREA_STYLE ('',( #232 ) ) ;
#115 = DIRECTION ( 'NONE',  ( -1.000000000000000000, 0.000000000000000000, 0.000000000000000000 ) ) ;
#116 = VECTOR ( 'NONE', #164, 39.37007874015748854 ) ;
#117 =( CONVERSION_BASED_UNIT ( 'INCH', #244 ) LENGTH_UNIT ( ) NAMED_UNIT ( #138 ) );
#118 = FACE_OUTER_BOUND ( 'NONE', #158, .T. ) ;
#119 = COLOUR_RGB ( '',0.7921568627450980005, 0.8196078431372548767, 0.9333333333333333481 ) ;
#120 = VERTEX_POINT ( 'NONE', #131 ) ;
#121 =( LENGTH_UNIT ( ) NAMED_UNIT ( * ) SI_UNIT ( $, .METRE. ) );
#122 = LINE ( 'NONE', #143, #116 ) ;
#123 = ORIENTED_EDGE ( 'NONE', *, *, #35, .F. ) ;
#124 = COLOUR_RGB ( '',1.000000000000000000, 0.000000000000000000, 0.000000000000000000 ) ;
#125 = SURFACE_STYLE_USAGE ( .BOTH. , #67 ) ;
#126 = EDGE_CURVE ( 'NONE', #167, #153, #147, .T. ) ;
#127 =( NAMED_UNIT ( * ) PLANE_ANGLE_UNIT ( ) SI_UNIT ( $, .RADIAN. ) );
#128 = DIRECTION ( 'NONE',  ( 7.270185627024815973E-18, 1.000000000000000000, 0.000000000000000000 ) ) ;
#129 = ADVANCED_BREP_SHAPE_REPRESENTATION ( '83830', ( #250, #170, #142 ), #130 ) ;
#130 =( GEOMETRIC_REPRESENTATION_CONTEXT ( 3 ) GLOBAL_UNCERTAINTY_ASSIGNED_CONTEXT ( ( #186 ) ) GLOBAL_UNIT_ASSIGNED_CONTEXT ( ( #50, #127, #29 ) ) REPRESENTATION_CONTEXT ( 'NONE', 'WORKASPACE' ) );
#131 = CARTESIAN_POINT ( 'NONE',  ( 0.000000000000000000, 0.000000000000000000, 0.000000000000000000 ) ) ;
#132 = DIRECTION ( 'NONE',  ( -1.000000000000000000, 0.000000000000000000, 0.000000000000000000 ) ) ;
#133 = CONICAL_SURFACE ( 'NONE', #105, 68.19097667594041923, 1.047197551196600074 ) ;
#134 = PRESENTATION_STYLE_ASSIGNMENT (( #17 ) ) ;
#135 = ORIENTED_EDGE ( 'NONE', *, *, #251, .F. ) ;
#136 = EDGE_CURVE ( 'NONE', #39, #217, #168, .T. ) ;
#137 = CARTESIAN_POINT ( 'NONE',  ( -0.1874999999999999445, 2.500000000000000000, 0.000000000000000000 ) ) ;
#138 = DIMENSIONAL_EXPONENTS ( 1.000000000000000000, 0.000000000000000000, 0.000000000000000000, 0.000000000000000000, 0.000000000000000000, 0.000000000000000000, 0.000000000000000000 ) ;
#139 = CARTESIAN_POINT ( 'NONE',  ( 7.870206804039944582E-19, 0.1082531754730542695, 0.000000000000000000 ) ) ;
#140 = PRODUCT_DEFINITION_SHAPE ( 'NONE', 'NONE',  #199 ) ;
#141 = SURFACE_STYLE_FILL_AREA ( #91 ) ;
#142 = AXIS2_PLACEMENT_3D ( 'NONE', #110, #36, #7 ) ;
#143 = CARTESIAN_POINT ( 'NONE',  ( 0.000000000000000000, 0.000000000000000000, 0.000000000000000000 ) ) ;
#144 = PRESENTATION_STYLE_ASSIGNMENT (( #68 ) ) ;
#145 = ADVANCED_FACE ( 'NONE', ( #113 ), #133, .T. ) ;
#146 =( GEOMETRIC_REPRESENTATION_CONTEXT ( 3 ) GLOBAL_UNCERTAINTY_ASSIGNED_CONTEXT ( ( #195 ) ) GLOBAL_UNIT_ASSIGNED_CONTEXT ( ( #38, #98, #189 ) ) REPRESENTATION_CONTEXT ( 'NONE', 'WORKASPACE' ) );
#147 = CIRCLE ( 'NONE', #69, 0.1875000000000000278 ) ;
#148 =( NAMED_UNIT ( * ) SI_UNIT ( $, .STERADIAN. ) SOLID_ANGLE_UNIT ( ) );
#149 = CARTESIAN_POINT ( 'NONE',  ( 0.1875000000000000278, 0.1082531754730542695, 2.296212748401287726E-17 ) ) ;
#150 = DIRECTION ( 'NONE',  ( -1.000000000000000000, -1.821231995776178437E-16, 0.000000000000000000 ) ) ;
#151 = PRESENTATION_LAYER_ASSIGNMENT (  '', '', ( #8 ) ) ;
#152 = LENGTH_MEASURE_WITH_UNIT ( LENGTH_MEASURE( 0.02539999999999999897 ), #252 );
#153 = VERTEX_POINT ( 'NONE', #76 ) ;
#154 = FILL_AREA_STYLE_COLOUR ( '', #42 ) ;
#155 = UNCERTAINTY_MEASURE_WITH_UNIT (LENGTH_MEASURE( 1.000000000000000082E-05 ), #165, 'distance_accuracy_value', 'NONE');
#156 = DIRECTION ( 'NONE',  ( -1.451753476719974375E-16, 1.000000000000000000, -0.000000000000000000 ) ) ;
#157 = STYLED_ITEM ( 'NONE', ( #53 ), #83 ) ;
#158 = EDGE_LOOP ( 'NONE', ( #18, #214, #240, #135 ) ) ;
#159 =( NAMED_UNIT ( * ) PLANE_ANGLE_UNIT ( ) SI_UNIT ( $, .RADIAN. ) );
#160 = ORIENTED_EDGE ( 'NONE', *, *, #185, .F. ) ;
#161 = LINE ( 'NONE', #177, #190 ) ;
#162 = EDGE_LOOP ( 'NONE', ( #79, #166 ) ) ;
#163 = DIRECTION ( 'NONE',  ( 1.000000000000000000, 1.451753476719974375E-16, 0.000000000000000000 ) ) ;
#164 = DIRECTION ( 'NONE',  ( 0.8660254037844397068, 0.4999999999999979461, 1.060575238724908024E-16 ) ) ;
#165 =( CONVERSION_BASED_UNIT ( 'INCH', #33 ) LENGTH_UNIT ( ) NAMED_UNIT ( #109 ) );
#166 = ORIENTED_EDGE ( 'NONE', *, *, #251, .T. ) ;
#167 = VERTEX_POINT ( 'NONE', #149 ) ;
#168 = CIRCLE ( 'NONE', #27, 0.1874999999999996947 ) ;
#169 = CARTESIAN_POINT ( 'NONE',  ( -0.1875000000000001110, 2.500000000000000000, 0.000000000000000000 ) ) ;
#170 = MANIFOLD_SOLID_BREP ( 'Revolve - Tool Body (Pointed)', #77 ) ;
#171 =( CONVERSION_BASED_UNIT ( 'INCH', #206 ) LENGTH_UNIT ( ) NAMED_UNIT ( #75 ) );
#172 = PRESENTATION_STYLE_ASSIGNMENT (( #254 ) ) ;
#173 = CARTESIAN_POINT ( 'NONE',  ( 2.862277805915282117E-16, 39.37007874015748143, 0.000000000000000000 ) ) ;
#174 = MECHANICAL_DESIGN_GEOMETRIC_PRESENTATION_REPRESENTATION (  '', ( #58 ), #223 ) ;
#175 = APPLICATION_PROTOCOL_DEFINITION ( 'draft international standard', 'automotive_design', 1998, #230 ) ;
#176 = ORIENTED_EDGE ( 'NONE', *, *, #61, .F. ) ;
#177 = CARTESIAN_POINT ( 'NONE',  ( 0.1874999999999998057, 2.500000000000000000, 2.296212748401285877E-17 ) ) ;
#178 = MECHANICAL_DESIGN_GEOMETRIC_PRESENTATION_REPRESENTATION (  '', ( #100 ), #146 ) ;
#179 = MECHANICAL_DESIGN_GEOMETRIC_PRESENTATION_REPRESENTATION (  '', ( #41 ), #249 ) ;
#180 = PLANE ( 'NONE',  #112 ) ;
#181 = DIRECTION ( 'NONE',  ( -1.000000000000000000, 7.270185627024815973E-18, 0.000000000000000000 ) ) ;
#182 =( LENGTH_UNIT ( ) NAMED_UNIT ( * ) SI_UNIT ( $, .METRE. ) );
#183 = EDGE_LOOP ( 'NONE', ( #64, #16, #219 ) ) ;
#184 = SURFACE_STYLE_FILL_AREA ( #72 ) ;
#185 = EDGE_CURVE ( 'NONE', #39, #264, #235, .T. ) ;
#186 = UNCERTAINTY_MEASURE_WITH_UNIT (LENGTH_MEASURE( 1.000000000000000082E-05 ), #50, 'distance_accuracy_value', 'NONE');
#187 = PRODUCT_RELATED_PRODUCT_CATEGORY ( 'part', '', ( #73 ) ) ;
#188 = PRODUCT_DEFINITION_CONTEXT ( 'detailed design', #11, 'design' ) ;
#189 =( NAMED_UNIT ( * ) SI_UNIT ( $, .STERADIAN. ) SOLID_ANGLE_UNIT ( ) );
#190 = VECTOR ( 'NONE', #156, 39.37007874015748143 ) ;
#191 = DIRECTION ( 'NONE',  ( 7.270185627024815973E-18, 1.000000000000000000, 0.000000000000000000 ) ) ;
#192 = SURFACE_STYLE_FILL_AREA ( #114 ) ;
#193 =( LENGTH_UNIT ( ) NAMED_UNIT ( * ) SI_UNIT ( $, .METRE. ) );
#194 =( NAMED_UNIT ( * ) PLANE_ANGLE_UNIT ( ) SI_UNIT ( $, .RADIAN. ) );
#195 = UNCERTAINTY_MEASURE_WITH_UNIT (LENGTH_MEASURE( 1.000000000000000082E-05 ), #38, 'distance_accuracy_value', 'NONE');
#196 = ORIENTED_EDGE ( 'NONE', *, *, #126, .F. ) ;
#197 = CYLINDRICAL_SURFACE ( 'NONE', #234, 0.1874999999999998890 ) ;
#198 = EDGE_LOOP ( 'NONE', ( #62, #176 ) ) ;
#199 = PRODUCT_DEFINITION ( 'UNKNOWN', '', #15, #188 ) ;
#200 = SURFACE_SIDE_STYLE ('',( #66 ) ) ;
#201 = VECTOR ( 'NONE', #262, 39.37007874015748143 ) ;
#202 = FACE_OUTER_BOUND ( 'NONE', #183, .T. ) ;
#203 = DIRECTION ( 'NONE',  ( 1.000000000000000000, 0.000000000000000000, 0.000000000000000000 ) ) ;
#204 = AXIS2_PLACEMENT_3D ( 'NONE', #102, #90, #218 ) ;
#205 = SHAPE_DEFINITION_REPRESENTATION ( #140, #129 ) ;
#206 = LENGTH_MEASURE_WITH_UNIT ( LENGTH_MEASURE( 0.02539999999999999897 ), #248 );
#207 = DIRECTION ( 'NONE',  ( -7.270185627024815973E-18, -1.000000000000000000, -0.000000000000000000 ) ) ;
#208 =( GEOMETRIC_REPRESENTATION_CONTEXT ( 3 ) GLOBAL_UNCERTAINTY_ASSIGNED_CONTEXT ( ( #80 ) ) GLOBAL_UNIT_ASSIGNED_CONTEXT ( ( #171, #70, #148 ) ) REPRESENTATION_CONTEXT ( 'NONE', 'WORKASPACE' ) );
#209 =( CONVERSION_BASED_UNIT ( 'INCH', #152 ) LENGTH_UNIT ( ) NAMED_UNIT ( #34 ) );
#210 = DIRECTION ( 'NONE',  ( -1.451753476719974375E-16, 1.000000000000000000, -0.000000000000000000 ) ) ;
#211 = ADVANCED_FACE ( 'NONE', ( #216 ), #101, .F. ) ;
#212 = DIMENSIONAL_EXPONENTS ( 1.000000000000000000, 0.000000000000000000, 0.000000000000000000, 0.000000000000000000, 0.000000000000000000, 0.000000000000000000, 0.000000000000000000 ) ;
#213 = SURFACE_STYLE_FILL_AREA ( #111 ) ;
#214 = ORIENTED_EDGE ( 'NONE', *, *, #61, .T. ) ;
#215 = AXIS2_PLACEMENT_3D ( 'NONE', #245, #1, #226 ) ;
#216 = FACE_OUTER_BOUND ( 'NONE', #162, .T. ) ;
#217 = VERTEX_POINT ( 'NONE', #86 ) ;
#218 = DIRECTION ( 'NONE',  ( -1.000000000000000000, 0.000000000000000000, 0.000000000000000000 ) ) ;
#219 = ORIENTED_EDGE ( 'NONE', *, *, #9, .T. ) ;
#220 = DIRECTION ( 'NONE',  ( -1.000000000000000000, 0.000000000000000000, 0.000000000000000000 ) ) ;
#221 = ORIENTED_EDGE ( 'NONE', *, *, #24, .F. ) ;
#222 = EDGE_CURVE ( 'NONE', #217, #255, #161, .T. ) ;
#223 =( GEOMETRIC_REPRESENTATION_CONTEXT ( 3 ) GLOBAL_UNCERTAINTY_ASSIGNED_CONTEXT ( ( #155 ) ) GLOBAL_UNIT_ASSIGNED_CONTEXT ( ( #165, #159, #265 ) ) REPRESENTATION_CONTEXT ( 'NONE', 'WORKASPACE' ) );
#224 = SURFACE_STYLE_USAGE ( .BOTH. , #200 ) ;
#225 = DIRECTION ( 'NONE',  ( -1.451753476719974375E-16, 1.000000000000000000, -0.000000000000000000 ) ) ;
#226 = DIRECTION ( 'NONE',  ( -1.000000000000000000, 0.000000000000000000, 0.000000000000000000 ) ) ;
#227 = LENGTH_MEASURE_WITH_UNIT ( LENGTH_MEASURE( 0.02539999999999999897 ), #182 );
#228 = COLOUR_RGB ( '',0.7921568627450980005, 0.8196078431372548767, 0.9333333333333333481 ) ;
#229 = CARTESIAN_POINT ( 'NONE',  ( 2.859903368367275526E-16, 0.1082531754730542140, 0.000000000000000000 ) ) ;
#230 = APPLICATION_CONTEXT ( 'automotive_design' ) ;
#231 = PRESENTATION_LAYER_ASSIGNMENT (  '', '', ( #41 ) ) ;
#232 = FILL_AREA_STYLE_COLOUR ( '', #119 ) ;
#233 = ADVANCED_FACE ( 'NONE', ( #261 ), #197, .T. ) ;
#234 = AXIS2_PLACEMENT_3D ( 'NONE', #243, #3, #85 ) ;
#235 = LINE ( 'NONE', #137, #201 ) ;
#236 = CARTESIAN_POINT ( 'NONE',  ( 2.859903368367275526E-16, 0.1082531754730542140, 0.000000000000000000 ) ) ;
#237 = EDGE_LOOP ( 'NONE', ( #45, #196 ) ) ;
#238 = CONICAL_SURFACE ( 'NONE', #32, 68.19097667594041923, 1.047197551196600074 ) ;
#239 = DIMENSIONAL_EXPONENTS ( 1.000000000000000000, 0.000000000000000000, 0.000000000000000000, 0.000000000000000000, 0.000000000000000000, 0.000000000000000000, 0.000000000000000000 ) ;
#240 = ORIENTED_EDGE ( 'NONE', *, *, #185, .T. ) ;
#241 = ORIENTED_EDGE ( 'NONE', *, *, #222, .T. ) ;
#242 = CARTESIAN_POINT ( 'NONE',  ( -6.123233995736766036E-17, 2.500000000000000000, 0.000000000000000000 ) ) ;
#243 = CARTESIAN_POINT ( 'NONE',  ( -6.123233995736766036E-17, 2.500000000000000000, 0.000000000000000000 ) ) ;
#244 = LENGTH_MEASURE_WITH_UNIT ( LENGTH_MEASURE( 0.02539999999999999897 ), #121 );
#245 = CARTESIAN_POINT ( 'NONE',  ( -6.123233995736764803E-17, 2.500000000000000000, 0.000000000000000000 ) ) ;
#246 = SURFACE_SIDE_STYLE ('',( #184 ) ) ;
#247 = APPLICATION_PROTOCOL_DEFINITION ( 'draft international standard', 'automotive_design', 1998, #11 ) ;
#248 =( LENGTH_UNIT ( ) NAMED_UNIT ( * ) SI_UNIT ( $, .METRE. ) );
#249 =( GEOMETRIC_REPRESENTATION_CONTEXT ( 3 ) GLOBAL_UNCERTAINTY_ASSIGNED_CONTEXT ( ( #258 ) ) GLOBAL_UNIT_ASSIGNED_CONTEXT ( ( #209, #194, #40 ) ) REPRESENTATION_CONTEXT ( 'NONE', 'WORKASPACE' ) );
#250 = MANIFOLD_SOLID_BREP ( 'Revolve - Cutting Edge', #259 ) ;
#251 = EDGE_CURVE ( 'NONE', #255, #264, #96, .T. ) ;
#252 =( LENGTH_UNIT ( ) NAMED_UNIT ( * ) SI_UNIT ( $, .METRE. ) );
#253 = PRESENTATION_LAYER_ASSIGNMENT (  '', '', ( #100 ) ) ;
#254 = SURFACE_STYLE_USAGE ( .BOTH. , #97 ) ;
#255 = VERTEX_POINT ( 'NONE', #44 ) ;
#256 = DIRECTION ( 'NONE',  ( 7.270185627024815973E-18, 1.000000000000000000, 0.000000000000000000 ) ) ;
#257 = ORIENTED_EDGE ( 'NONE', *, *, #126, .T. ) ;
#258 = UNCERTAINTY_MEASURE_WITH_UNIT (LENGTH_MEASURE( 1.000000000000000082E-05 ), #209, 'distance_accuracy_value', 'NONE');
#259 = CLOSED_SHELL ( 'NONE', ( #145, #83, #92 ) ) ;
#260 = AXIS2_PLACEMENT_3D ( 'NONE', #242, #63, #220 ) ;
#261 = FACE_OUTER_BOUND ( 'NONE', #81, .T. ) ;
#262 = DIRECTION ( 'NONE',  ( -1.451753476719974375E-16, 1.000000000000000000, -0.000000000000000000 ) ) ;
#263 = ADVANCED_FACE ( 'NONE', ( #118 ), #99, .T. ) ;
#264 = VERTEX_POINT ( 'NONE', #169 ) ;
#265 =( NAMED_UNIT ( * ) SI_UNIT ( $, .STERADIAN. ) SOLID_ANGLE_UNIT ( ) );
ENDSEC;
END-ISO-10303-21;
