ISO-10303-21;
HEADER;
FILE_DESCRIPTION (( 'STEP AP214' ),
    '1' );
FILE_NAME ('49315.STEP',
    '2023-06-30T22:00:37',
    ( '' ),
    ( '' ),
    'SwSTEP 2.0',
    'SolidWorks 2023',
    '' );
FILE_SCHEMA (( 'AUTOMOTIVE_DESIGN' ));
ENDSEC;

DATA;
#1 = DIRECTION ( 'NONE',  ( 0.000000000000000000, 0.000000000000000000, 1.000000000000000000 ) ) ;
#2 =( NAMED_UNIT ( * ) SI_UNIT ( $, .STERADIAN. ) SOLID_ANGLE_UNIT ( ) );
#3 = CIRCLE ( 'NONE', #274, 0.2499999999999995282 ) ;
#4 = UNCERTAINTY_MEASURE_WITH_UNIT (LENGTH_MEASURE( 1.000000000000000082E-05 ), #68, 'distance_accuracy_value', 'NONE');
#5 = DIRECTION ( 'NONE',  ( -1.836970198721029441E-16, 1.000000000000000000, -0.000000000000000000 ) ) ;
#6 = EDGE_LOOP ( 'NONE', ( #89, #142 ) ) ;
#7 = CARTESIAN_POINT ( 'NONE',  ( 0.000000000000000000, 2.000000000000000000, 0.000000000000000000 ) ) ;
#8 = DIRECTION ( 'NONE',  ( -0.000000000000000000, -1.000000000000000000, -0.000000000000000000 ) ) ;
#9 = DIMENSIONAL_EXPONENTS ( 1.000000000000000000, 0.000000000000000000, 0.000000000000000000, 0.000000000000000000, 0.000000000000000000, 0.000000000000000000, 0.000000000000000000 ) ;
#10 =( LENGTH_UNIT ( ) NAMED_UNIT ( * ) SI_UNIT ( $, .METRE. ) );
#11 =( GEOMETRIC_REPRESENTATION_CONTEXT ( 3 ) GLOBAL_UNCERTAINTY_ASSIGNED_CONTEXT ( ( #342 ) ) GLOBAL_UNIT_ASSIGNED_CONTEXT ( ( #71, #44, #242 ) ) REPRESENTATION_CONTEXT ( 'NONE', 'WORKASPACE' ) );
#12 = ORIENTED_EDGE ( 'NONE', *, *, #194, .T. ) ;
#13 = DIRECTION ( 'NONE',  ( 0.000000000000000000, 0.000000000000000000, -1.000000000000000000 ) ) ;
#14 = EDGE_LOOP ( 'NONE', ( #322, #104, #114, #168 ) ) ;
#15 = DIRECTION ( 'NONE',  ( -1.836970198721029441E-16, 1.000000000000000000, -0.000000000000000000 ) ) ;
#16 = LENGTH_MEASURE_WITH_UNIT ( LENGTH_MEASURE( 0.02539999999999999897 ), #207 );
#17 = SURFACE_STYLE_FILL_AREA ( #143 ) ;
#18 = EDGE_CURVE ( 'NONE', #298, #219, #170, .T. ) ;
#19 = DIRECTION ( 'NONE',  ( 0.000000000000000000, 0.000000000000000000, -1.000000000000000000 ) ) ;
#20 = PRESENTATION_LAYER_ASSIGNMENT (  '', '', ( #236 ) ) ;
#21 = AXIS2_PLACEMENT_3D ( 'NONE', #195, #371, #31 ) ;
#22 = LENGTH_MEASURE_WITH_UNIT ( LENGTH_MEASURE( 0.02539999999999999897 ), #305 );
#23 = DIRECTION ( 'NONE',  ( -1.000000000000000000, 0.000000000000000000, 0.000000000000000000 ) ) ;
#24 = DIRECTION ( 'NONE',  ( -1.836970198721029441E-16, 1.000000000000000000, -0.000000000000000000 ) ) ;
#25 = CARTESIAN_POINT ( 'NONE',  ( -1.224646799147352714E-16, 4.000000000000000000, 0.000000000000000000 ) ) ;
#26 = ADVANCED_FACE ( 'NONE', ( #93 ), #75, .T. ) ;
#27 = SURFACE_STYLE_USAGE ( .BOTH. , #80 ) ;
#28 = AXIS2_PLACEMENT_3D ( 'NONE', #103, #132, #105 ) ;
#29 = AXIS2_PLACEMENT_3D ( 'NONE', #122, #24, #249 ) ;
#30 =( CONVERSION_BASED_UNIT ( 'INCH', #183 ) LENGTH_UNIT ( ) NAMED_UNIT ( #37 ) );
#31 = DIRECTION ( 'NONE',  ( 0.000000000000000000, 0.000000000000000000, -1.000000000000000000 ) ) ;
#32 =( LENGTH_UNIT ( ) NAMED_UNIT ( * ) SI_UNIT ( $, .METRE. ) );
#33 =( NAMED_UNIT ( * ) SI_UNIT ( $, .STERADIAN. ) SOLID_ANGLE_UNIT ( ) );
#34 = PRESENTATION_LAYER_ASSIGNMENT (  '', '', ( #59 ) ) ;
#35 = UNCERTAINTY_MEASURE_WITH_UNIT (LENGTH_MEASURE( 1.000000000000000082E-05 ), #367, 'distance_accuracy_value', 'NONE');
#36 = LINE ( 'NONE', #88, #350 ) ;
#37 = DIMENSIONAL_EXPONENTS ( 1.000000000000000000, 0.000000000000000000, 0.000000000000000000, 0.000000000000000000, 0.000000000000000000, 0.000000000000000000, 0.000000000000000000 ) ;
#38 = CARTESIAN_POINT ( 'NONE',  ( 0.000000000000000000, 2.000000000000000000, -0.2499999999999997502 ) ) ;
#39 = CARTESIAN_POINT ( 'NONE',  ( 0.000000000000000000, 2.000000000000000000, 0.000000000000000000 ) ) ;
#40 = MECHANICAL_DESIGN_GEOMETRIC_PRESENTATION_REPRESENTATION (  '', ( #167 ), #123 ) ;
#41 = PRODUCT_DEFINITION_FORMATION_WITH_SPECIFIED_SOURCE ( 'ANY', '', #74, .NOT_KNOWN. ) ;
#42 = ORIENTED_EDGE ( 'NONE', *, *, #260, .T. ) ;
#43 = PRESENTATION_STYLE_ASSIGNMENT (( #232 ) ) ;
#44 =( NAMED_UNIT ( * ) PLANE_ANGLE_UNIT ( ) SI_UNIT ( $, .RADIAN. ) );
#45 = CARTESIAN_POINT ( 'NONE',  ( 0.2499999999999995837, 4.000000000000000000, 3.061616997868379320E-17 ) ) ;
#46 = FILL_AREA_STYLE ('',( #235 ) ) ;
#47 = LENGTH_MEASURE_WITH_UNIT ( LENGTH_MEASURE( 0.02539999999999999897 ), #52 );
#48 = MECHANICAL_DESIGN_GEOMETRIC_PRESENTATION_REPRESENTATION (  '', ( #370 ), #78 ) ;
#49 = FACE_OUTER_BOUND ( 'NONE', #327, .T. ) ;
#50 = EDGE_CURVE ( 'NONE', #206, #298, #53, .T. ) ;
#51 =( NAMED_UNIT ( * ) SI_UNIT ( $, .STERADIAN. ) SOLID_ANGLE_UNIT ( ) );
#52 =( LENGTH_UNIT ( ) NAMED_UNIT ( * ) SI_UNIT ( $, .METRE. ) );
#53 = CIRCLE ( 'NONE', #208, 0.2499999999999997502 ) ;
#54 = CIRCLE ( 'NONE', #107, 0.2500000000000000000 ) ;
#55 = FILL_AREA_STYLE ('',( #218 ) ) ;
#56 = CARTESIAN_POINT ( 'NONE',  ( 0.000000000000000000, 0.2500000000000000555, -0.2500000000000000000 ) ) ;
#57 = DIMENSIONAL_EXPONENTS ( 1.000000000000000000, 0.000000000000000000, 0.000000000000000000, 0.000000000000000000, 0.000000000000000000, 0.000000000000000000, 0.000000000000000000 ) ;
#58 = SURFACE_STYLE_FILL_AREA ( #61 ) ;
#59 = STYLED_ITEM ( 'NONE', ( #354 ), #26 ) ;
#60 = UNCERTAINTY_MEASURE_WITH_UNIT (LENGTH_MEASURE( 1.000000000000000082E-05 ), #179, 'distance_accuracy_value', 'NONE');
#61 = FILL_AREA_STYLE ('',( #108 ) ) ;
#62 = CARTESIAN_POINT ( 'NONE',  ( 0.000000000000000000, 0.2500000000000000555, 0.000000000000000000 ) ) ;
#63 = AXIS2_PLACEMENT_3D ( 'NONE', #62, #141, #112 ) ;
#64 = DIRECTION ( 'NONE',  ( -1.000000000000000000, 0.000000000000000000, 0.000000000000000000 ) ) ;
#65 = ORIENTED_EDGE ( 'NONE', *, *, #291, .T. ) ;
#66 = DIRECTION ( 'NONE',  ( -0.000000000000000000, -1.000000000000000000, -0.000000000000000000 ) ) ;
#67 = VERTEX_POINT ( 'NONE', #245 ) ;
#68 =( CONVERSION_BASED_UNIT ( 'INCH', #234 ) LENGTH_UNIT ( ) NAMED_UNIT ( #227 ) );
#69 = VERTEX_POINT ( 'NONE', #361 ) ;
#70 = DIRECTION ( 'NONE',  ( 0.000000000000000000, 0.000000000000000000, -1.000000000000000000 ) ) ;
#71 =( CONVERSION_BASED_UNIT ( 'INCH', #16 ) LENGTH_UNIT ( ) NAMED_UNIT ( #261 ) );
#72 = MANIFOLD_SOLID_BREP ( 'Revolve - Cutting Edge', #266 ) ;
#73 = DIRECTION ( 'NONE',  ( -0.000000000000000000, -1.000000000000000000, -0.000000000000000000 ) ) ;
#74 = PRODUCT ( '49315', '49315', '', ( #79 ) ) ;
#75 = CYLINDRICAL_SURFACE ( 'NONE', #157, 0.2499999999999998612 ) ;
#76 = CARTESIAN_POINT ( 'NONE',  ( -1.224646799147352714E-16, 4.000000000000000000, 0.000000000000000000 ) ) ;
#77 =( LENGTH_UNIT ( ) NAMED_UNIT ( * ) SI_UNIT ( $, .METRE. ) );
#78 =( GEOMETRIC_REPRESENTATION_CONTEXT ( 3 ) GLOBAL_UNCERTAINTY_ASSIGNED_CONTEXT ( ( #139 ) ) GLOBAL_UNIT_ASSIGNED_CONTEXT ( ( #288, #345, #33 ) ) REPRESENTATION_CONTEXT ( 'NONE', 'WORKASPACE' ) );
#79 = PRODUCT_CONTEXT ( 'NONE', #186, 'mechanical' ) ;
#80 = SURFACE_SIDE_STYLE ('',( #190 ) ) ;
#81 = DIRECTION ( 'NONE',  ( 1.000000000000000000, 0.000000000000000000, 0.000000000000000000 ) ) ;
#82 = SURFACE_STYLE_USAGE ( .BOTH. , #315 ) ;
#83 = SURFACE_STYLE_FILL_AREA ( #86 ) ;
#84 = EDGE_CURVE ( 'NONE', #294, #151, #293, .T. ) ;
#85 = MECHANICAL_DESIGN_GEOMETRIC_PRESENTATION_REPRESENTATION (  '', ( #236 ), #256 ) ;
#86 = FILL_AREA_STYLE ('',( #198 ) ) ;
#87 = DIRECTION ( 'NONE',  ( -1.000000000000000000, 0.000000000000000000, 0.000000000000000000 ) ) ;
#88 = CARTESIAN_POINT ( 'NONE',  ( -0.2499999999999998612, 4.000000000000000000, 0.000000000000000000 ) ) ;
#89 = ORIENTED_EDGE ( 'NONE', *, *, #84, .T. ) ;
#90 = ADVANCED_FACE ( 'NONE', ( #368 ), #313, .F. ) ;
#91 = AXIS2_PLACEMENT_3D ( 'NONE', #101, #216, #81 ) ;
#92 = SURFACE_STYLE_USAGE ( .BOTH. , #351 ) ;
#93 = FACE_OUTER_BOUND ( 'NONE', #296, .T. ) ;
#94 = SURFACE_STYLE_FILL_AREA ( #241 ) ;
#95 = COLOUR_RGB ( '',1.000000000000000000, 0.000000000000000000, 0.000000000000000000 ) ;
#96 = ORIENTED_EDGE ( 'NONE', *, *, #309, .T. ) ;
#97 = DIRECTION ( 'NONE',  ( 0.000000000000000000, 0.000000000000000000, -1.000000000000000000 ) ) ;
#98 = VECTOR ( 'NONE', #174, 39.37007874015748143 ) ;
#99 = AXIS2_PLACEMENT_3D ( 'NONE', #220, #246, #23 ) ;
#100 =( GEOMETRIC_REPRESENTATION_CONTEXT ( 3 ) GLOBAL_UNCERTAINTY_ASSIGNED_CONTEXT ( ( #35 ) ) GLOBAL_UNIT_ASSIGNED_CONTEXT ( ( #367, #128, #211 ) ) REPRESENTATION_CONTEXT ( 'NONE', 'WORKASPACE' ) );
#101 = CARTESIAN_POINT ( 'NONE',  ( 0.000000000000000000, 0.000000000000000000, 0.000000000000000000 ) ) ;
#102 =( NAMED_UNIT ( * ) PLANE_ANGLE_UNIT ( ) SI_UNIT ( $, .RADIAN. ) );
#103 = CARTESIAN_POINT ( 'NONE',  ( -3.061616997868383018E-17, 0.2500000000000000000, 0.000000000000000000 ) ) ;
#104 = ORIENTED_EDGE ( 'NONE', *, *, #175, .T. ) ;
#105 = DIRECTION ( 'NONE',  ( 1.000000000000000000, 0.000000000000000000, -1.224646799147353207E-16 ) ) ;
#106 = AXIS2_PLACEMENT_3D ( 'NONE', #362, #184, #283 ) ;
#107 = AXIS2_PLACEMENT_3D ( 'NONE', #299, #66, #237 ) ;
#108 = FILL_AREA_STYLE_COLOUR ( '', #272 ) ;
#109 = PRESENTATION_LAYER_ASSIGNMENT (  '', '', ( #167 ) ) ;
#110 = CARTESIAN_POINT ( 'NONE',  ( -3.061616997868383018E-17, 0.2500000000000000000, 0.000000000000000000 ) ) ;
#111 = ADVANCED_FACE ( 'NONE', ( #49 ), #281, .T. ) ;
#112 = DIRECTION ( 'NONE',  ( 0.000000000000000000, 0.000000000000000000, -1.000000000000000000 ) ) ;
#113 = ORIENTED_EDGE ( 'NONE', *, *, #318, .T. ) ;
#114 = ORIENTED_EDGE ( 'NONE', *, *, #326, .T. ) ;
#115 = VECTOR ( 'NONE', #173, 39.37007874015748143 ) ;
#116 = CARTESIAN_POINT ( 'NONE',  ( -3.061616997868383018E-17, 0.2500000000000000000, 0.000000000000000000 ) ) ;
#117 = ORIENTED_EDGE ( 'NONE', *, *, #357, .F. ) ;
#118 = CARTESIAN_POINT ( 'NONE',  ( -0.2500000000000001110, 4.000000000000000000, 0.000000000000000000 ) ) ;
#119 = ORIENTED_EDGE ( 'NONE', *, *, #326, .F. ) ;
#120 = FACE_OUTER_BOUND ( 'NONE', #278, .T. ) ;
#121 = APPLICATION_CONTEXT ( 'automotive_design' ) ;
#122 = CARTESIAN_POINT ( 'NONE',  ( 2.449293598294706414E-16, 2.000000000000000000, 0.000000000000000000 ) ) ;
#123 =( GEOMETRIC_REPRESENTATION_CONTEXT ( 3 ) GLOBAL_UNCERTAINTY_ASSIGNED_CONTEXT ( ( #136 ) ) GLOBAL_UNIT_ASSIGNED_CONTEXT ( ( #292, #262, #2 ) ) REPRESENTATION_CONTEXT ( 'NONE', 'WORKASPACE' ) );
#124 = ORIENTED_EDGE ( 'NONE', *, *, #140, .T. ) ;
#125 = CARTESIAN_POINT ( 'NONE',  ( 2.449293598294706414E-16, 2.000000000000000000, 0.000000000000000000 ) ) ;
#126 = FACE_OUTER_BOUND ( 'NONE', #310, .T. ) ;
#127 = PRESENTATION_STYLE_ASSIGNMENT (( #275 ) ) ;
#128 =( NAMED_UNIT ( * ) PLANE_ANGLE_UNIT ( ) SI_UNIT ( $, .RADIAN. ) );
#129 =( NAMED_UNIT ( * ) SI_UNIT ( $, .STERADIAN. ) SOLID_ANGLE_UNIT ( ) );
#130 = AXIS2_PLACEMENT_3D ( 'NONE', #7, #297, #152 ) ;
#131 = DIRECTION ( 'NONE',  ( -1.000000000000000000, 0.000000000000000000, 0.000000000000000000 ) ) ;
#132 = DIRECTION ( 'NONE',  ( 1.224646799147353207E-16, -0.000000000000000000, 1.000000000000000000 ) ) ;
#133 = PRESENTATION_LAYER_ASSIGNMENT (  '', '', ( #201 ) ) ;
#134 = ORIENTED_EDGE ( 'NONE', *, *, #175, .F. ) ;
#135 = DIMENSIONAL_EXPONENTS ( 1.000000000000000000, 0.000000000000000000, 0.000000000000000000, 0.000000000000000000, 0.000000000000000000, 0.000000000000000000, 0.000000000000000000 ) ;
#136 = UNCERTAINTY_MEASURE_WITH_UNIT (LENGTH_MEASURE( 1.000000000000000082E-05 ), #292, 'distance_accuracy_value', 'NONE');
#137 = DIMENSIONAL_EXPONENTS ( 1.000000000000000000, 0.000000000000000000, 0.000000000000000000, 0.000000000000000000, 0.000000000000000000, 0.000000000000000000, 0.000000000000000000 ) ;
#138 = MECHANICAL_DESIGN_GEOMETRIC_PRESENTATION_REPRESENTATION (  '', ( #201 ), #196 ) ;
#139 = UNCERTAINTY_MEASURE_WITH_UNIT (LENGTH_MEASURE( 1.000000000000000082E-05 ), #288, 'distance_accuracy_value', 'NONE');
#140 = EDGE_CURVE ( 'NONE', #366, #199, #163, .T. ) ;
#141 = DIRECTION ( 'NONE',  ( -0.000000000000000000, -1.000000000000000000, -0.000000000000000000 ) ) ;
#142 = ORIENTED_EDGE ( 'NONE', *, *, #210, .T. ) ;
#143 = FILL_AREA_STYLE ('',( #323 ) ) ;
#144 = CARTESIAN_POINT ( 'NONE',  ( 0.000000000000000000, 0.000000000000000000, 0.000000000000000000 ) ) ;
#145 = ADVANCED_FACE ( 'NONE', ( #336 ), #214, .T. ) ;
#146 = SPHERICAL_SURFACE ( 'NONE', #226, 0.2500000000000000000 ) ;
#147 = ORIENTED_EDGE ( 'NONE', *, *, #276, .F. ) ;
#148 = COLOUR_RGB ( '',0.7921568627450980005, 0.8196078431372548767, 0.9333333333333333481 ) ;
#149 = CARTESIAN_POINT ( 'NONE',  ( 0.000000000000000000, 0.2500000000000000555, 0.000000000000000000 ) ) ;
#150 = ORIENTED_EDGE ( 'NONE', *, *, #221, .F. ) ;
#151 = VERTEX_POINT ( 'NONE', #365 ) ;
#152 = DIRECTION ( 'NONE',  ( 0.000000000000000000, -0.000000000000000000, 1.000000000000000000 ) ) ;
#153 = VECTOR ( 'NONE', #166, 39.37007874015748143 ) ;
#154 = DIRECTION ( 'NONE',  ( -1.836970198721029441E-16, 1.000000000000000000, 0.000000000000000000 ) ) ;
#155 = FILL_AREA_STYLE_COLOUR ( '', #279 ) ;
#156 = CYLINDRICAL_SURFACE ( 'NONE', #273, 0.2499999999999997224 ) ;
#157 = AXIS2_PLACEMENT_3D ( 'NONE', #144, #332, #177 ) ;
#158 =( NAMED_UNIT ( * ) SI_UNIT ( $, .STERADIAN. ) SOLID_ANGLE_UNIT ( ) );
#159 = PRESENTATION_STYLE_ASSIGNMENT (( #27 ) ) ;
#160 = PRESENTATION_STYLE_ASSIGNMENT (( #82 ) ) ;
#161 = VERTEX_POINT ( 'NONE', #165 ) ;
#162 = UNCERTAINTY_MEASURE_WITH_UNIT (LENGTH_MEASURE( 1.000000000000000082E-05 ), #30, 'distance_accuracy_value', 'NONE');
#163 = CIRCLE ( 'NONE', #28, 0.2500000000000000000 ) ;
#164 = STYLED_ITEM ( 'NONE', ( #43 ), #307 ) ;
#165 = CARTESIAN_POINT ( 'NONE',  ( 3.061616997868383018E-17, 0.2500000000000000555, 0.2499999999999999722 ) ) ;
#166 = DIRECTION ( 'NONE',  ( -0.000000000000000000, -1.000000000000000000, -0.000000000000000000 ) ) ;
#167 = STYLED_ITEM ( 'NONE', ( #259 ), #185 ) ;
#168 = ORIENTED_EDGE ( 'NONE', *, *, #276, .T. ) ;
#169 = DIRECTION ( 'NONE',  ( -1.000000000000000000, 0.000000000000000000, 0.000000000000000000 ) ) ;
#170 = LINE ( 'NONE', #302, #98 ) ;
#171 = DIRECTION ( 'NONE',  ( 1.000000000000000000, 0.000000000000000000, 0.000000000000000000 ) ) ;
#172 = ORIENTED_EDGE ( 'NONE', *, *, #50, .F. ) ;
#173 = DIRECTION ( 'NONE',  ( -1.836970198721029441E-16, 1.000000000000000000, -0.000000000000000000 ) ) ;
#174 = DIRECTION ( 'NONE',  ( -0.000000000000000000, -1.000000000000000000, -0.000000000000000000 ) ) ;
#175 = EDGE_CURVE ( 'NONE', #366, #219, #316, .T. ) ;
#176 = PRESENTATION_STYLE_ASSIGNMENT (( #331 ) ) ;
#177 = DIRECTION ( 'NONE',  ( 0.000000000000000000, 0.000000000000000000, -1.000000000000000000 ) ) ;
#178 = PLANE ( 'NONE',  #192 ) ;
#179 =( CONVERSION_BASED_UNIT ( 'INCH', #47 ) LENGTH_UNIT ( ) NAMED_UNIT ( #9 ) );
#180 = CLOSED_SHELL ( 'NONE', ( #347, #372, #111, #90 ) ) ;
#181 = CARTESIAN_POINT ( 'NONE',  ( 0.000000000000000000, 0.000000000000000000, 0.000000000000000000 ) ) ;
#182 = AXIS2_PLACEMENT_3D ( 'NONE', #181, #282, #97 ) ;
#183 = LENGTH_MEASURE_WITH_UNIT ( LENGTH_MEASURE( 0.02539999999999999897 ), #77 );
#184 = DIRECTION ( 'NONE',  ( 1.836970198721029441E-16, -1.000000000000000000, 0.000000000000000000 ) ) ;
#185 = MANIFOLD_SOLID_BREP ( 'Revolve - Tool Body (Straight Shanked)', #180 ) ;
#186 = APPLICATION_CONTEXT ( 'automotive_design' ) ;
#187 = APPLICATION_PROTOCOL_DEFINITION ( 'draft international standard', 'automotive_design', 1998, #121 ) ;
#188 = ORIENTED_EDGE ( 'NONE', *, *, #291, .F. ) ;
#189 = SHAPE_DEFINITION_REPRESENTATION ( #355, #334 ) ;
#190 = SURFACE_STYLE_FILL_AREA ( #55 ) ;
#191 = AXIS2_PLACEMENT_3D ( 'NONE', #110, #1, #197 ) ;
#192 = AXIS2_PLACEMENT_3D ( 'NONE', #125, #154, #244 ) ;
#193 = DIMENSIONAL_EXPONENTS ( 1.000000000000000000, 0.000000000000000000, 0.000000000000000000, 0.000000000000000000, 0.000000000000000000, 0.000000000000000000, 0.000000000000000000 ) ;
#194 = EDGE_CURVE ( 'NONE', #206, #161, #346, .T. ) ;
#195 = CARTESIAN_POINT ( 'NONE',  ( 0.000000000000000000, 0.2500000000000000555, 0.000000000000000000 ) ) ;
#196 =( GEOMETRIC_REPRESENTATION_CONTEXT ( 3 ) GLOBAL_UNCERTAINTY_ASSIGNED_CONTEXT ( ( #290 ) ) GLOBAL_UNIT_ASSIGNED_CONTEXT ( ( #213, #102, #158 ) ) REPRESENTATION_CONTEXT ( 'NONE', 'WORKASPACE' ) );
#197 = DIRECTION ( 'NONE',  ( 1.000000000000000000, 0.000000000000000000, 0.000000000000000000 ) ) ;
#198 = FILL_AREA_STYLE_COLOUR ( '', #148 ) ;
#199 = VERTEX_POINT ( 'NONE', #231 ) ;
#200 = PRESENTATION_LAYER_ASSIGNMENT (  '', '', ( #370 ) ) ;
#201 = STYLED_ITEM ( 'NONE', ( #176 ), #337 ) ;
#202 = DIRECTION ( 'NONE',  ( 0.000000000000000000, 0.000000000000000000, -1.000000000000000000 ) ) ;
#203 = EDGE_LOOP ( 'NONE', ( #96, #42, #228, #188 ) ) ;
#204 = PRODUCT_DEFINITION ( 'UNKNOWN', '', #41, #264 ) ;
#205 = CYLINDRICAL_SURFACE ( 'NONE', #182, 0.2499999999999998612 ) ;
#206 = VERTEX_POINT ( 'NONE', #341 ) ;
#207 =( LENGTH_UNIT ( ) NAMED_UNIT ( * ) SI_UNIT ( $, .METRE. ) );
#208 = AXIS2_PLACEMENT_3D ( 'NONE', #270, #8, #19 ) ;
#209 = SURFACE_SIDE_STYLE ('',( #94 ) ) ;
#210 = EDGE_CURVE ( 'NONE', #151, #294, #339, .T. ) ;
#211 =( NAMED_UNIT ( * ) SI_UNIT ( $, .STERADIAN. ) SOLID_ANGLE_UNIT ( ) );
#212 = ORIENTED_EDGE ( 'NONE', *, *, #18, .T. ) ;
#213 =( CONVERSION_BASED_UNIT ( 'INCH', #22 ) LENGTH_UNIT ( ) NAMED_UNIT ( #57 ) );
#214 = SPHERICAL_SURFACE ( 'NONE', #191, 0.2500000000000000000 ) ;
#215 = AXIS2_PLACEMENT_3D ( 'NONE', #116, #70, #169 ) ;
#216 = DIRECTION ( 'NONE',  ( 0.000000000000000000, 0.000000000000000000, 1.000000000000000000 ) ) ;
#217 = APPLICATION_PROTOCOL_DEFINITION ( 'draft international standard', 'automotive_design', 1998, #186 ) ;
#218 = FILL_AREA_STYLE_COLOUR ( '', #349 ) ;
#219 = VERTEX_POINT ( 'NONE', #56 ) ;
#220 = CARTESIAN_POINT ( 'NONE',  ( -1.224646799147352468E-16, 4.000000000000000000, 0.000000000000000000 ) ) ;
#221 = EDGE_CURVE ( 'NONE', #161, #366, #223, .T. ) ;
#222 = ORIENTED_EDGE ( 'NONE', *, *, #50, .T. ) ;
#223 = CIRCLE ( 'NONE', #63, 0.2500000000000000000 ) ;
#224 = SURFACE_SIDE_STYLE ('',( #308 ) ) ;
#225 = AXIS2_PLACEMENT_3D ( 'NONE', #343, #5, #87 ) ;
#226 = AXIS2_PLACEMENT_3D ( 'NONE', #239, #356, #171 ) ;
#227 = DIMENSIONAL_EXPONENTS ( 1.000000000000000000, 0.000000000000000000, 0.000000000000000000, 0.000000000000000000, 0.000000000000000000, 0.000000000000000000, 0.000000000000000000 ) ;
#228 = ORIENTED_EDGE ( 'NONE', *, *, #84, .F. ) ;
#229 = ADVANCED_FACE ( 'NONE', ( #340 ), #317, .T. ) ;
#230 = LENGTH_MEASURE_WITH_UNIT ( LENGTH_MEASURE( 0.02539999999999999897 ), #32 );
#231 = CARTESIAN_POINT ( 'NONE',  ( -1.530808498934191509E-17, 0.000000000000000000, 0.000000000000000000 ) ) ;
#232 = SURFACE_STYLE_USAGE ( .BOTH. , #301 ) ;
#233 = ORIENTED_EDGE ( 'NONE', *, *, #18, .F. ) ;
#234 = LENGTH_MEASURE_WITH_UNIT ( LENGTH_MEASURE( 0.02539999999999999897 ), #10 );
#235 = FILL_AREA_STYLE_COLOUR ( '', #271 ) ;
#236 = STYLED_ITEM ( 'NONE', ( #159 ), #72 ) ;
#237 = DIRECTION ( 'NONE',  ( 0.000000000000000000, 0.000000000000000000, -1.000000000000000000 ) ) ;
#238 = ORIENTED_EDGE ( 'NONE', *, *, #253, .F. ) ;
#239 = CARTESIAN_POINT ( 'NONE',  ( -3.061616997868383018E-17, 0.2500000000000000000, 0.000000000000000000 ) ) ;
#240 = VERTEX_POINT ( 'NONE', #269 ) ;
#241 = FILL_AREA_STYLE ('',( #325 ) ) ;
#242 =( NAMED_UNIT ( * ) SI_UNIT ( $, .STERADIAN. ) SOLID_ANGLE_UNIT ( ) );
#243 = STYLED_ITEM ( 'NONE', ( #127 ), #145 ) ;
#244 = DIRECTION ( 'NONE',  ( -1.000000000000000000, -1.836970198721029441E-16, 0.000000000000000000 ) ) ;
#245 = CARTESIAN_POINT ( 'NONE',  ( 0.2500000000000000000, 0.2500000000000000555, 0.000000000000000000 ) ) ;
#246 = DIRECTION ( 'NONE',  ( -1.836970198721029441E-16, 1.000000000000000000, -0.000000000000000000 ) ) ;
#247 = LENGTH_MEASURE_WITH_UNIT ( LENGTH_MEASURE( 0.02539999999999999897 ), #338 );
#248 =( NAMED_UNIT ( * ) PLANE_ANGLE_UNIT ( ) SI_UNIT ( $, .RADIAN. ) );
#249 = DIRECTION ( 'NONE',  ( -1.000000000000000000, 0.000000000000000000, 0.000000000000000000 ) ) ;
#250 = DIRECTION ( 'NONE',  ( -1.000000000000000000, 0.000000000000000000, 0.000000000000000000 ) ) ;
#251 = ORIENTED_EDGE ( 'NONE', *, *, #309, .F. ) ;
#252 = CARTESIAN_POINT ( 'NONE',  ( -0.2500000000000000000, 0.2500000000000000555, 3.061616997868382402E-17 ) ) ;
#253 = EDGE_CURVE ( 'NONE', #298, #206, #330, .T. ) ;
#254 =( NAMED_UNIT ( * ) PLANE_ANGLE_UNIT ( ) SI_UNIT ( $, .RADIAN. ) );
#255 = FILL_AREA_STYLE ('',( #155 ) ) ;
#256 =( GEOMETRIC_REPRESENTATION_CONTEXT ( 3 ) GLOBAL_UNCERTAINTY_ASSIGNED_CONTEXT ( ( #162 ) ) GLOBAL_UNIT_ASSIGNED_CONTEXT ( ( #30, #254, #129 ) ) REPRESENTATION_CONTEXT ( 'NONE', 'WORKASPACE' ) );
#257 =( LENGTH_UNIT ( ) NAMED_UNIT ( * ) SI_UNIT ( $, .METRE. ) );
#258 =( GEOMETRIC_REPRESENTATION_CONTEXT ( 3 ) GLOBAL_UNCERTAINTY_ASSIGNED_CONTEXT ( ( #4 ) ) GLOBAL_UNIT_ASSIGNED_CONTEXT ( ( #68, #328, #348 ) ) REPRESENTATION_CONTEXT ( 'NONE', 'WORKASPACE' ) );
#259 = PRESENTATION_STYLE_ASSIGNMENT (( #289 ) ) ;
#260 = EDGE_CURVE ( 'NONE', #240, #151, #295, .T. ) ;
#261 = DIMENSIONAL_EXPONENTS ( 1.000000000000000000, 0.000000000000000000, 0.000000000000000000, 0.000000000000000000, 0.000000000000000000, 0.000000000000000000, 0.000000000000000000 ) ;
#262 =( NAMED_UNIT ( * ) PLANE_ANGLE_UNIT ( ) SI_UNIT ( $, .RADIAN. ) );
#263 = PRESENTATION_LAYER_ASSIGNMENT (  '', '', ( #164 ) ) ;
#264 = PRODUCT_DEFINITION_CONTEXT ( 'detailed design', #121, 'design' ) ;
#265 = SURFACE_STYLE_FILL_AREA ( #46 ) ;
#266 = CLOSED_SHELL ( 'NONE', ( #145, #337, #229, #26, #307 ) ) ;
#267 = PRESENTATION_LAYER_ASSIGNMENT (  '', '', ( #243 ) ) ;
#268 = CARTESIAN_POINT ( 'NONE',  ( 2.449293598294706414E-16, 2.000000000000000000, 0.000000000000000000 ) ) ;
#269 = CARTESIAN_POINT ( 'NONE',  ( 0.2499999999999997502, 2.000000000000000000, 3.061616997868381169E-17 ) ) ;
#270 = CARTESIAN_POINT ( 'NONE',  ( 0.000000000000000000, 2.000000000000000000, 0.000000000000000000 ) ) ;
#271 = COLOUR_RGB ( '',1.000000000000000000, 0.000000000000000000, 0.000000000000000000 ) ;
#272 = COLOUR_RGB ( '',1.000000000000000000, 0.000000000000000000, 0.000000000000000000 ) ;
#273 = AXIS2_PLACEMENT_3D ( 'NONE', #76, #306, #131 ) ;
#274 = AXIS2_PLACEMENT_3D ( 'NONE', #268, #15, #64 ) ;
#275 = SURFACE_STYLE_USAGE ( .BOTH. , #224 ) ;
#276 = EDGE_CURVE ( 'NONE', #67, #199, #335, .T. ) ;
#277 = DIRECTION ( 'NONE',  ( -1.836970198721029441E-16, 1.000000000000000000, -0.000000000000000000 ) ) ;
#278 = EDGE_LOOP ( 'NONE', ( #329, #12, #320, #119, #233 ) ) ;
#279 = COLOUR_RGB ( '',1.000000000000000000, 0.000000000000000000, 0.000000000000000000 ) ;
#280 = COLOUR_RGB ( '',1.000000000000000000, 0.000000000000000000, 0.000000000000000000 ) ;
#281 = CYLINDRICAL_SURFACE ( 'NONE', #321, 0.2499999999999997224 ) ;
#282 = DIRECTION ( 'NONE',  ( -0.000000000000000000, -1.000000000000000000, -0.000000000000000000 ) ) ;
#283 = DIRECTION ( 'NONE',  ( 1.000000000000000000, 1.836970198721029441E-16, 0.000000000000000000 ) ) ;
#284 = SURFACE_SIDE_STYLE ('',( #83 ) ) ;
#285 = ORIENTED_EDGE ( 'NONE', *, *, #221, .T. ) ;
#286 = AXIS2_PLACEMENT_3D ( 'NONE', #39, #303, #13 ) ;
#287 = CIRCLE ( 'NONE', #363, 0.2500000000000000000 ) ;
#288 =( CONVERSION_BASED_UNIT ( 'INCH', #230 ) LENGTH_UNIT ( ) NAMED_UNIT ( #193 ) );
#289 = SURFACE_STYLE_USAGE ( .BOTH. , #284 ) ;
#290 = UNCERTAINTY_MEASURE_WITH_UNIT (LENGTH_MEASURE( 1.000000000000000082E-05 ), #213, 'distance_accuracy_value', 'NONE');
#291 = EDGE_CURVE ( 'NONE', #69, #294, #36, .T. ) ;
#292 =( CONVERSION_BASED_UNIT ( 'INCH', #314 ) LENGTH_UNIT ( ) NAMED_UNIT ( #135 ) );
#293 = CIRCLE ( 'NONE', #99, 0.2499999999999999722 ) ;
#294 = VERTEX_POINT ( 'NONE', #118 ) ;
#295 = LINE ( 'NONE', #45, #115 ) ;
#296 = EDGE_LOOP ( 'NONE', ( #304, #222, #212, #134, #150 ) ) ;
#297 = DIRECTION ( 'NONE',  ( 0.000000000000000000, 1.000000000000000000, 0.000000000000000000 ) ) ;
#298 = VERTEX_POINT ( 'NONE', #38 ) ;
#299 = CARTESIAN_POINT ( 'NONE',  ( 0.000000000000000000, 0.2500000000000000555, 0.000000000000000000 ) ) ;
#300 = ORIENTED_EDGE ( 'NONE', *, *, #357, .T. ) ;
#301 = SURFACE_SIDE_STYLE ('',( #17 ) ) ;
#302 = CARTESIAN_POINT ( 'NONE',  ( 0.000000000000000000, 0.000000000000000000, -0.2499999999999998612 ) ) ;
#303 = DIRECTION ( 'NONE',  ( -0.000000000000000000, -1.000000000000000000, -0.000000000000000000 ) ) ;
#304 = ORIENTED_EDGE ( 'NONE', *, *, #194, .F. ) ;
#305 =( LENGTH_UNIT ( ) NAMED_UNIT ( * ) SI_UNIT ( $, .METRE. ) );
#306 = DIRECTION ( 'NONE',  ( -1.836970198721029441E-16, 1.000000000000000000, -0.000000000000000000 ) ) ;
#307 = ADVANCED_FACE ( 'NONE', ( #352 ), #146, .T. ) ;
#308 = SURFACE_STYLE_FILL_AREA ( #255 ) ;
#309 = EDGE_CURVE ( 'NONE', #69, #240, #3, .T. ) ;
#310 = EDGE_LOOP ( 'NONE', ( #251, #117 ) ) ;
#311 = MECHANICAL_DESIGN_GEOMETRIC_PRESENTATION_REPRESENTATION (  '', ( #243 ), #358 ) ;
#312 = CIRCLE ( 'NONE', #29, 0.2499999999999995282 ) ;
#313 = PLANE ( 'NONE',  #106 ) ;
#314 = LENGTH_MEASURE_WITH_UNIT ( LENGTH_MEASURE( 0.02539999999999999897 ), #257 );
#315 = SURFACE_SIDE_STYLE ('',( #58 ) ) ;
#316 = CIRCLE ( 'NONE', #21, 0.2500000000000000000 ) ;
#317 = PLANE ( 'NONE',  #130 ) ;
#318 = EDGE_CURVE ( 'NONE', #67, #161, #287, .T. ) ;
#319 = CARTESIAN_POINT ( 'NONE',  ( 3.061616997868381785E-17, 0.000000000000000000, 0.2499999999999998612 ) ) ;
#320 = ORIENTED_EDGE ( 'NONE', *, *, #318, .F. ) ;
#321 = AXIS2_PLACEMENT_3D ( 'NONE', #25, #277, #250 ) ;
#322 = ORIENTED_EDGE ( 'NONE', *, *, #140, .F. ) ;
#323 = FILL_AREA_STYLE_COLOUR ( '', #280 ) ;
#324 = EDGE_LOOP ( 'NONE', ( #285, #124, #147, #113 ) ) ;
#325 = FILL_AREA_STYLE_COLOUR ( '', #95 ) ;
#326 = EDGE_CURVE ( 'NONE', #219, #67, #54, .T. ) ;
#327 = EDGE_LOOP ( 'NONE', ( #373, #300, #65, #369 ) ) ;
#328 =( NAMED_UNIT ( * ) PLANE_ANGLE_UNIT ( ) SI_UNIT ( $, .RADIAN. ) );
#329 = ORIENTED_EDGE ( 'NONE', *, *, #253, .T. ) ;
#330 = CIRCLE ( 'NONE', #286, 0.2499999999999997502 ) ;
#331 = SURFACE_STYLE_USAGE ( .BOTH. , #209 ) ;
#332 = DIRECTION ( 'NONE',  ( -0.000000000000000000, -1.000000000000000000, -0.000000000000000000 ) ) ;
#333 = EDGE_LOOP ( 'NONE', ( #238, #172 ) ) ;
#334 = ADVANCED_BREP_SHAPE_REPRESENTATION ( '49315', ( #72, #185, #91 ), #100 ) ;
#335 = CIRCLE ( 'NONE', #215, 0.2500000000000000000 ) ;
#336 = FACE_OUTER_BOUND ( 'NONE', #324, .T. ) ;
#337 = ADVANCED_FACE ( 'NONE', ( #120 ), #205, .T. ) ;
#338 =( LENGTH_UNIT ( ) NAMED_UNIT ( * ) SI_UNIT ( $, .METRE. ) );
#339 = CIRCLE ( 'NONE', #225, 0.2499999999999999722 ) ;
#340 = FACE_OUTER_BOUND ( 'NONE', #333, .T. ) ;
#341 = CARTESIAN_POINT ( 'NONE',  ( 3.061616997868381169E-17, 2.000000000000000000, 0.2499999999999997502 ) ) ;
#342 = UNCERTAINTY_MEASURE_WITH_UNIT (LENGTH_MEASURE( 1.000000000000000082E-05 ), #71, 'distance_accuracy_value', 'NONE');
#343 = CARTESIAN_POINT ( 'NONE',  ( -1.224646799147352468E-16, 4.000000000000000000, 0.000000000000000000 ) ) ;
#344 = MECHANICAL_DESIGN_GEOMETRIC_PRESENTATION_REPRESENTATION (  '', ( #59 ), #11 ) ;
#345 =( NAMED_UNIT ( * ) PLANE_ANGLE_UNIT ( ) SI_UNIT ( $, .RADIAN. ) );
#346 = LINE ( 'NONE', #319, #153 ) ;
#347 = ADVANCED_FACE ( 'NONE', ( #360 ), #156, .T. ) ;
#348 =( NAMED_UNIT ( * ) SI_UNIT ( $, .STERADIAN. ) SOLID_ANGLE_UNIT ( ) );
#349 = COLOUR_RGB ( '',0.7921568627450980005, 0.8196078431372548767, 0.9333333333333333481 ) ;
#350 = VECTOR ( 'NONE', #353, 39.37007874015748143 ) ;
#351 = SURFACE_SIDE_STYLE ('',( #265 ) ) ;
#352 = FACE_OUTER_BOUND ( 'NONE', #14, .T. ) ;
#353 = DIRECTION ( 'NONE',  ( -1.836970198721029441E-16, 1.000000000000000000, -0.000000000000000000 ) ) ;
#354 = PRESENTATION_STYLE_ASSIGNMENT (( #92 ) ) ;
#355 = PRODUCT_DEFINITION_SHAPE ( 'NONE', 'NONE',  #204 ) ;
#356 = DIRECTION ( 'NONE',  ( 0.000000000000000000, 0.000000000000000000, 1.000000000000000000 ) ) ;
#357 = EDGE_CURVE ( 'NONE', #240, #69, #312, .T. ) ;
#358 =( GEOMETRIC_REPRESENTATION_CONTEXT ( 3 ) GLOBAL_UNCERTAINTY_ASSIGNED_CONTEXT ( ( #60 ) ) GLOBAL_UNIT_ASSIGNED_CONTEXT ( ( #179, #248, #51 ) ) REPRESENTATION_CONTEXT ( 'NONE', 'WORKASPACE' ) );
#359 = MECHANICAL_DESIGN_GEOMETRIC_PRESENTATION_REPRESENTATION (  '', ( #164 ), #258 ) ;
#360 = FACE_OUTER_BOUND ( 'NONE', #203, .T. ) ;
#361 = CARTESIAN_POINT ( 'NONE',  ( -0.2499999999999992784, 2.000000000000000000, 0.000000000000000000 ) ) ;
#362 = CARTESIAN_POINT ( 'NONE',  ( 0.2499999999999998335, 4.000000000000000000, 0.000000000000000000 ) ) ;
#363 = AXIS2_PLACEMENT_3D ( 'NONE', #149, #73, #202 ) ;
#364 = PRODUCT_RELATED_PRODUCT_CATEGORY ( 'part', '', ( #74 ) ) ;
#365 = CARTESIAN_POINT ( 'NONE',  ( 0.2499999999999998335, 4.000000000000000000, 3.061616997868381169E-17 ) ) ;
#366 = VERTEX_POINT ( 'NONE', #252 ) ;
#367 =( CONVERSION_BASED_UNIT ( 'INCH', #247 ) LENGTH_UNIT ( ) NAMED_UNIT ( #137 ) );
#368 = FACE_OUTER_BOUND ( 'NONE', #6, .T. ) ;
#369 = ORIENTED_EDGE ( 'NONE', *, *, #210, .F. ) ;
#370 = STYLED_ITEM ( 'NONE', ( #160 ), #229 ) ;
#371 = DIRECTION ( 'NONE',  ( -0.000000000000000000, -1.000000000000000000, -0.000000000000000000 ) ) ;
#372 = ADVANCED_FACE ( 'NONE', ( #126 ), #178, .F. ) ;
#373 = ORIENTED_EDGE ( 'NONE', *, *, #260, .F. ) ;
ENDSEC;
END-ISO-10303-21;
