ISO-10303-21;
HEADER;
FILE_DESCRIPTION (( 'STEP AP214' ),
    '1' );
FILE_NAME ('03090.STEP',
    '2023-06-22T14:54:35',
    ( '' ),
    ( '' ),
    'SwSTEP 2.0',
    'SolidWorks 2023',
    '' );
FILE_SCHEMA (( 'AUTOMOTIVE_DESIGN' ));
ENDSEC;

DATA;
#1 = FILL_AREA_STYLE ('',( #216 ) ) ;
#2 = ORIENTED_EDGE ( 'NONE', *, *, #259, .F. ) ;
#3 = VECTOR ( 'NONE', #209, 39.37007874015748143 ) ;
#4 = COLOUR_RGB ( '',1.000000000000000000, 0.000000000000000000, 0.000000000000000000 ) ;
#5 =( NAMED_UNIT ( * ) SI_UNIT ( $, .STERADIAN. ) SOLID_ANGLE_UNIT ( ) );
#6 = PLANE ( 'NONE',  #239 ) ;
#7 = EDGE_CURVE ( 'NONE', #71, #273, #266, .T. ) ;
#8 = CARTESIAN_POINT ( 'NONE',  ( 0.000000000000000000, 0.000000000000000000, -0.09375000000000001388 ) ) ;
#9 = PRODUCT_DEFINITION_CONTEXT ( 'detailed design', #224, 'design' ) ;
#10 = DIRECTION ( 'NONE',  ( -0.000000000000000000, -1.000000000000000000, -0.000000000000000000 ) ) ;
#11 = FACE_OUTER_BOUND ( 'NONE', #290, .T. ) ;
#12 = ORIENTED_EDGE ( 'NONE', *, *, #133, .F. ) ;
#13 = SURFACE_SIDE_STYLE ('',( #144 ) ) ;
#14 = CLOSED_SHELL ( 'NONE', ( #82, #185, #171, #255 ) ) ;
#15 = COLOUR_RGB ( '',1.000000000000000000, 0.000000000000000000, 0.000000000000000000 ) ;
#16 =( NAMED_UNIT ( * ) SI_UNIT ( $, .STERADIAN. ) SOLID_ANGLE_UNIT ( ) );
#17 = PLANE ( 'NONE',  #182 ) ;
#18 = CARTESIAN_POINT ( 'NONE',  ( -0.09374999999999988898, 2.000000000000000000, 0.000000000000000000 ) ) ;
#19 =( GEOMETRIC_REPRESENTATION_CONTEXT ( 3 ) GLOBAL_UNCERTAINTY_ASSIGNED_CONTEXT ( ( #165 ) ) GLOBAL_UNIT_ASSIGNED_CONTEXT ( ( #50, #88, #5 ) ) REPRESENTATION_CONTEXT ( 'NONE', 'WORKASPACE' ) );
#20 = CARTESIAN_POINT ( 'NONE',  ( 0.000000000000000000, 0.3125000000000000000, 0.000000000000000000 ) ) ;
#21 = CARTESIAN_POINT ( 'NONE',  ( 0.09374999999999998612, 2.000000000000000000, 1.148106374200643247E-17 ) ) ;
#22 = DIRECTION ( 'NONE',  ( 3.628583108584750472E-17, 1.000000000000000000, -0.000000000000000000 ) ) ;
#23 = FILL_AREA_STYLE ('',( #153 ) ) ;
#24 = UNCERTAINTY_MEASURE_WITH_UNIT (LENGTH_MEASURE( 1.000000000000000082E-05 ), #177, 'distance_accuracy_value', 'NONE');
#25 = DIRECTION ( 'NONE',  ( -0.000000000000000000, -1.000000000000000000, -0.000000000000000000 ) ) ;
#26 = ORIENTED_EDGE ( 'NONE', *, *, #54, .T. ) ;
#27 = EDGE_LOOP ( 'NONE', ( #260, #26, #78, #12 ) ) ;
#28 = MECHANICAL_DESIGN_GEOMETRIC_PRESENTATION_REPRESENTATION (  '', ( #92 ), #52 ) ;
#29 = DIMENSIONAL_EXPONENTS ( 1.000000000000000000, 0.000000000000000000, 0.000000000000000000, 0.000000000000000000, 0.000000000000000000, 0.000000000000000000, 0.000000000000000000 ) ;
#30 = EDGE_LOOP ( 'NONE', ( #96, #287 ) ) ;
#31 = DIRECTION ( 'NONE',  ( 0.000000000000000000, 0.000000000000000000, -1.000000000000000000 ) ) ;
#32 = DIRECTION ( 'NONE',  ( 0.000000000000000000, 1.000000000000000000, 0.000000000000000000 ) ) ;
#33 = PRESENTATION_STYLE_ASSIGNMENT (( #173 ) ) ;
#34 = DIRECTION ( 'NONE',  ( 0.000000000000000000, 0.000000000000000000, -1.000000000000000000 ) ) ;
#35 = DIMENSIONAL_EXPONENTS ( 1.000000000000000000, 0.000000000000000000, 0.000000000000000000, 0.000000000000000000, 0.000000000000000000, 0.000000000000000000, 0.000000000000000000 ) ;
#36 = PRESENTATION_LAYER_ASSIGNMENT (  '', '', ( #38 ) ) ;
#37 = PRODUCT ( '03090', '03090', '', ( #103 ) ) ;
#38 = STYLED_ITEM ( 'NONE', ( #140 ), #228 ) ;
#39 =( LENGTH_UNIT ( ) NAMED_UNIT ( * ) SI_UNIT ( $, .METRE. ) );
#40 = ORIENTED_EDGE ( 'NONE', *, *, #259, .T. ) ;
#41 = UNCERTAINTY_MEASURE_WITH_UNIT (LENGTH_MEASURE( 1.000000000000000082E-05 ), #232, 'distance_accuracy_value', 'NONE');
#42 = FACE_OUTER_BOUND ( 'NONE', #55, .T. ) ;
#43 = ORIENTED_EDGE ( 'NONE', *, *, #211, .F. ) ;
#44 = AXIS2_PLACEMENT_3D ( 'NONE', #274, #155, #248 ) ;
#45 = APPLICATION_PROTOCOL_DEFINITION ( 'draft international standard', 'automotive_design', 1998, #205 ) ;
#46 = CARTESIAN_POINT ( 'NONE',  ( 1.148106374200643401E-17, 0.3125000000000000000, 0.09374999999999998612 ) ) ;
#47 = DIRECTION ( 'NONE',  ( 3.628583108584750472E-17, 1.000000000000000000, -0.000000000000000000 ) ) ;
#48 = MECHANICAL_DESIGN_GEOMETRIC_PRESENTATION_REPRESENTATION (  '', ( #207 ), #137 ) ;
#49 = STYLED_ITEM ( 'NONE', ( #79 ), #185 ) ;
#50 =( CONVERSION_BASED_UNIT ( 'INCH', #284 ) LENGTH_UNIT ( ) NAMED_UNIT ( #35 ) );
#51 = CARTESIAN_POINT ( 'NONE',  ( -0.09374999999999998612, 0.3125000000000000000, 0.000000000000000000 ) ) ;
#52 =( GEOMETRIC_REPRESENTATION_CONTEXT ( 3 ) GLOBAL_UNCERTAINTY_ASSIGNED_CONTEXT ( ( #80 ) ) GLOBAL_UNIT_ASSIGNED_CONTEXT ( ( #204, #237, #200 ) ) REPRESENTATION_CONTEXT ( 'NONE', 'WORKASPACE' ) );
#53 =( GEOMETRIC_REPRESENTATION_CONTEXT ( 3 ) GLOBAL_UNCERTAINTY_ASSIGNED_CONTEXT ( ( #306 ) ) GLOBAL_UNIT_ASSIGNED_CONTEXT ( ( #150, #242, #100 ) ) REPRESENTATION_CONTEXT ( 'NONE', 'WORKASPACE' ) );
#54 = EDGE_CURVE ( 'NONE', #108, #273, #134, .T. ) ;
#55 = EDGE_LOOP ( 'NONE', ( #175, #249 ) ) ;
#56 = PRESENTATION_STYLE_ASSIGNMENT (( #190 ) ) ;
#57 = DIRECTION ( 'NONE',  ( 3.628583108584750472E-17, 1.000000000000000000, -0.000000000000000000 ) ) ;
#58 = DIMENSIONAL_EXPONENTS ( 1.000000000000000000, 0.000000000000000000, 0.000000000000000000, 0.000000000000000000, 0.000000000000000000, 0.000000000000000000, 0.000000000000000000 ) ;
#59 = VECTOR ( 'NONE', #282, 39.37007874015748143 ) ;
#60 = PRESENTATION_STYLE_ASSIGNMENT (( #63 ) ) ;
#61 = LENGTH_MEASURE_WITH_UNIT ( LENGTH_MEASURE( 0.02539999999999999897 ), #116 );
#62 = LENGTH_MEASURE_WITH_UNIT ( LENGTH_MEASURE( 0.02539999999999999897 ), #65 );
#63 = SURFACE_STYLE_USAGE ( .BOTH. , #235 ) ;
#64 =( LENGTH_UNIT ( ) NAMED_UNIT ( * ) SI_UNIT ( $, .METRE. ) );
#65 =( LENGTH_UNIT ( ) NAMED_UNIT ( * ) SI_UNIT ( $, .METRE. ) );
#66 = CARTESIAN_POINT ( 'NONE',  ( 0.000000000000000000, 0.3125000000000000000, 0.000000000000000000 ) ) ;
#67 = PLANE ( 'NONE',  #191 ) ;
#68 = LINE ( 'NONE', #97, #3 ) ;
#69 = DIRECTION ( 'NONE',  ( 1.000000000000000000, 0.000000000000000000, 0.000000000000000000 ) ) ;
#70 = CIRCLE ( 'NONE', #277, 0.09374999999999998612 ) ;
#71 = VERTEX_POINT ( 'NONE', #8 ) ;
#72 = CYLINDRICAL_SURFACE ( 'NONE', #132, 0.09374999999999995837 ) ;
#73 = VERTEX_POINT ( 'NONE', #195 ) ;
#74 = DIRECTION ( 'NONE',  ( -1.000000000000000000, 0.000000000000000000, 0.000000000000000000 ) ) ;
#75 = CARTESIAN_POINT ( 'NONE',  ( 0.000000000000000000, 0.000000000000000000, 0.000000000000000000 ) ) ;
#76 = AXIS2_PLACEMENT_3D ( 'NONE', #91, #174, #34 ) ;
#77 = CIRCLE ( 'NONE', #234, 0.09375000000000001388 ) ;
#78 = ORIENTED_EDGE ( 'NONE', *, *, #7, .F. ) ;
#79 = PRESENTATION_STYLE_ASSIGNMENT (( #265 ) ) ;
#80 = UNCERTAINTY_MEASURE_WITH_UNIT (LENGTH_MEASURE( 1.000000000000000082E-05 ), #204, 'distance_accuracy_value', 'NONE');
#81 = FACE_OUTER_BOUND ( 'NONE', #202, .T. ) ;
#82 = ADVANCED_FACE ( 'NONE', ( #197 ), #86, .T. ) ;
#83 = CARTESIAN_POINT ( 'NONE',  ( 0.000000000000000000, 0.3125000000000000000, 0.000000000000000000 ) ) ;
#84 = EDGE_LOOP ( 'NONE', ( #40, #253 ) ) ;
#85 = MECHANICAL_DESIGN_GEOMETRIC_PRESENTATION_REPRESENTATION (  '', ( #278 ), #263 ) ;
#86 = CYLINDRICAL_SURFACE ( 'NONE', #76, 0.09374999999999998612 ) ;
#87 = PRODUCT_DEFINITION_SHAPE ( 'NONE', 'NONE',  #244 ) ;
#88 =( NAMED_UNIT ( * ) PLANE_ANGLE_UNIT ( ) SI_UNIT ( $, .RADIAN. ) );
#89 = DIRECTION ( 'NONE',  ( 3.628583108584750472E-17, 1.000000000000000000, -0.000000000000000000 ) ) ;
#90 =( NAMED_UNIT ( * ) PLANE_ANGLE_UNIT ( ) SI_UNIT ( $, .RADIAN. ) );
#91 = CARTESIAN_POINT ( 'NONE',  ( 0.000000000000000000, 0.000000000000000000, 0.000000000000000000 ) ) ;
#92 = STYLED_ITEM ( 'NONE', ( #33 ), #171 ) ;
#93 =( GEOMETRIC_REPRESENTATION_CONTEXT ( 3 ) GLOBAL_UNCERTAINTY_ASSIGNED_CONTEXT ( ( #41 ) ) GLOBAL_UNIT_ASSIGNED_CONTEXT ( ( #232, #90, #120 ) ) REPRESENTATION_CONTEXT ( 'NONE', 'WORKASPACE' ) );
#94 = SURFACE_STYLE_USAGE ( .BOTH. , #13 ) ;
#95 = ADVANCED_FACE ( 'NONE', ( #11 ), #112, .T. ) ;
#96 = ORIENTED_EDGE ( 'NONE', *, *, #168, .F. ) ;
#97 = CARTESIAN_POINT ( 'NONE',  ( 0.09375000000000002776, 2.000000000000000000, 1.148106374200643092E-17 ) ) ;
#98 = CYLINDRICAL_SURFACE ( 'NONE', #271, 0.09374999999999998612 ) ;
#99 = DIRECTION ( 'NONE',  ( -0.000000000000000000, -1.000000000000000000, -0.000000000000000000 ) ) ;
#100 =( NAMED_UNIT ( * ) SI_UNIT ( $, .STERADIAN. ) SOLID_ANGLE_UNIT ( ) );
#101 = FACE_OUTER_BOUND ( 'NONE', #84, .T. ) ;
#102 = SHAPE_DEFINITION_REPRESENTATION ( #87, #258 ) ;
#103 = PRODUCT_CONTEXT ( 'NONE', #205, 'mechanical' ) ;
#104 = DIRECTION ( 'NONE',  ( 0.000000000000000000, 0.000000000000000000, -1.000000000000000000 ) ) ;
#105 = LENGTH_MEASURE_WITH_UNIT ( LENGTH_MEASURE( 0.02539999999999999897 ), #268 );
#106 = SURFACE_SIDE_STYLE ('',( #130 ) ) ;
#107 = COLOUR_RGB ( '',0.7921568627450980005, 0.8196078431372548767, 0.9333333333333333481 ) ;
#108 = VERTEX_POINT ( 'NONE', #46 ) ;
#109 = CARTESIAN_POINT ( 'NONE',  ( 6.123233995736766036E-17, 2.000000000000000000, 0.000000000000000000 ) ) ;
#110 = ORIENTED_EDGE ( 'NONE', *, *, #252, .F. ) ;
#111 = FILL_AREA_STYLE ('',( #272 ) ) ;
#112 = CYLINDRICAL_SURFACE ( 'NONE', #142, 0.09374999999999995837 ) ;
#113 = ORIENTED_EDGE ( 'NONE', *, *, #149, .F. ) ;
#114 = PRESENTATION_STYLE_ASSIGNMENT (( #94 ) ) ;
#115 =( CONVERSION_BASED_UNIT ( 'INCH', #138 ) LENGTH_UNIT ( ) NAMED_UNIT ( #135 ) );
#116 =( LENGTH_UNIT ( ) NAMED_UNIT ( * ) SI_UNIT ( $, .METRE. ) );
#117 = ADVANCED_FACE ( 'NONE', ( #101 ), #67, .F. ) ;
#118 = VECTOR ( 'NONE', #99, 39.37007874015748143 ) ;
#119 = MECHANICAL_DESIGN_GEOMETRIC_PRESENTATION_REPRESENTATION (  '', ( #152 ), #93 ) ;
#120 =( NAMED_UNIT ( * ) SI_UNIT ( $, .STERADIAN. ) SOLID_ANGLE_UNIT ( ) );
#121 = CIRCLE ( 'NONE', #238, 0.09374999999999998612 ) ;
#122 = APPLICATION_PROTOCOL_DEFINITION ( 'draft international standard', 'automotive_design', 1998, #224 ) ;
#123 =( LENGTH_UNIT ( ) NAMED_UNIT ( * ) SI_UNIT ( $, .METRE. ) );
#124 =( NAMED_UNIT ( * ) SI_UNIT ( $, .STERADIAN. ) SOLID_ANGLE_UNIT ( ) );
#125 = CARTESIAN_POINT ( 'NONE',  ( 0.000000000000000000, 0.000000000000000000, 0.000000000000000000 ) ) ;
#126 = CIRCLE ( 'NONE', #192, 0.09374999999999991673 ) ;
#127 = LINE ( 'NONE', #18, #59 ) ;
#128 = CARTESIAN_POINT ( 'NONE',  ( 6.123233995736766036E-17, 2.000000000000000000, 0.000000000000000000 ) ) ;
#129 = FILL_AREA_STYLE ('',( #302 ) ) ;
#130 = SURFACE_STYLE_FILL_AREA ( #23 ) ;
#131 = EDGE_LOOP ( 'NONE', ( #245, #275, #217, #110 ) ) ;
#132 = AXIS2_PLACEMENT_3D ( 'NONE', #241, #47, #169 ) ;
#133 = EDGE_CURVE ( 'NONE', #73, #71, #303, .T. ) ;
#134 = LINE ( 'NONE', #222, #246 ) ;
#135 = DIMENSIONAL_EXPONENTS ( 1.000000000000000000, 0.000000000000000000, 0.000000000000000000, 0.000000000000000000, 0.000000000000000000, 0.000000000000000000, 0.000000000000000000 ) ;
#136 = SURFACE_STYLE_FILL_AREA ( #111 ) ;
#137 =( GEOMETRIC_REPRESENTATION_CONTEXT ( 3 ) GLOBAL_UNCERTAINTY_ASSIGNED_CONTEXT ( ( #223 ) ) GLOBAL_UNIT_ASSIGNED_CONTEXT ( ( #115, #226, #198 ) ) REPRESENTATION_CONTEXT ( 'NONE', 'WORKASPACE' ) );
#138 = LENGTH_MEASURE_WITH_UNIT ( LENGTH_MEASURE( 0.02539999999999999897 ), #250 );
#139 = AXIS2_PLACEMENT_3D ( 'NONE', #151, #283, #69 ) ;
#140 = PRESENTATION_STYLE_ASSIGNMENT (( #203 ) ) ;
#141 = EDGE_CURVE ( 'NONE', #194, #308, #127, .T. ) ;
#142 = AXIS2_PLACEMENT_3D ( 'NONE', #294, #89, #74 ) ;
#143 = CIRCLE ( 'NONE', #44, 0.09374999999999998612 ) ;
#144 = SURFACE_STYLE_FILL_AREA ( #256 ) ;
#145 = DIRECTION ( 'NONE',  ( 1.000000000000000000, -3.628583108584750472E-17, 0.000000000000000000 ) ) ;
#146 = FACE_OUTER_BOUND ( 'NONE', #131, .T. ) ;
#147 = FACE_OUTER_BOUND ( 'NONE', #179, .T. ) ;
#148 = CARTESIAN_POINT ( 'NONE',  ( 0.000000000000000000, 0.3125000000000000000, 0.000000000000000000 ) ) ;
#149 = EDGE_CURVE ( 'NONE', #194, #289, #121, .T. ) ;
#150 =( CONVERSION_BASED_UNIT ( 'INCH', #105 ) LENGTH_UNIT ( ) NAMED_UNIT ( #229 ) );
#151 = CARTESIAN_POINT ( 'NONE',  ( 0.000000000000000000, 0.000000000000000000, 0.000000000000000000 ) ) ;
#152 = STYLED_ITEM ( 'NONE', ( #60 ), #231 ) ;
#153 = FILL_AREA_STYLE_COLOUR ( '', #233 ) ;
#154 = DIRECTION ( 'NONE',  ( 0.000000000000000000, 0.000000000000000000, -1.000000000000000000 ) ) ;
#155 = DIRECTION ( 'NONE',  ( -0.000000000000000000, -1.000000000000000000, -0.000000000000000000 ) ) ;
#156 = PLANE ( 'NONE',  #251 ) ;
#157 = CARTESIAN_POINT ( 'NONE',  ( 0.000000000000000000, 0.000000000000000000, 0.000000000000000000 ) ) ;
#158 = CIRCLE ( 'NONE', #243, 0.09374999999999991673 ) ;
#159 = DIRECTION ( 'NONE',  ( -0.000000000000000000, -1.000000000000000000, -0.000000000000000000 ) ) ;
#160 = COLOUR_RGB ( '',1.000000000000000000, 0.000000000000000000, 0.000000000000000000 ) ;
#161 =( NAMED_UNIT ( * ) PLANE_ANGLE_UNIT ( ) SI_UNIT ( $, .RADIAN. ) );
#162 = DIRECTION ( 'NONE',  ( -1.000000000000000000, 0.000000000000000000, 0.000000000000000000 ) ) ;
#163 =( NAMED_UNIT ( * ) PLANE_ANGLE_UNIT ( ) SI_UNIT ( $, .RADIAN. ) );
#164 = PRESENTATION_LAYER_ASSIGNMENT (  '', '', ( #92 ) ) ;
#165 = UNCERTAINTY_MEASURE_WITH_UNIT (LENGTH_MEASURE( 1.000000000000000082E-05 ), #50, 'distance_accuracy_value', 'NONE');
#166 = MECHANICAL_DESIGN_GEOMETRIC_PRESENTATION_REPRESENTATION (  '', ( #38 ), #267 ) ;
#167 = EDGE_CURVE ( 'NONE', #289, #280, #68, .T. ) ;
#168 = EDGE_CURVE ( 'NONE', #73, #108, #70, .T. ) ;
#169 = DIRECTION ( 'NONE',  ( -1.000000000000000000, 0.000000000000000000, 0.000000000000000000 ) ) ;
#170 = CARTESIAN_POINT ( 'NONE',  ( 6.171850957456204517E-35, 0.3125000000000000000, 0.000000000000000000 ) ) ;
#171 = ADVANCED_FACE ( 'NONE', ( #146 ), #98, .T. ) ;
#172 = PRESENTATION_LAYER_ASSIGNMENT (  '', '', ( #278 ) ) ;
#173 = SURFACE_STYLE_USAGE ( .BOTH. , #184 ) ;
#174 = DIRECTION ( 'NONE',  ( -0.000000000000000000, -1.000000000000000000, -0.000000000000000000 ) ) ;
#175 = ORIENTED_EDGE ( 'NONE', *, *, #7, .T. ) ;
#176 = DIMENSIONAL_EXPONENTS ( 1.000000000000000000, 0.000000000000000000, 0.000000000000000000, 0.000000000000000000, 0.000000000000000000, 0.000000000000000000, 0.000000000000000000 ) ;
#177 =( CONVERSION_BASED_UNIT ( 'INCH', #261 ) LENGTH_UNIT ( ) NAMED_UNIT ( #199 ) );
#178 = SURFACE_STYLE_FILL_AREA ( #299 ) ;
#179 = EDGE_LOOP ( 'NONE', ( #295, #291, #212, #43 ) ) ;
#180 = FILL_AREA_STYLE_COLOUR ( '', #160 ) ;
#181 = AXIS2_PLACEMENT_3D ( 'NONE', #157, #221, #31 ) ;
#182 = AXIS2_PLACEMENT_3D ( 'NONE', #75, #264, #210 ) ;
#183 = ORIENTED_EDGE ( 'NONE', *, *, #167, .T. ) ;
#184 = SURFACE_SIDE_STYLE ('',( #218 ) ) ;
#185 = ADVANCED_FACE ( 'NONE', ( #189 ), #6, .T. ) ;
#186 = PRESENTATION_LAYER_ASSIGNMENT (  '', '', ( #152 ) ) ;
#187 = DIRECTION ( 'NONE',  ( 3.628583108584750472E-17, 1.000000000000000000, -0.000000000000000000 ) ) ;
#188 = CARTESIAN_POINT ( 'NONE',  ( 0.000000000000000000, 0.000000000000000000, -0.09374999999999998612 ) ) ;
#189 = FACE_OUTER_BOUND ( 'NONE', #30, .T. ) ;
#190 = SURFACE_STYLE_USAGE ( .BOTH. , #106 ) ;
#191 = AXIS2_PLACEMENT_3D ( 'NONE', #236, #240, #145 ) ;
#192 = AXIS2_PLACEMENT_3D ( 'NONE', #109, #220, #196 ) ;
#193 = ADVANCED_FACE ( 'NONE', ( #81 ), #156, .F. ) ;
#194 = VERTEX_POINT ( 'NONE', #51 ) ;
#195 = CARTESIAN_POINT ( 'NONE',  ( 0.000000000000000000, 0.3125000000000000000, -0.09374999999999998612 ) ) ;
#196 = DIRECTION ( 'NONE',  ( -1.000000000000000000, 0.000000000000000000, 0.000000000000000000 ) ) ;
#197 = FACE_OUTER_BOUND ( 'NONE', #27, .T. ) ;
#198 =( NAMED_UNIT ( * ) SI_UNIT ( $, .STERADIAN. ) SOLID_ANGLE_UNIT ( ) );
#199 = DIMENSIONAL_EXPONENTS ( 1.000000000000000000, 0.000000000000000000, 0.000000000000000000, 0.000000000000000000, 0.000000000000000000, 0.000000000000000000, 0.000000000000000000 ) ;
#200 =( NAMED_UNIT ( * ) SI_UNIT ( $, .STERADIAN. ) SOLID_ANGLE_UNIT ( ) );
#201 = EDGE_CURVE ( 'NONE', #108, #73, #143, .T. ) ;
#202 = EDGE_LOOP ( 'NONE', ( #113, #214 ) ) ;
#203 = SURFACE_STYLE_USAGE ( .BOTH. , #225 ) ;
#204 =( CONVERSION_BASED_UNIT ( 'INCH', #62 ) LENGTH_UNIT ( ) NAMED_UNIT ( #29 ) );
#205 = APPLICATION_CONTEXT ( 'automotive_design' ) ;
#206 = PRODUCT_RELATED_PRODUCT_CATEGORY ( 'part', '', ( #37 ) ) ;
#207 = STYLED_ITEM ( 'NONE', ( #56 ), #82 ) ;
#208 = PRESENTATION_LAYER_ASSIGNMENT (  '', '', ( #49 ) ) ;
#209 = DIRECTION ( 'NONE',  ( 3.628583108584750472E-17, 1.000000000000000000, -0.000000000000000000 ) ) ;
#210 = DIRECTION ( 'NONE',  ( 0.000000000000000000, 0.000000000000000000, -1.000000000000000000 ) ) ;
#211 = EDGE_CURVE ( 'NONE', #280, #308, #126, .T. ) ;
#212 = ORIENTED_EDGE ( 'NONE', *, *, #141, .T. ) ;
#213 = CLOSED_SHELL ( 'NONE', ( #95, #193, #279, #117 ) ) ;
#214 = ORIENTED_EDGE ( 'NONE', *, *, #293, .F. ) ;
#215 = DIRECTION ( 'NONE',  ( -1.000000000000000000, 0.000000000000000000, 0.000000000000000000 ) ) ;
#216 = FILL_AREA_STYLE_COLOUR ( '', #15 ) ;
#217 = ORIENTED_EDGE ( 'NONE', *, *, #133, .T. ) ;
#218 = SURFACE_STYLE_FILL_AREA ( #1 ) ;
#219 = UNCERTAINTY_MEASURE_WITH_UNIT (LENGTH_MEASURE( 1.000000000000000082E-05 ), #254, 'distance_accuracy_value', 'NONE');
#220 = DIRECTION ( 'NONE',  ( 3.628583108584750472E-17, 1.000000000000000000, -0.000000000000000000 ) ) ;
#221 = DIRECTION ( 'NONE',  ( -0.000000000000000000, -1.000000000000000000, -0.000000000000000000 ) ) ;
#222 = CARTESIAN_POINT ( 'NONE',  ( 1.148106374200643401E-17, 0.000000000000000000, 0.09374999999999998612 ) ) ;
#223 = UNCERTAINTY_MEASURE_WITH_UNIT (LENGTH_MEASURE( 1.000000000000000082E-05 ), #115, 'distance_accuracy_value', 'NONE');
#224 = APPLICATION_CONTEXT ( 'automotive_design' ) ;
#225 = SURFACE_SIDE_STYLE ('',( #136 ) ) ;
#226 =( NAMED_UNIT ( * ) PLANE_ANGLE_UNIT ( ) SI_UNIT ( $, .RADIAN. ) );
#227 = CARTESIAN_POINT ( 'NONE',  ( 0.000000000000000000, 0.000000000000000000, 0.000000000000000000 ) ) ;
#228 = MANIFOLD_SOLID_BREP ( 'Revolve - Tool Body (Straight Shanked)', #213 ) ;
#229 = DIMENSIONAL_EXPONENTS ( 1.000000000000000000, 0.000000000000000000, 0.000000000000000000, 0.000000000000000000, 0.000000000000000000, 0.000000000000000000, 0.000000000000000000 ) ;
#230 = LENGTH_MEASURE_WITH_UNIT ( LENGTH_MEASURE( 0.02539999999999999897 ), #39 );
#231 = MANIFOLD_SOLID_BREP ( 'Revolve - Cutting Edge', #14 ) ;
#232 =( CONVERSION_BASED_UNIT ( 'INCH', #61 ) LENGTH_UNIT ( ) NAMED_UNIT ( #176 ) );
#233 = COLOUR_RGB ( '',1.000000000000000000, 0.000000000000000000, 0.000000000000000000 ) ;
#234 = AXIS2_PLACEMENT_3D ( 'NONE', #227, #159, #296 ) ;
#235 = SURFACE_SIDE_STYLE ('',( #178 ) ) ;
#236 = CARTESIAN_POINT ( 'NONE',  ( 0.09374999999999998612, 2.000000000000000000, 0.000000000000000000 ) ) ;
#237 =( NAMED_UNIT ( * ) PLANE_ANGLE_UNIT ( ) SI_UNIT ( $, .RADIAN. ) );
#238 = AXIS2_PLACEMENT_3D ( 'NONE', #148, #22, #162 ) ;
#239 = AXIS2_PLACEMENT_3D ( 'NONE', #83, #32, #276 ) ;
#240 = DIRECTION ( 'NONE',  ( -3.628583108584750472E-17, -1.000000000000000000, 0.000000000000000000 ) ) ;
#241 = CARTESIAN_POINT ( 'NONE',  ( 6.123233995736766036E-17, 2.000000000000000000, 0.000000000000000000 ) ) ;
#242 =( NAMED_UNIT ( * ) PLANE_ANGLE_UNIT ( ) SI_UNIT ( $, .RADIAN. ) );
#243 = AXIS2_PLACEMENT_3D ( 'NONE', #128, #187, #215 ) ;
#244 = PRODUCT_DEFINITION ( 'UNKNOWN', '', #297, #9 ) ;
#245 = ORIENTED_EDGE ( 'NONE', *, *, #54, .F. ) ;
#246 = VECTOR ( 'NONE', #10, 39.37007874015748143 ) ;
#247 = CIRCLE ( 'NONE', #285, 0.09374999999999998612 ) ;
#248 = DIRECTION ( 'NONE',  ( 0.000000000000000000, 0.000000000000000000, -1.000000000000000000 ) ) ;
#249 = ORIENTED_EDGE ( 'NONE', *, *, #252, .T. ) ;
#250 =( LENGTH_UNIT ( ) NAMED_UNIT ( * ) SI_UNIT ( $, .METRE. ) );
#251 = AXIS2_PLACEMENT_3D ( 'NONE', #170, #57, #270 ) ;
#252 = EDGE_CURVE ( 'NONE', #273, #71, #77, .T. ) ;
#253 = ORIENTED_EDGE ( 'NONE', *, *, #211, .T. ) ;
#254 =( CONVERSION_BASED_UNIT ( 'INCH', #230 ) LENGTH_UNIT ( ) NAMED_UNIT ( #58 ) );
#255 = ADVANCED_FACE ( 'NONE', ( #42 ), #17, .T. ) ;
#256 = FILL_AREA_STYLE ('',( #180 ) ) ;
#257 = COLOUR_RGB ( '',0.7921568627450980005, 0.8196078431372548767, 0.9333333333333333481 ) ;
#258 = ADVANCED_BREP_SHAPE_REPRESENTATION ( '03090', ( #231, #228, #139 ), #53 ) ;
#259 = EDGE_CURVE ( 'NONE', #308, #280, #158, .T. ) ;
#260 = ORIENTED_EDGE ( 'NONE', *, *, #168, .T. ) ;
#261 = LENGTH_MEASURE_WITH_UNIT ( LENGTH_MEASURE( 0.02539999999999999897 ), #64 );
#262 = CARTESIAN_POINT ( 'NONE',  ( 1.148106374200643555E-17, 0.000000000000000000, 0.09375000000000001388 ) ) ;
#263 =( GEOMETRIC_REPRESENTATION_CONTEXT ( 3 ) GLOBAL_UNCERTAINTY_ASSIGNED_CONTEXT ( ( #24 ) ) GLOBAL_UNIT_ASSIGNED_CONTEXT ( ( #177, #163, #124 ) ) REPRESENTATION_CONTEXT ( 'NONE', 'WORKASPACE' ) );
#264 = DIRECTION ( 'NONE',  ( 0.000000000000000000, -1.000000000000000000, -0.000000000000000000 ) ) ;
#265 = SURFACE_STYLE_USAGE ( .BOTH. , #309 ) ;
#266 = CIRCLE ( 'NONE', #181, 0.09375000000000001388 ) ;
#267 =( GEOMETRIC_REPRESENTATION_CONTEXT ( 3 ) GLOBAL_UNCERTAINTY_ASSIGNED_CONTEXT ( ( #219 ) ) GLOBAL_UNIT_ASSIGNED_CONTEXT ( ( #254, #161, #16 ) ) REPRESENTATION_CONTEXT ( 'NONE', 'WORKASPACE' ) );
#268 =( LENGTH_UNIT ( ) NAMED_UNIT ( * ) SI_UNIT ( $, .METRE. ) );
#269 = ORIENTED_EDGE ( 'NONE', *, *, #141, .F. ) ;
#270 = DIRECTION ( 'NONE',  ( -1.000000000000000000, 3.628583108584750472E-17, 0.000000000000000000 ) ) ;
#271 = AXIS2_PLACEMENT_3D ( 'NONE', #125, #305, #104 ) ;
#272 = FILL_AREA_STYLE_COLOUR ( '', #107 ) ;
#273 = VERTEX_POINT ( 'NONE', #262 ) ;
#274 = CARTESIAN_POINT ( 'NONE',  ( 0.000000000000000000, 0.3125000000000000000, 0.000000000000000000 ) ) ;
#275 = ORIENTED_EDGE ( 'NONE', *, *, #201, .T. ) ;
#276 = DIRECTION ( 'NONE',  ( 0.000000000000000000, -0.000000000000000000, 1.000000000000000000 ) ) ;
#277 = AXIS2_PLACEMENT_3D ( 'NONE', #66, #25, #154 ) ;
#278 = STYLED_ITEM ( 'NONE', ( #114 ), #255 ) ;
#279 = ADVANCED_FACE ( 'NONE', ( #147 ), #72, .T. ) ;
#280 = VERTEX_POINT ( 'NONE', #21 ) ;
#281 = FILL_AREA_STYLE_COLOUR ( '', #257 ) ;
#282 = DIRECTION ( 'NONE',  ( 3.628583108584750472E-17, 1.000000000000000000, -0.000000000000000000 ) ) ;
#283 = DIRECTION ( 'NONE',  ( 0.000000000000000000, 0.000000000000000000, 1.000000000000000000 ) ) ;
#284 = LENGTH_MEASURE_WITH_UNIT ( LENGTH_MEASURE( 0.02539999999999999897 ), #123 );
#285 = AXIS2_PLACEMENT_3D ( 'NONE', #20, #307, #301 ) ;
#286 = SURFACE_STYLE_FILL_AREA ( #129 ) ;
#287 = ORIENTED_EDGE ( 'NONE', *, *, #201, .F. ) ;
#288 = PRESENTATION_LAYER_ASSIGNMENT (  '', '', ( #207 ) ) ;
#289 = VERTEX_POINT ( 'NONE', #304 ) ;
#290 = EDGE_LOOP ( 'NONE', ( #298, #183, #2, #269 ) ) ;
#291 = ORIENTED_EDGE ( 'NONE', *, *, #293, .T. ) ;
#292 = MECHANICAL_DESIGN_GEOMETRIC_PRESENTATION_REPRESENTATION (  '', ( #49 ), #19 ) ;
#293 = EDGE_CURVE ( 'NONE', #289, #194, #247, .T. ) ;
#294 = CARTESIAN_POINT ( 'NONE',  ( 6.123233995736766036E-17, 2.000000000000000000, 0.000000000000000000 ) ) ;
#295 = ORIENTED_EDGE ( 'NONE', *, *, #167, .F. ) ;
#296 = DIRECTION ( 'NONE',  ( 0.000000000000000000, 0.000000000000000000, -1.000000000000000000 ) ) ;
#297 = PRODUCT_DEFINITION_FORMATION_WITH_SPECIFIED_SOURCE ( 'ANY', '', #37, .NOT_KNOWN. ) ;
#298 = ORIENTED_EDGE ( 'NONE', *, *, #149, .T. ) ;
#299 = FILL_AREA_STYLE ('',( #281 ) ) ;
#300 = CARTESIAN_POINT ( 'NONE',  ( -0.09374999999999984734, 2.000000000000000000, 0.000000000000000000 ) ) ;
#301 = DIRECTION ( 'NONE',  ( -1.000000000000000000, 0.000000000000000000, 0.000000000000000000 ) ) ;
#302 = FILL_AREA_STYLE_COLOUR ( '', #4 ) ;
#303 = LINE ( 'NONE', #188, #118 ) ;
#304 = CARTESIAN_POINT ( 'NONE',  ( 0.09374999999999998612, 0.3125000000000000000, 1.148106374200643247E-17 ) ) ;
#305 = DIRECTION ( 'NONE',  ( -0.000000000000000000, -1.000000000000000000, -0.000000000000000000 ) ) ;
#306 = UNCERTAINTY_MEASURE_WITH_UNIT (LENGTH_MEASURE( 1.000000000000000082E-05 ), #150, 'distance_accuracy_value', 'NONE');
#307 = DIRECTION ( 'NONE',  ( 3.628583108584750472E-17, 1.000000000000000000, -0.000000000000000000 ) ) ;
#308 = VERTEX_POINT ( 'NONE', #300 ) ;
#309 = SURFACE_SIDE_STYLE ('',( #286 ) ) ;
ENDSEC;
END-ISO-10303-21;
