ISO-10303-21;
HEADER;
FILE_DESCRIPTION (( 'STEP AP214' ),
    '1' );
FILE_NAME ('Micro_EMS-187-2.STEP',
    '2021-09-01T17:45:47',
    ( '' ),
    ( '' ),
    'SwSTEP 2.0',
    'SolidWorks 2020',
    '' );
FILE_SCHEMA (( 'AUTOMOTIVE_DESIGN' ));
ENDSEC;

DATA;
#1 = DIRECTION ( 'NONE',  ( -1.224646799147353207E-16, -0.0000000000000000000, -1.000000000000000000 ) ) ;
#2 = CIRCLE ( 'NONE', #54, 0.09365624999999999645 ) ;
#3 = VERTEX_POINT ( 'NONE', #281 ) ;
#4 = PRODUCT ( 'Micro_EMS-187-2', 'Micro_EMS-187-2', '', ( #165 ) ) ;
#5 = ADVANCED_FACE ( 'NONE', ( #49 ), #220, .T. ) ;
#6 = PRODUCT_DEFINITION_SHAPE ( 'NONE', 'NONE',  #87 ) ;
#7 = LENGTH_MEASURE_WITH_UNIT ( LENGTH_MEASURE( 0.02539999999999999897 ), #118 );
#8 = CARTESIAN_POINT ( 'NONE',  ( -0.09365624999999999645, 0.0000000000000000000, 1.146958267826442798E-17 ) ) ;
#9 = SURFACE_STYLE_FILL_AREA ( #283 ) ;
#10 = CARTESIAN_POINT ( 'NONE',  ( 0.07874999999999980627, 9.644093543285380530E-18, 2.000000000000000000 ) ) ;
#11 = SURFACE_STYLE_USAGE ( .BOTH. , #263 ) ;
#12 = CLOSED_SHELL ( 'NONE', ( #119, #291, #135, #77, #149, #34, #5, #248, #192, #97 ) ) ;
#13 = FACE_OUTER_BOUND ( 'NONE', #28, .T. ) ;
#14 =( NAMED_UNIT ( * ) PLANE_ANGLE_UNIT ( ) SI_UNIT ( $, .RADIAN. ) );
#15 = ORIENTED_EDGE ( 'NONE', *, *, #29, .F. ) ;
#16 = DIRECTION ( 'NONE',  ( -1.224646799147353207E-16, -0.0000000000000000000, -1.000000000000000000 ) ) ;
#17 = DIRECTION ( 'NONE',  ( -0.0000000000000000000, -0.0000000000000000000, -1.000000000000000000 ) ) ;
#18 = CARTESIAN_POINT ( 'NONE',  ( 0.09375000000000001388, 1.148106374200643863E-17, 1.984999999999999654 ) ) ;
#19 = DIRECTION ( 'NONE',  ( 1.224646799147353207E-16, 0.0000000000000000000, 1.000000000000000000 ) ) ;
#20 = CARTESIAN_POINT ( 'NONE',  ( 0.0000000000000000000, 0.0000000000000000000, 2.000000000000000000 ) ) ;
#21 = DIRECTION ( 'NONE',  ( -1.000000000000000000, 0.0000000000000000000, 1.224646799147352961E-16 ) ) ;
#22 = DIRECTION ( 'NONE',  ( -0.7071067811865463515, 0.0000000000000000000, -0.7071067811865486830 ) ) ;
#23 = CARTESIAN_POINT ( 'NONE',  ( 0.09375000000000001388, 1.148106374200643863E-17, 2.000000000000000000 ) ) ;
#24 = ORIENTED_EDGE ( 'NONE', *, *, #258, .F. ) ;
#25 = VERTEX_POINT ( 'NONE', #132 ) ;
#26 = CONICAL_SURFACE ( 'NONE', #169, 0.09365624999999999645, 0.1745329251994338637 ) ;
#27 = ORIENTED_EDGE ( 'NONE', *, *, #79, .F. ) ;
#28 = EDGE_LOOP ( 'NONE', ( #190, #264, #201, #233 ) ) ;
#29 = EDGE_CURVE ( 'NONE', #65, #74, #297, .T. ) ;
#30 = ORIENTED_EDGE ( 'NONE', *, *, #110, .T. ) ;
#31 =( NAMED_UNIT ( * ) PLANE_ANGLE_UNIT ( ) SI_UNIT ( $, .RADIAN. ) );
#32 = PRODUCT_RELATED_PRODUCT_CATEGORY ( 'part', '', ( #4 ) ) ;
#33 = PRESENTATION_STYLE_ASSIGNMENT (( #11 ) ) ;
#34 = ADVANCED_FACE ( 'NONE', ( #143 ), #80, .T. ) ;
#35 = ORIENTED_EDGE ( 'NONE', *, *, #29, .T. ) ;
#36 = DIRECTION ( 'NONE',  ( 1.000000000000000000, 0.0000000000000000000, -0.0000000000000000000 ) ) ;
#37 = DIRECTION ( 'NONE',  ( 1.000000000000000000, 0.0000000000000000000, 0.0000000000000000000 ) ) ;
#38 = LENGTH_MEASURE_WITH_UNIT ( LENGTH_MEASURE( 0.02539999999999999897 ), #226 );
#39 = VECTOR ( 'NONE', #89, 39.37007874015748143 ) ;
#40 = LINE ( 'NONE', #274, #144 ) ;
#41 = CONICAL_SURFACE ( 'NONE', #286, 0.09365624999999999645, 0.1745329251994338637 ) ;
#42 = DIMENSIONAL_EXPONENTS ( 1.000000000000000000, 0.0000000000000000000, 0.0000000000000000000, 0.0000000000000000000, 0.0000000000000000000, 0.0000000000000000000, 0.0000000000000000000 ) ;
#43 = DIRECTION ( 'NONE',  ( 0.0000000000000000000, 0.0000000000000000000, -1.000000000000000000 ) ) ;
#44 = DIRECTION ( 'NONE',  ( -1.000000000000000000, 0.0000000000000000000, 0.0000000000000000000 ) ) ;
#45 = SURFACE_STYLE_FILL_AREA ( #179 ) ;
#46 = CARTESIAN_POINT ( 'NONE',  ( 1.404618771449245766E-33, 0.0000000000000000000, 1.146958267826442798E-17 ) ) ;
#47 = AXIS2_PLACEMENT_3D ( 'NONE', #276, #245, #299 ) ;
#48 = MECHANICAL_DESIGN_GEOMETRIC_PRESENTATION_REPRESENTATION (  '', ( #194 ), #187 ) ;
#49 = FACE_OUTER_BOUND ( 'NONE', #163, .T. ) ;
#50 = EDGE_CURVE ( 'NONE', #176, #92, #112, .T. ) ;
#51 = ORIENTED_EDGE ( 'NONE', *, *, #125, .T. ) ;
#52 = ORIENTED_EDGE ( 'NONE', *, *, #90, .F. ) ;
#53 = COLOUR_RGB ( '',0.7921568627450980005, 0.8196078431372548767, 0.9333333333333333481 ) ;
#54 = AXIS2_PLACEMENT_3D ( 'NONE', #46, #128, #21 ) ;
#55 = ORIENTED_EDGE ( 'NONE', *, *, #50, .T. ) ;
#56 = EDGE_LOOP ( 'NONE', ( #95, #237, #191, #198 ) ) ;
#57 = EDGE_CURVE ( 'NONE', #186, #160, #225, .T. ) ;
#58 = CARTESIAN_POINT ( 'NONE',  ( 0.0000000000000000000, 0.0000000000000000000, 0.0000000000000000000 ) ) ;
#59 = EDGE_CURVE ( 'NONE', #92, #160, #84, .T. ) ;
#60 = CARTESIAN_POINT ( 'NONE',  ( 0.0000000000000000000, 0.0000000000000000000, 2.000000000000000000 ) ) ;
#61 = DIRECTION ( 'NONE',  ( 1.224646799147353207E-16, 0.0000000000000000000, 1.000000000000000000 ) ) ;
#62 = CARTESIAN_POINT ( 'NONE',  ( 0.0000000000000000000, 0.0000000000000000000, 1.984999999999999654 ) ) ;
#63 =( NAMED_UNIT ( * ) SI_UNIT ( $, .STERADIAN. ) SOLID_ANGLE_UNIT ( ) );
#64 = APPLICATION_CONTEXT ( 'automotive_design' ) ;
#65 = VERTEX_POINT ( 'NONE', #265 ) ;
#66 = LINE ( 'NONE', #23, #39 ) ;
#67 = AXIS2_PLACEMENT_3D ( 'NONE', #272, #16, #105 ) ;
#68 = AXIS2_PLACEMENT_3D ( 'NONE', #58, #261, #285 ) ;
#69 = FACE_OUTER_BOUND ( 'NONE', #117, .T. ) ;
#70 = DIRECTION ( 'NONE',  ( -1.224646799147353207E-16, -0.0000000000000000000, -1.000000000000000000 ) ) ;
#71 = CYLINDRICAL_SURFACE ( 'NONE', #67, 0.09365624999999999645 ) ;
#72 = VECTOR ( 'NONE', #197, 39.37007874015748143 ) ;
#73 = ORIENTED_EDGE ( 'NONE', *, *, #50, .F. ) ;
#74 = VERTEX_POINT ( 'NONE', #126 ) ;
#75 = CARTESIAN_POINT ( 'NONE',  ( 0.0000000000000000000, 0.0000000000000000000, 2.000000000000000000 ) ) ;
#76 = AXIS2_PLACEMENT_3D ( 'NONE', #227, #104, #199 ) ;
#77 = ADVANCED_FACE ( 'NONE', ( #13 ), #81, .T. ) ;
#78 = MECHANICAL_DESIGN_GEOMETRIC_PRESENTATION_REPRESENTATION (  '', ( #113 ), #254 ) ;
#79 = EDGE_CURVE ( 'NONE', #92, #176, #93, .T. ) ;
#80 = PLANE ( 'NONE',  #130 ) ;
#81 = CYLINDRICAL_SURFACE ( 'NONE', #108, 0.09375000000000001388 ) ;
#82 = DIRECTION ( 'NONE',  ( 1.000000000000000000, 0.0000000000000000000, 0.0000000000000000000 ) ) ;
#83 = VERTEX_POINT ( 'NONE', #177 ) ;
#84 = LINE ( 'NONE', #106, #195 ) ;
#85 = CARTESIAN_POINT ( 'NONE',  ( 7.654042494670957853E-17, 0.0000000000000000000, 0.6250000000000000000 ) ) ;
#86 = FILL_AREA_STYLE_COLOUR ( '', #53 ) ;
#87 = PRODUCT_DEFINITION ( 'UNKNOWN', '', #182, #162 ) ;
#88 = CYLINDRICAL_SURFACE ( 'NONE', #210, 0.09365624999999999645 ) ;
#89 = DIRECTION ( 'NONE',  ( -0.0000000000000000000, -0.0000000000000000000, -1.000000000000000000 ) ) ;
#90 = EDGE_CURVE ( 'NONE', #170, #176, #222, .T. ) ;
#91 = EDGE_LOOP ( 'NONE', ( #224, #114, #27, #216 ) ) ;
#92 = VERTEX_POINT ( 'NONE', #171 ) ;
#93 = CIRCLE ( 'NONE', #153, 0.09375000000000001388 ) ;
#94 =( GEOMETRIC_REPRESENTATION_CONTEXT ( 3 ) GLOBAL_UNCERTAINTY_ASSIGNED_CONTEXT ( ( #96 ) ) GLOBAL_UNIT_ASSIGNED_CONTEXT ( ( #223, #243, #219 ) ) REPRESENTATION_CONTEXT ( 'NONE', 'WORKASPACE' ) );
#95 = ORIENTED_EDGE ( 'NONE', *, *, #57, .F. ) ;
#96 = UNCERTAINTY_MEASURE_WITH_UNIT (LENGTH_MEASURE( 1.000000000000000082E-05 ), #223, 'distance_accuracy_value', 'NONE');
#97 = ADVANCED_FACE ( 'NONE', ( #146 ), #244, .F. ) ;
#98 = AXIS2_PLACEMENT_3D ( 'NONE', #247, #43, #180 ) ;
#99 = APPLICATION_PROTOCOL_DEFINITION ( 'draft international standard', 'automotive_design', 1998, #64 ) ;
#100 = ORIENTED_EDGE ( 'NONE', *, *, #196, .T. ) ;
#101 = DIRECTION ( 'NONE',  ( 0.0000000000000000000, 0.0000000000000000000, 1.000000000000000000 ) ) ;
#102 = EDGE_LOOP ( 'NONE', ( #35, #269 ) ) ;
#103 = AXIS2_PLACEMENT_3D ( 'NONE', #148, #268, #124 ) ;
#104 = DIRECTION ( 'NONE',  ( 0.0000000000000000000, 0.0000000000000000000, -1.000000000000000000 ) ) ;
#105 = DIRECTION ( 'NONE',  ( -1.000000000000000000, 0.0000000000000000000, 1.224646799147352961E-16 ) ) ;
#106 = CARTESIAN_POINT ( 'NONE',  ( -0.09375000000000001388, 0.0000000000000000000, 2.000000000000000000 ) ) ;
#107 = DIRECTION ( 'NONE',  ( -1.000000000000000000, 0.0000000000000000000, 0.0000000000000000000 ) ) ;
#108 = AXIS2_PLACEMENT_3D ( 'NONE', #174, #17, #267 ) ;
#109 = DIRECTION ( 'NONE',  ( -1.224646799147353207E-16, -0.0000000000000000000, -1.000000000000000000 ) ) ;
#110 = EDGE_CURVE ( 'NONE', #83, #92, #40, .T. ) ;
#111 = CARTESIAN_POINT ( 'NONE',  ( 1.404618771449245766E-33, 0.0000000000000000000, 1.146958267826442798E-17 ) ) ;
#112 = CIRCLE ( 'NONE', #76, 0.09375000000000001388 ) ;
#113 = STYLED_ITEM ( 'NONE', ( #33 ), #172 ) ;
#114 = ORIENTED_EDGE ( 'NONE', *, *, #90, .T. ) ;
#115 = EDGE_CURVE ( 'NONE', #3, #74, #230, .T. ) ;
#116 = ORIENTED_EDGE ( 'NONE', *, *, #215, .T. ) ;
#117 = EDGE_LOOP ( 'NONE', ( #279, #55, #255, #240 ) ) ;
#118 =( LENGTH_UNIT ( ) NAMED_UNIT ( * ) SI_UNIT ( $, .METRE. ) );
#119 = ADVANCED_FACE ( 'NONE', ( #157 ), #71, .T. ) ;
#120 = LENGTH_MEASURE_WITH_UNIT ( LENGTH_MEASURE( 0.02539999999999999897 ), #167 );
#121 = ORIENTED_EDGE ( 'NONE', *, *, #293, .T. ) ;
#122 = CARTESIAN_POINT ( 'NONE',  ( -0.09365624999999992706, 1.146958267826442798E-17, 0.6250000000000000000 ) ) ;
#123 = DIRECTION ( 'NONE',  ( -1.000000000000000000, 0.0000000000000000000, 0.0000000000000000000 ) ) ;
#124 = DIRECTION ( 'NONE',  ( 1.000000000000000000, 0.0000000000000000000, -0.0000000000000000000 ) ) ;
#125 = EDGE_CURVE ( 'NONE', #83, #170, #282, .T. ) ;
#126 = CARTESIAN_POINT ( 'NONE',  ( 0.09365624999999999645, 1.146958267826442798E-17, 0.0000000000000000000 ) ) ;
#127 = CARTESIAN_POINT ( 'NONE',  ( 7.654042494670957853E-17, 0.0000000000000000000, 0.6250000000000000000 ) ) ;
#128 = DIRECTION ( 'NONE',  ( -1.224646799147353207E-16, -0.0000000000000000000, -1.000000000000000000 ) ) ;
#129 = EDGE_CURVE ( 'NONE', #176, #25, #66, .T. ) ;
#130 = AXIS2_PLACEMENT_3D ( 'NONE', #60, #101, #36 ) ;
#131 = AXIS2_PLACEMENT_3D ( 'NONE', #292, #155, #82 ) ;
#132 = CARTESIAN_POINT ( 'NONE',  ( 0.09375000000000006939, 1.148106374200644633E-17, 0.6255316826705892286 ) ) ;
#133 = ORIENTED_EDGE ( 'NONE', *, *, #125, .F. ) ;
#134 = APPLICATION_CONTEXT ( 'automotive_design' ) ;
#135 = ADVANCED_FACE ( 'NONE', ( #250 ), #260, .T. ) ;
#136 = AXIS2_PLACEMENT_3D ( 'NONE', #185, #228, #212 ) ;
#137 = CIRCLE ( 'NONE', #136, 0.07874999999999980627 ) ;
#138 = AXIS2_PLACEMENT_3D ( 'NONE', #178, #270, #44 ) ;
#139 = UNCERTAINTY_MEASURE_WITH_UNIT (LENGTH_MEASURE( 1.000000000000000082E-05 ), #200, 'distance_accuracy_value', 'NONE');
#140 = DIRECTION ( 'NONE',  ( -1.000000000000000000, 0.0000000000000000000, 0.0000000000000000000 ) ) ;
#141 = SHAPE_DEFINITION_REPRESENTATION ( #6, #172 ) ;
#142 = APPLICATION_PROTOCOL_DEFINITION ( 'draft international standard', 'automotive_design', 1998, #134 ) ;
#143 = FACE_OUTER_BOUND ( 'NONE', #213, .T. ) ;
#144 = VECTOR ( 'NONE', #22, 39.37007874015748143 ) ;
#145 = AXIS2_PLACEMENT_3D ( 'NONE', #183, #109, #37 ) ;
#146 = FACE_OUTER_BOUND ( 'NONE', #102, .T. ) ;
#147 = DIRECTION ( 'NONE',  ( 1.000000000000000000, 0.0000000000000000000, 0.0000000000000000000 ) ) ;
#148 = CARTESIAN_POINT ( 'NONE',  ( 0.0000000000000000000, 0.0000000000000000000, 0.0000000000000000000 ) ) ;
#149 = ADVANCED_FACE ( 'NONE', ( #69 ), #173, .T. ) ;
#150 = DIRECTION ( 'NONE',  ( -0.0000000000000000000, -0.0000000000000000000, -1.000000000000000000 ) ) ;
#151 = DIRECTION ( 'NONE',  ( 1.000000000000000000, 0.0000000000000000000, 0.0000000000000000000 ) ) ;
#152 = LINE ( 'NONE', #156, #236 ) ;
#153 = AXIS2_PLACEMENT_3D ( 'NONE', #62, #205, #151 ) ;
#154 = CIRCLE ( 'NONE', #138, 0.09365624999999999645 ) ;
#155 = DIRECTION ( 'NONE',  ( -1.224646799147353207E-16, -0.0000000000000000000, -1.000000000000000000 ) ) ;
#156 = CARTESIAN_POINT ( 'NONE',  ( 0.09365625000000006584, 0.0000000000000000000, 0.6250000000000000000 ) ) ;
#157 = FACE_OUTER_BOUND ( 'NONE', #214, .T. ) ;
#158 = EDGE_LOOP ( 'NONE', ( #257, #253, #188, #24 ) ) ;
#159 = EDGE_CURVE ( 'NONE', #170, #83, #137, .T. ) ;
#160 = VERTEX_POINT ( 'NONE', #207 ) ;
#161 = DIRECTION ( 'NONE',  ( 0.0000000000000000000, 0.0000000000000000000, -1.000000000000000000 ) ) ;
#162 = PRODUCT_DEFINITION_CONTEXT ( 'detailed design', #134, 'design' ) ;
#163 = EDGE_LOOP ( 'NONE', ( #52, #133, #30, #73 ) ) ;
#164 = CIRCLE ( 'NONE', #290, 0.09365624999999999645 ) ;
#165 = PRODUCT_CONTEXT ( 'NONE', #64, 'mechanical' ) ;
#166 = MANIFOLD_SOLID_BREP ( 'Cut-Revolve1', #12 ) ;
#167 =( LENGTH_UNIT ( ) NAMED_UNIT ( * ) SI_UNIT ( $, .METRE. ) );
#168 = VECTOR ( 'NONE', #289, 39.37007874015748143 ) ;
#169 = AXIS2_PLACEMENT_3D ( 'NONE', #127, #19, #229 ) ;
#170 = VERTEX_POINT ( 'NONE', #296 ) ;
#171 = CARTESIAN_POINT ( 'NONE',  ( -0.09375000000000001388, 0.0000000000000000000, 1.984999999999999654 ) ) ;
#172 = ADVANCED_BREP_SHAPE_REPRESENTATION ( 'Micro_EMS-187-2', ( #166, #68 ), #94 ) ;
#173 = CYLINDRICAL_SURFACE ( 'NONE', #271, 0.09375000000000001388 ) ;
#174 = CARTESIAN_POINT ( 'NONE',  ( 0.0000000000000000000, 0.0000000000000000000, 2.000000000000000000 ) ) ;
#175 = FACE_OUTER_BOUND ( 'NONE', #56, .T. ) ;
#176 = VERTEX_POINT ( 'NONE', #18 ) ;
#177 = CARTESIAN_POINT ( 'NONE',  ( -0.07874999999999980627, 0.0000000000000000000, 2.000000000000000000 ) ) ;
#178 = CARTESIAN_POINT ( 'NONE',  ( 7.654042494670957853E-17, 0.0000000000000000000, 0.6250000000000000000 ) ) ;
#179 = FILL_AREA_STYLE ('',( #86 ) ) ;
#180 = DIRECTION ( 'NONE',  ( -1.000000000000000000, 0.0000000000000000000, 0.0000000000000000000 ) ) ;
#181 = CIRCLE ( 'NONE', #145, 0.09375000000000001388 ) ;
#182 = PRODUCT_DEFINITION_FORMATION_WITH_SPECIFIED_SOURCE ( 'ANY', '', #4, .NOT_KNOWN. ) ;
#183 = CARTESIAN_POINT ( 'NONE',  ( 7.660553729477949085E-17, 0.0000000000000000000, 0.6255316826705892286 ) ) ;
#184 = DIMENSIONAL_EXPONENTS ( 1.000000000000000000, 0.0000000000000000000, 0.0000000000000000000, 0.0000000000000000000, 0.0000000000000000000, 0.0000000000000000000, 0.0000000000000000000 ) ;
#185 = CARTESIAN_POINT ( 'NONE',  ( 0.0000000000000000000, 0.0000000000000000000, 2.000000000000000000 ) ) ;
#186 = VERTEX_POINT ( 'NONE', #203 ) ;
#187 =( GEOMETRIC_REPRESENTATION_CONTEXT ( 3 ) GLOBAL_UNCERTAINTY_ASSIGNED_CONTEXT ( ( #234 ) ) GLOBAL_UNIT_ASSIGNED_CONTEXT ( ( #231, #14, #63 ) ) REPRESENTATION_CONTEXT ( 'NONE', 'WORKASPACE' ) );
#188 = ORIENTED_EDGE ( 'NONE', *, *, #189, .T. ) ;
#189 = EDGE_CURVE ( 'NONE', #160, #25, #181, .T. ) ;
#190 = ORIENTED_EDGE ( 'NONE', *, *, #79, .T. ) ;
#191 = ORIENTED_EDGE ( 'NONE', *, *, #258, .T. ) ;
#192 = ADVANCED_FACE ( 'NONE', ( #249 ), #88, .T. ) ;
#193 = AXIS2_PLACEMENT_3D ( 'NONE', #75, #161, #140 ) ;
#194 = STYLED_ITEM ( 'NONE', ( #287 ), #166 ) ;
#195 = VECTOR ( 'NONE', #294, 39.37007874015748143 ) ;
#196 = EDGE_CURVE ( 'NONE', #3, #186, #164, .T. ) ;
#197 = DIRECTION ( 'NONE',  ( -1.224646799147353207E-16, -0.0000000000000000000, -1.000000000000000000 ) ) ;
#198 = ORIENTED_EDGE ( 'NONE', *, *, #242, .T. ) ;
#199 = DIRECTION ( 'NONE',  ( 1.000000000000000000, 0.0000000000000000000, 0.0000000000000000000 ) ) ;
#200 =( CONVERSION_BASED_UNIT ( 'INCH', #120 ) LENGTH_UNIT ( ) NAMED_UNIT ( #184 ) );
#201 = ORIENTED_EDGE ( 'NONE', *, *, #189, .F. ) ;
#202 = DIRECTION ( 'NONE',  ( -0.1736481776669311639, 2.126576849575783008E-17, 0.9848077530122080203 ) ) ;
#203 = CARTESIAN_POINT ( 'NONE',  ( -0.09365624999999992706, 1.147532321013543253E-17, 0.6250000000000000000 ) ) ;
#204 = DIRECTION ( 'NONE',  ( -1.224646799147353207E-16, -0.0000000000000000000, -1.000000000000000000 ) ) ;
#205 = DIRECTION ( 'NONE',  ( 0.0000000000000000000, 0.0000000000000000000, -1.000000000000000000 ) ) ;
#206 = CARTESIAN_POINT ( 'NONE',  ( 0.0000000000000000000, 0.0000000000000000000, 0.0000000000000000000 ) ) ;
#207 = CARTESIAN_POINT ( 'NONE',  ( -0.09374999999999994449, 0.0000000000000000000, 0.6255316826705892286 ) ) ;
#208 = DIMENSIONAL_EXPONENTS ( 1.000000000000000000, 0.0000000000000000000, 0.0000000000000000000, 0.0000000000000000000, 0.0000000000000000000, 0.0000000000000000000, 0.0000000000000000000 ) ;
#209 = AXIS2_PLACEMENT_3D ( 'NONE', #111, #1, #218 ) ;
#210 = AXIS2_PLACEMENT_3D ( 'NONE', #206, #273, #295 ) ;
#211 = FACE_OUTER_BOUND ( 'NONE', #158, .T. ) ;
#212 = DIRECTION ( 'NONE',  ( 1.000000000000000000, 0.0000000000000000000, 0.0000000000000000000 ) ) ;
#213 = EDGE_LOOP ( 'NONE', ( #51, #256 ) ) ;
#214 = EDGE_LOOP ( 'NONE', ( #116, #259, #15, #278 ) ) ;
#215 = EDGE_CURVE ( 'NONE', #186, #3, #154, .T. ) ;
#216 = ORIENTED_EDGE ( 'NONE', *, *, #110, .F. ) ;
#217 = LINE ( 'NONE', #8, #72 ) ;
#218 = DIRECTION ( 'NONE',  ( -1.000000000000000000, 0.0000000000000000000, 1.224646799147352961E-16 ) ) ;
#219 =( NAMED_UNIT ( * ) SI_UNIT ( $, .STERADIAN. ) SOLID_ANGLE_UNIT ( ) );
#220 = CONICAL_SURFACE ( 'NONE', #193, 0.07874999999999980627, 0.7853981633974466137 ) ;
#221 = PRESENTATION_LAYER_ASSIGNMENT (  '', '', ( #113 ) ) ;
#222 = LINE ( 'NONE', #10, #168 ) ;
#223 =( CONVERSION_BASED_UNIT ( 'INCH', #7 ) LENGTH_UNIT ( ) NAMED_UNIT ( #208 ) );
#224 = ORIENTED_EDGE ( 'NONE', *, *, #159, .F. ) ;
#225 = LINE ( 'NONE', #122, #284 ) ;
#226 =( LENGTH_UNIT ( ) NAMED_UNIT ( * ) SI_UNIT ( $, .METRE. ) );
#227 = CARTESIAN_POINT ( 'NONE',  ( 0.0000000000000000000, 0.0000000000000000000, 1.984999999999999654 ) ) ;
#228 = DIRECTION ( 'NONE',  ( 0.0000000000000000000, 0.0000000000000000000, 1.000000000000000000 ) ) ;
#229 = DIRECTION ( 'NONE',  ( 1.000000000000000000, 0.0000000000000000000, 0.0000000000000000000 ) ) ;
#230 = LINE ( 'NONE', #298, #232 ) ;
#231 =( CONVERSION_BASED_UNIT ( 'INCH', #38 ) LENGTH_UNIT ( ) NAMED_UNIT ( #42 ) );
#232 = VECTOR ( 'NONE', #204, 39.37007874015748143 ) ;
#233 = ORIENTED_EDGE ( 'NONE', *, *, #59, .F. ) ;
#234 = UNCERTAINTY_MEASURE_WITH_UNIT (LENGTH_MEASURE( 1.000000000000000082E-05 ), #231, 'distance_accuracy_value', 'NONE');
#235 = ORIENTED_EDGE ( 'NONE', *, *, #115, .F. ) ;
#236 = VECTOR ( 'NONE', #251, 39.37007874015748143 ) ;
#237 = ORIENTED_EDGE ( 'NONE', *, *, #196, .F. ) ;
#238 = EDGE_LOOP ( 'NONE', ( #235, #100, #121, #239 ) ) ;
#239 = ORIENTED_EDGE ( 'NONE', *, *, #280, .F. ) ;
#240 = ORIENTED_EDGE ( 'NONE', *, *, #242, .F. ) ;
#241 = COLOUR_RGB ( '',0.7921568627450980005, 0.8196078431372548767, 0.9333333333333333481 ) ;
#242 = EDGE_CURVE ( 'NONE', #25, #160, #246, .T. ) ;
#243 =( NAMED_UNIT ( * ) PLANE_ANGLE_UNIT ( ) SI_UNIT ( $, .RADIAN. ) );
#244 = PLANE ( 'NONE',  #103 ) ;
#245 = DIRECTION ( 'NONE',  ( 0.0000000000000000000, 0.0000000000000000000, 1.000000000000000000 ) ) ;
#246 = CIRCLE ( 'NONE', #131, 0.09375000000000001388 ) ;
#247 = CARTESIAN_POINT ( 'NONE',  ( 0.0000000000000000000, 0.0000000000000000000, 2.000000000000000000 ) ) ;
#248 = ADVANCED_FACE ( 'NONE', ( #175 ), #26, .T. ) ;
#249 = FACE_OUTER_BOUND ( 'NONE', #238, .T. ) ;
#250 = FACE_OUTER_BOUND ( 'NONE', #91, .T. ) ;
#251 = DIRECTION ( 'NONE',  ( 0.1736481776669313581, 0.0000000000000000000, 0.9848077530122077983 ) ) ;
#252 = SURFACE_STYLE_USAGE ( .BOTH. , #275 ) ;
#253 = ORIENTED_EDGE ( 'NONE', *, *, #57, .T. ) ;
#254 =( GEOMETRIC_REPRESENTATION_CONTEXT ( 3 ) GLOBAL_UNCERTAINTY_ASSIGNED_CONTEXT ( ( #139 ) ) GLOBAL_UNIT_ASSIGNED_CONTEXT ( ( #200, #31, #262 ) ) REPRESENTATION_CONTEXT ( 'NONE', 'WORKASPACE' ) );
#255 = ORIENTED_EDGE ( 'NONE', *, *, #59, .T. ) ;
#256 = ORIENTED_EDGE ( 'NONE', *, *, #159, .T. ) ;
#257 = ORIENTED_EDGE ( 'NONE', *, *, #215, .F. ) ;
#258 = EDGE_CURVE ( 'NONE', #3, #25, #152, .T. ) ;
#259 = ORIENTED_EDGE ( 'NONE', *, *, #115, .T. ) ;
#260 = CONICAL_SURFACE ( 'NONE', #98, 0.07874999999999980627, 0.7853981633974466137 ) ;
#261 = DIRECTION ( 'NONE',  ( 0.0000000000000000000, 0.0000000000000000000, 1.000000000000000000 ) ) ;
#262 =( NAMED_UNIT ( * ) SI_UNIT ( $, .STERADIAN. ) SOLID_ANGLE_UNIT ( ) );
#263 = SURFACE_SIDE_STYLE ('',( #9 ) ) ;
#264 = ORIENTED_EDGE ( 'NONE', *, *, #129, .T. ) ;
#265 = CARTESIAN_POINT ( 'NONE',  ( -0.09365624999999999645, 0.0000000000000000000, 2.293916535652885596E-17 ) ) ;
#266 = CARTESIAN_POINT ( 'NONE',  ( 7.654042494670957853E-17, 0.0000000000000000000, 0.6250000000000000000 ) ) ;
#267 = DIRECTION ( 'NONE',  ( -1.000000000000000000, 0.0000000000000000000, 0.0000000000000000000 ) ) ;
#268 = DIRECTION ( 'NONE',  ( 0.0000000000000000000, 0.0000000000000000000, 1.000000000000000000 ) ) ;
#269 = ORIENTED_EDGE ( 'NONE', *, *, #280, .T. ) ;
#270 = DIRECTION ( 'NONE',  ( -1.224646799147353207E-16, -0.0000000000000000000, -1.000000000000000000 ) ) ;
#271 = AXIS2_PLACEMENT_3D ( 'NONE', #20, #150, #107 ) ;
#272 = CARTESIAN_POINT ( 'NONE',  ( 0.0000000000000000000, 0.0000000000000000000, 0.0000000000000000000 ) ) ;
#273 = DIRECTION ( 'NONE',  ( -1.224646799147353207E-16, -0.0000000000000000000, -1.000000000000000000 ) ) ;
#274 = CARTESIAN_POINT ( 'NONE',  ( -0.07874999999999980627, 0.0000000000000000000, 2.000000000000000000 ) ) ;
#275 = SURFACE_SIDE_STYLE ('',( #45 ) ) ;
#276 = CARTESIAN_POINT ( 'NONE',  ( 0.0000000000000000000, 0.0000000000000000000, 2.000000000000000000 ) ) ;
#277 = PRESENTATION_LAYER_ASSIGNMENT (  '', '', ( #194 ) ) ;
#278 = ORIENTED_EDGE ( 'NONE', *, *, #293, .F. ) ;
#279 = ORIENTED_EDGE ( 'NONE', *, *, #129, .F. ) ;
#280 = EDGE_CURVE ( 'NONE', #74, #65, #2, .T. ) ;
#281 = CARTESIAN_POINT ( 'NONE',  ( 0.09365625000000006584, 0.0000000000000000000, 0.6250000000000000000 ) ) ;
#282 = CIRCLE ( 'NONE', #47, 0.07874999999999980627 ) ;
#283 = FILL_AREA_STYLE ('',( #288 ) ) ;
#284 = VECTOR ( 'NONE', #202, 39.37007874015747433 ) ;
#285 = DIRECTION ( 'NONE',  ( 1.000000000000000000, 0.0000000000000000000, 0.0000000000000000000 ) ) ;
#286 = AXIS2_PLACEMENT_3D ( 'NONE', #266, #61, #147 ) ;
#287 = PRESENTATION_STYLE_ASSIGNMENT (( #252 ) ) ;
#288 = FILL_AREA_STYLE_COLOUR ( '', #241 ) ;
#289 = DIRECTION ( 'NONE',  ( 0.7071067811865463515, 8.659560562354916834E-17, -0.7071067811865486830 ) ) ;
#290 = AXIS2_PLACEMENT_3D ( 'NONE', #85, #70, #123 ) ;
#291 = ADVANCED_FACE ( 'NONE', ( #211 ), #41, .T. ) ;
#292 = CARTESIAN_POINT ( 'NONE',  ( 7.660553729477949085E-17, 0.0000000000000000000, 0.6255316826705892286 ) ) ;
#293 = EDGE_CURVE ( 'NONE', #186, #65, #217, .T. ) ;
#294 = DIRECTION ( 'NONE',  ( -0.0000000000000000000, -0.0000000000000000000, -1.000000000000000000 ) ) ;
#295 = DIRECTION ( 'NONE',  ( -1.000000000000000000, 0.0000000000000000000, 1.224646799147352961E-16 ) ) ;
#296 = CARTESIAN_POINT ( 'NONE',  ( 0.07874999999999980627, 1.056257864264590573E-17, 2.000000000000000000 ) ) ;
#297 = CIRCLE ( 'NONE', #209, 0.09365624999999999645 ) ;
#298 = CARTESIAN_POINT ( 'NONE',  ( 0.09365624999999999645, 1.146958267826442798E-17, -1.146958267826442798E-17 ) ) ;
#299 = DIRECTION ( 'NONE',  ( 1.000000000000000000, 0.0000000000000000000, 0.0000000000000000000 ) ) ;
ENDSEC;
END-ISO-10303-21;
