ISO-10303-21;
HEADER;
FILE_DESCRIPTION (( 'STEP AP214' ),
    '1' );
FILE_NAME ('83413.STEP',
    '2023-06-30T23:11:50',
    ( '' ),
    ( '' ),
    'SwSTEP 2.0',
    'SolidWorks 2023',
    '' );
FILE_SCHEMA (( 'AUTOMOTIVE_DESIGN' ));
ENDSEC;

DATA;
#1 = AXIS2_PLACEMENT_3D ( 'NONE', #315, #367, #161 ) ;
#2 =( CONVERSION_BASED_UNIT ( 'INCH', #140 ) LENGTH_UNIT ( ) NAMED_UNIT ( #117 ) );
#3 = CYLINDRICAL_SURFACE ( 'NONE', #223, 0.09374999999999995837 ) ;
#4 = DIRECTION ( 'NONE',  ( -1.214281582932884309E-16, 1.000000000000000000, -0.000000000000000000 ) ) ;
#5 = EDGE_CURVE ( 'NONE', #183, #342, #352, .T. ) ;
#6 = STYLED_ITEM ( 'NONE', ( #273 ), #151 ) ;
#7 = AXIS2_PLACEMENT_3D ( 'NONE', #295, #225, #31 ) ;
#8 = SURFACE_STYLE_FILL_AREA ( #64 ) ;
#9 = VERTEX_POINT ( 'NONE', #209 ) ;
#10 = DIMENSIONAL_EXPONENTS ( 1.000000000000000000, 0.000000000000000000, 0.000000000000000000, 0.000000000000000000, 0.000000000000000000, 0.000000000000000000, 0.000000000000000000 ) ;
#11 =( CONVERSION_BASED_UNIT ( 'INCH', #354 ) LENGTH_UNIT ( ) NAMED_UNIT ( #10 ) );
#12 = LENGTH_MEASURE_WITH_UNIT ( LENGTH_MEASURE( 0.02539999999999999897 ), #267 );
#13 = CARTESIAN_POINT ( 'NONE',  ( 0.000000000000000000, 0.4375000000000000000, 0.000000000000000000 ) ) ;
#14 = MECHANICAL_DESIGN_GEOMETRIC_PRESENTATION_REPRESENTATION (  '', ( #299 ), #308 ) ;
#15 = CARTESIAN_POINT ( 'NONE',  ( 0.09374999999999991673, 0.4374999999999998890, 1.148106374200641552E-17 ) ) ;
#16 = VERTEX_POINT ( 'NONE', #68 ) ;
#17 =( NAMED_UNIT ( * ) SI_UNIT ( $, .STERADIAN. ) SOLID_ANGLE_UNIT ( ) );
#18 = CARTESIAN_POINT ( 'NONE',  ( -0.09374999999999972244, 2.000000000000000000, 0.000000000000000000 ) ) ;
#19 = UNCERTAINTY_MEASURE_WITH_UNIT (LENGTH_MEASURE( 1.000000000000000082E-05 ), #323, 'distance_accuracy_value', 'NONE');
#20 = ORIENTED_EDGE ( 'NONE', *, *, #261, .F. ) ;
#21 = CIRCLE ( 'NONE', #114, 0.09374999999999994449 ) ;
#22 = CARTESIAN_POINT ( 'NONE',  ( 6.123233995736766036E-17, 2.000000000000000000, 0.000000000000000000 ) ) ;
#23 = ORIENTED_EDGE ( 'NONE', *, *, #103, .F. ) ;
#24 = EDGE_LOOP ( 'NONE', ( #132, #310, #23, #52 ) ) ;
#25 = FACE_OUTER_BOUND ( 'NONE', #24, .T. ) ;
#26 = CIRCLE ( 'NONE', #204, 0.09374999999999998612 ) ;
#27 = LENGTH_MEASURE_WITH_UNIT ( LENGTH_MEASURE( 0.02539999999999999897 ), #81 );
#28 = PLANE ( 'NONE',  #115 ) ;
#29 = EDGE_CURVE ( 'NONE', #348, #250, #21, .T. ) ;
#30 = AXIS2_PLACEMENT_3D ( 'NONE', #329, #111, #325 ) ;
#31 = DIRECTION ( 'NONE',  ( -1.000000000000000000, 0.000000000000000000, 0.000000000000000000 ) ) ;
#32 = DIRECTION ( 'NONE',  ( -1.000000000000000000, 0.000000000000000000, 0.000000000000000000 ) ) ;
#33 = EDGE_CURVE ( 'NONE', #46, #306, #26, .T. ) ;
#34 =( NAMED_UNIT ( * ) PLANE_ANGLE_UNIT ( ) SI_UNIT ( $, .RADIAN. ) );
#35 =( GEOMETRIC_REPRESENTATION_CONTEXT ( 3 ) GLOBAL_UNCERTAINTY_ASSIGNED_CONTEXT ( ( #19 ) ) GLOBAL_UNIT_ASSIGNED_CONTEXT ( ( #323, #78, #170 ) ) REPRESENTATION_CONTEXT ( 'NONE', 'WORKASPACE' ) );
#36 = DIMENSIONAL_EXPONENTS ( 1.000000000000000000, 0.000000000000000000, 0.000000000000000000, 0.000000000000000000, 0.000000000000000000, 0.000000000000000000, 0.000000000000000000 ) ;
#37 = EDGE_CURVE ( 'NONE', #338, #342, #274, .T. ) ;
#38 = APPLICATION_PROTOCOL_DEFINITION ( 'draft international standard', 'automotive_design', 1998, #236 ) ;
#39 = ORIENTED_EDGE ( 'NONE', *, *, #349, .F. ) ;
#40 = STYLED_ITEM ( 'NONE', ( #293 ), #301 ) ;
#41 = SURFACE_STYLE_USAGE ( .BOTH. , #318 ) ;
#42 = ORIENTED_EDGE ( 'NONE', *, *, #108, .F. ) ;
#43 = EDGE_CURVE ( 'NONE', #130, #338, #252, .T. ) ;
#44 = DIMENSIONAL_EXPONENTS ( 1.000000000000000000, 0.000000000000000000, 0.000000000000000000, 0.000000000000000000, 0.000000000000000000, 0.000000000000000000, 0.000000000000000000 ) ;
#45 = SURFACE_STYLE_USAGE ( .BOTH. , #280 ) ;
#46 = VERTEX_POINT ( 'NONE', #260 ) ;
#47 = UNCERTAINTY_MEASURE_WITH_UNIT (LENGTH_MEASURE( 1.000000000000000082E-05 ), #362, 'distance_accuracy_value', 'NONE');
#48 =( NAMED_UNIT ( * ) PLANE_ANGLE_UNIT ( ) SI_UNIT ( $, .RADIAN. ) );
#49 = ORIENTED_EDGE ( 'NONE', *, *, #349, .T. ) ;
#50 = AXIS2_PLACEMENT_3D ( 'NONE', #346, #276, #361 ) ;
#51 = LENGTH_MEASURE_WITH_UNIT ( LENGTH_MEASURE( 0.02539999999999999897 ), #271 );
#52 = ORIENTED_EDGE ( 'NONE', *, *, #92, .T. ) ;
#53 = LINE ( 'NONE', #165, #89 ) ;
#54 =( NAMED_UNIT ( * ) PLANE_ANGLE_UNIT ( ) SI_UNIT ( $, .RADIAN. ) );
#55 = AXIS2_PLACEMENT_3D ( 'NONE', #22, #93, #182 ) ;
#56 = MECHANICAL_DESIGN_GEOMETRIC_PRESENTATION_REPRESENTATION (  '', ( #69 ), #372 ) ;
#57 = COLOUR_RGB ( '',1.000000000000000000, 0.000000000000000000, 0.000000000000000000 ) ;
#58 = CARTESIAN_POINT ( 'NONE',  ( 2.509638372906308320E-16, 0.4374999999999998890, 0.000000000000000000 ) ) ;
#59 = SURFACE_SIDE_STYLE ('',( #302 ) ) ;
#60 = PRODUCT_RELATED_PRODUCT_CATEGORY ( 'part', '', ( #121 ) ) ;
#61 = PRESENTATION_STYLE_ASSIGNMENT (( #263 ) ) ;
#62 = SURFACE_STYLE_USAGE ( .BOTH. , #202 ) ;
#63 = PRESENTATION_LAYER_ASSIGNMENT (  '', '', ( #67 ) ) ;
#64 = FILL_AREA_STYLE ('',( #298 ) ) ;
#65 = CARTESIAN_POINT ( 'NONE',  ( -1.148106374200643401E-17, 0.09374999999999998612, 0.000000000000000000 ) ) ;
#66 = CARTESIAN_POINT ( 'NONE',  ( 0.000000000000000000, 0.000000000000000000, 0.000000000000000000 ) ) ;
#67 = STYLED_ITEM ( 'NONE', ( #150 ), #109 ) ;
#68 = CARTESIAN_POINT ( 'NONE',  ( 0.09374999999999998612, 0.09375000000000001388, 0.000000000000000000 ) ) ;
#69 = STYLED_ITEM ( 'NONE', ( #61 ), #344 ) ;
#70 = EDGE_LOOP ( 'NONE', ( #319, #98, #102, #20, #135 ) ) ;
#71 = CYLINDRICAL_SURFACE ( 'NONE', #1, 0.09374999999999995837 ) ;
#72 = EDGE_LOOP ( 'NONE', ( #191, #42 ) ) ;
#73 =( LENGTH_UNIT ( ) NAMED_UNIT ( * ) SI_UNIT ( $, .METRE. ) );
#74 = DIRECTION ( 'NONE',  ( -0.000000000000000000, -1.000000000000000000, -0.000000000000000000 ) ) ;
#75 = CLOSED_SHELL ( 'NONE', ( #301, #344, #127, #151, #226 ) ) ;
#76 = CARTESIAN_POINT ( 'NONE',  ( 0.000000000000000000, 0.09375000000000001388, 0.000000000000000000 ) ) ;
#77 = DIRECTION ( 'NONE',  ( 1.000000000000000000, 0.000000000000000000, 0.000000000000000000 ) ) ;
#78 =( NAMED_UNIT ( * ) PLANE_ANGLE_UNIT ( ) SI_UNIT ( $, .RADIAN. ) );
#79 = PRODUCT_DEFINITION_SHAPE ( 'NONE', 'NONE',  #106 ) ;
#80 = COLOUR_RGB ( '',0.7921568627450980005, 0.8196078431372548767, 0.9333333333333333481 ) ;
#81 =( LENGTH_UNIT ( ) NAMED_UNIT ( * ) SI_UNIT ( $, .METRE. ) );
#82 = DIRECTION ( 'NONE',  ( 1.214281582932884309E-16, -1.000000000000000000, 0.000000000000000000 ) ) ;
#83 = DIRECTION ( 'NONE',  ( 0.000000000000000000, 0.000000000000000000, -1.000000000000000000 ) ) ;
#84 = AXIS2_PLACEMENT_3D ( 'NONE', #58, #4, #112 ) ;
#85 = FILL_AREA_STYLE ('',( #327 ) ) ;
#86 = SPHERICAL_SURFACE ( 'NONE', #30, 0.09374999999999998612 ) ;
#87 =( NAMED_UNIT ( * ) PLANE_ANGLE_UNIT ( ) SI_UNIT ( $, .RADIAN. ) );
#88 = VECTOR ( 'NONE', #363, 39.37007874015748143 ) ;
#89 = VECTOR ( 'NONE', #283, 39.37007874015748143 ) ;
#90 = DIMENSIONAL_EXPONENTS ( 1.000000000000000000, 0.000000000000000000, 0.000000000000000000, 0.000000000000000000, 0.000000000000000000, 0.000000000000000000, 0.000000000000000000 ) ;
#91 = FILL_AREA_STYLE_COLOUR ( '', #168 ) ;
#92 = EDGE_CURVE ( 'NONE', #16, #46, #357, .T. ) ;
#93 = DIRECTION ( 'NONE',  ( -1.214281582932884309E-16, 1.000000000000000000, -0.000000000000000000 ) ) ;
#94 = ORIENTED_EDGE ( 'NONE', *, *, #175, .T. ) ;
#95 = FACE_OUTER_BOUND ( 'NONE', #154, .T. ) ;
#96 = PRESENTATION_LAYER_ASSIGNMENT (  '', '', ( #210 ) ) ;
#97 = AXIS2_PLACEMENT_3D ( 'NONE', #211, #364, #157 ) ;
#98 = ORIENTED_EDGE ( 'NONE', *, *, #282, .T. ) ;
#99 =( NAMED_UNIT ( * ) SI_UNIT ( $, .STERADIAN. ) SOLID_ANGLE_UNIT ( ) );
#100 = ORIENTED_EDGE ( 'NONE', *, *, #103, .T. ) ;
#101 = DIRECTION ( 'NONE',  ( 0.000000000000000000, 0.000000000000000000, -1.000000000000000000 ) ) ;
#102 = ORIENTED_EDGE ( 'NONE', *, *, #92, .F. ) ;
#103 = EDGE_CURVE ( 'NONE', #16, #9, #332, .T. ) ;
#104 = DIRECTION ( 'NONE',  ( -0.000000000000000000, -1.000000000000000000, -0.000000000000000000 ) ) ;
#105 = ORIENTED_EDGE ( 'NONE', *, *, #175, .F. ) ;
#106 = PRODUCT_DEFINITION ( 'UNKNOWN', '', #233, #206 ) ;
#107 = SURFACE_STYLE_FILL_AREA ( #167 ) ;
#108 = EDGE_CURVE ( 'NONE', #250, #348, #258, .T. ) ;
#109 = MANIFOLD_SOLID_BREP ( 'Revolve - Tool Body (Straight Shanked)', #285 ) ;
#110 = DIRECTION ( 'NONE',  ( 0.000000000000000000, 0.000000000000000000, 1.000000000000000000 ) ) ;
#111 = DIRECTION ( 'NONE',  ( 0.000000000000000000, 0.000000000000000000, 1.000000000000000000 ) ) ;
#112 = DIRECTION ( 'NONE',  ( -1.000000000000000000, 0.000000000000000000, 0.000000000000000000 ) ) ;
#113 = CARTESIAN_POINT ( 'NONE',  ( -1.148106374200643401E-17, 0.09374999999999998612, 0.000000000000000000 ) ) ;
#114 = AXIS2_PLACEMENT_3D ( 'NONE', #156, #74, #366 ) ;
#115 = AXIS2_PLACEMENT_3D ( 'NONE', #373, #82, #144 ) ;
#116 = LENGTH_MEASURE_WITH_UNIT ( LENGTH_MEASURE( 0.02539999999999999897 ), #335 );
#117 = DIMENSIONAL_EXPONENTS ( 1.000000000000000000, 0.000000000000000000, 0.000000000000000000, 0.000000000000000000, 0.000000000000000000, 0.000000000000000000, 0.000000000000000000 ) ;
#118 = DIRECTION ( 'NONE',  ( 1.000000000000000000, 0.000000000000000000, -1.224646799147353207E-16 ) ) ;
#119 =( NAMED_UNIT ( * ) SI_UNIT ( $, .STERADIAN. ) SOLID_ANGLE_UNIT ( ) );
#120 =( CONVERSION_BASED_UNIT ( 'INCH', #12 ) LENGTH_UNIT ( ) NAMED_UNIT ( #242 ) );
#121 = PRODUCT ( '83413', '83413', '', ( #304 ) ) ;
#122 = UNCERTAINTY_MEASURE_WITH_UNIT (LENGTH_MEASURE( 1.000000000000000082E-05 ), #2, 'distance_accuracy_value', 'NONE');
#123 = DIRECTION ( 'NONE',  ( 1.000000000000000000, 0.000000000000000000, 0.000000000000000000 ) ) ;
#124 = MECHANICAL_DESIGN_GEOMETRIC_PRESENTATION_REPRESENTATION (  '', ( #67 ), #188 ) ;
#125 = AXIS2_PLACEMENT_3D ( 'NONE', #76, #197, #192 ) ;
#126 = ORIENTED_EDGE ( 'NONE', *, *, #240, .T. ) ;
#127 = ADVANCED_FACE ( 'NONE', ( #268 ), #205, .T. ) ;
#128 = DIRECTION ( 'NONE',  ( 0.000000000000000000, 0.000000000000000000, 1.000000000000000000 ) ) ;
#129 = DIRECTION ( 'NONE',  ( -0.000000000000000000, -1.000000000000000000, -0.000000000000000000 ) ) ;
#130 = VERTEX_POINT ( 'NONE', #15 ) ;
#131 =( LENGTH_UNIT ( ) NAMED_UNIT ( * ) SI_UNIT ( $, .METRE. ) );
#132 = ORIENTED_EDGE ( 'NONE', *, *, #33, .T. ) ;
#133 = COLOUR_RGB ( '',1.000000000000000000, 0.000000000000000000, 0.000000000000000000 ) ;
#134 =( CONVERSION_BASED_UNIT ( 'INCH', #275 ) LENGTH_UNIT ( ) NAMED_UNIT ( #155 ) );
#135 = ORIENTED_EDGE ( 'NONE', *, *, #240, .F. ) ;
#136 = UNCERTAINTY_MEASURE_WITH_UNIT (LENGTH_MEASURE( 1.000000000000000082E-05 ), #11, 'distance_accuracy_value', 'NONE');
#137 = CYLINDRICAL_SURFACE ( 'NONE', #190, 0.09374999999999979183 ) ;
#138 = FACE_OUTER_BOUND ( 'NONE', #221, .T. ) ;
#139 = ORIENTED_EDGE ( 'NONE', *, *, #37, .F. ) ;
#140 = LENGTH_MEASURE_WITH_UNIT ( LENGTH_MEASURE( 0.02539999999999999897 ), #257 );
#141 = ORIENTED_EDGE ( 'NONE', *, *, #5, .T. ) ;
#142 = CARTESIAN_POINT ( 'NONE',  ( -0.09374999999999998612, 0.09375000000000001388, 1.148106374200643247E-17 ) ) ;
#143 =( GEOMETRIC_REPRESENTATION_CONTEXT ( 3 ) GLOBAL_UNCERTAINTY_ASSIGNED_CONTEXT ( ( #358 ) ) GLOBAL_UNIT_ASSIGNED_CONTEXT ( ( #355, #34, #201 ) ) REPRESENTATION_CONTEXT ( 'NONE', 'WORKASPACE' ) );
#144 = DIRECTION ( 'NONE',  ( 1.000000000000000000, 1.214281582932884309E-16, 0.000000000000000000 ) ) ;
#145 = CARTESIAN_POINT ( 'NONE',  ( -0.09374999999999980571, 2.000000000000000000, 0.000000000000000000 ) ) ;
#146 = SURFACE_SIDE_STYLE ('',( #297 ) ) ;
#147 =( LENGTH_UNIT ( ) NAMED_UNIT ( * ) SI_UNIT ( $, .METRE. ) );
#148 = PRESENTATION_LAYER_ASSIGNMENT (  '', '', ( #69 ) ) ;
#149 = FILL_AREA_STYLE ('',( #230 ) ) ;
#150 = PRESENTATION_STYLE_ASSIGNMENT (( #62 ) ) ;
#151 = ADVANCED_FACE ( 'NONE', ( #305 ), #71, .T. ) ;
#152 = SHAPE_DEFINITION_REPRESENTATION ( #79, #284 ) ;
#153 = DIRECTION ( 'NONE',  ( -1.214281582932884309E-16, 1.000000000000000000, -0.000000000000000000 ) ) ;
#154 = EDGE_LOOP ( 'NONE', ( #49, #164, #187, #139 ) ) ;
#155 = DIMENSIONAL_EXPONENTS ( 1.000000000000000000, 0.000000000000000000, 0.000000000000000000, 0.000000000000000000, 0.000000000000000000, 0.000000000000000000, 0.000000000000000000 ) ;
#156 = CARTESIAN_POINT ( 'NONE',  ( 0.000000000000000000, 0.4375000000000000000, 0.000000000000000000 ) ) ;
#157 = DIRECTION ( 'NONE',  ( -1.000000000000000000, -1.214281582932884309E-16, 0.000000000000000000 ) ) ;
#158 = DIRECTION ( 'NONE',  ( 0.000000000000000000, 1.000000000000000000, 0.000000000000000000 ) ) ;
#159 = ORIENTED_EDGE ( 'NONE', *, *, #43, .T. ) ;
#160 = PRESENTATION_LAYER_ASSIGNMENT (  '', '', ( #6 ) ) ;
#161 = DIRECTION ( 'NONE',  ( 0.000000000000000000, 0.000000000000000000, -1.000000000000000000 ) ) ;
#162 = ORIENTED_EDGE ( 'NONE', *, *, #5, .F. ) ;
#163 = DIRECTION ( 'NONE',  ( 0.000000000000000000, -0.000000000000000000, 1.000000000000000000 ) ) ;
#164 = ORIENTED_EDGE ( 'NONE', *, *, #166, .T. ) ;
#165 = CARTESIAN_POINT ( 'NONE',  ( 1.148106374200643092E-17, 0.000000000000000000, 0.09374999999999995837 ) ) ;
#166 = EDGE_CURVE ( 'NONE', #130, #183, #234, .T. ) ;
#167 = FILL_AREA_STYLE ('',( #253 ) ) ;
#168 = COLOUR_RGB ( '',1.000000000000000000, 0.000000000000000000, 0.000000000000000000 ) ;
#169 = LINE ( 'NONE', #289, #212 ) ;
#170 =( NAMED_UNIT ( * ) SI_UNIT ( $, .STERADIAN. ) SOLID_ANGLE_UNIT ( ) );
#171 = COLOUR_RGB ( '',0.7921568627450980005, 0.8196078431372548767, 0.9333333333333333481 ) ;
#172 = AXIS2_PLACEMENT_3D ( 'NONE', #65, #330, #118 ) ;
#173 = DIRECTION ( 'NONE',  ( -0.000000000000000000, -1.000000000000000000, -0.000000000000000000 ) ) ;
#174 = DIRECTION ( 'NONE',  ( 0.000000000000000000, 0.000000000000000000, -1.000000000000000000 ) ) ;
#175 = EDGE_CURVE ( 'NONE', #306, #247, #370, .T. ) ;
#176 = FACE_OUTER_BOUND ( 'NONE', #70, .T. ) ;
#177 = COLOUR_RGB ( '',1.000000000000000000, 0.000000000000000000, 0.000000000000000000 ) ;
#178 =( NAMED_UNIT ( * ) SI_UNIT ( $, .STERADIAN. ) SOLID_ANGLE_UNIT ( ) );
#179 = UNCERTAINTY_MEASURE_WITH_UNIT (LENGTH_MEASURE( 1.000000000000000082E-05 ), #134, 'distance_accuracy_value', 'NONE');
#180 = ORIENTED_EDGE ( 'NONE', *, *, #166, .F. ) ;
#181 = CIRCLE ( 'NONE', #125, 0.09374999999999998612 ) ;
#182 = DIRECTION ( 'NONE',  ( -1.000000000000000000, 0.000000000000000000, 0.000000000000000000 ) ) ;
#183 = VERTEX_POINT ( 'NONE', #237 ) ;
#184 = ORIENTED_EDGE ( 'NONE', *, *, #321, .F. ) ;
#185 = ADVANCED_FACE ( 'NONE', ( #312 ), #360, .T. ) ;
#186 =( CONVERSION_BASED_UNIT ( 'INCH', #51 ) LENGTH_UNIT ( ) NAMED_UNIT ( #90 ) );
#187 = ORIENTED_EDGE ( 'NONE', *, *, #336, .F. ) ;
#188 =( GEOMETRIC_REPRESENTATION_CONTEXT ( 3 ) GLOBAL_UNCERTAINTY_ASSIGNED_CONTEXT ( ( #334 ) ) GLOBAL_UNIT_ASSIGNED_CONTEXT ( ( #120, #199, #178 ) ) REPRESENTATION_CONTEXT ( 'NONE', 'WORKASPACE' ) );
#189 = SURFACE_STYLE_FILL_AREA ( #345 ) ;
#190 = AXIS2_PLACEMENT_3D ( 'NONE', #311, #314, #248 ) ;
#191 = ORIENTED_EDGE ( 'NONE', *, *, #29, .F. ) ;
#192 = DIRECTION ( 'NONE',  ( 0.000000000000000000, 0.000000000000000000, -1.000000000000000000 ) ) ;
#193 = DIRECTION ( 'NONE',  ( -1.214281582932884309E-16, 1.000000000000000000, -0.000000000000000000 ) ) ;
#194 = FILL_AREA_STYLE ('',( #286 ) ) ;
#195 = PRESENTATION_LAYER_ASSIGNMENT (  '', '', ( #299 ) ) ;
#196 =( NAMED_UNIT ( * ) SI_UNIT ( $, .STERADIAN. ) SOLID_ANGLE_UNIT ( ) );
#197 = DIRECTION ( 'NONE',  ( -0.000000000000000000, -1.000000000000000000, -0.000000000000000000 ) ) ;
#198 = CARTESIAN_POINT ( 'NONE',  ( 0.000000000000000000, 0.4375000000000000000, -0.09374999999999994449 ) ) ;
#199 =( NAMED_UNIT ( * ) PLANE_ANGLE_UNIT ( ) SI_UNIT ( $, .RADIAN. ) );
#200 = AXIS2_PLACEMENT_3D ( 'NONE', #278, #129, #101 ) ;
#201 =( NAMED_UNIT ( * ) SI_UNIT ( $, .STERADIAN. ) SOLID_ANGLE_UNIT ( ) );
#202 = SURFACE_SIDE_STYLE ('',( #8 ) ) ;
#203 = DIRECTION ( 'NONE',  ( 0.000000000000000000, 0.000000000000000000, -1.000000000000000000 ) ) ;
#204 = AXIS2_PLACEMENT_3D ( 'NONE', #217, #343, #281 ) ;
#205 = PLANE ( 'NONE',  #339 ) ;
#206 = PRODUCT_DEFINITION_CONTEXT ( 'detailed design', #236, 'design' ) ;
#207 = CARTESIAN_POINT ( 'NONE',  ( 0.000000000000000000, 0.4375000000000000000, 0.000000000000000000 ) ) ;
#208 =( NAMED_UNIT ( * ) SI_UNIT ( $, .STERADIAN. ) SOLID_ANGLE_UNIT ( ) );
#209 = CARTESIAN_POINT ( 'NONE',  ( -5.740531871003217003E-18, 0.000000000000000000, 0.000000000000000000 ) ) ;
#210 = STYLED_ITEM ( 'NONE', ( #324 ), #226 ) ;
#211 = CARTESIAN_POINT ( 'NONE',  ( 2.509638372906308320E-16, 0.4375000000000000000, 0.000000000000000000 ) ) ;
#212 = VECTOR ( 'NONE', #104, 39.37007874015748143 ) ;
#213 = CARTESIAN_POINT ( 'NONE',  ( 2.509638372906308320E-16, 0.4374999999999998890, 0.000000000000000000 ) ) ;
#214 = APPLICATION_PROTOCOL_DEFINITION ( 'draft international standard', 'automotive_design', 1998, #353 ) ;
#215 = DIMENSIONAL_EXPONENTS ( 1.000000000000000000, 0.000000000000000000, 0.000000000000000000, 0.000000000000000000, 0.000000000000000000, 0.000000000000000000, 0.000000000000000000 ) ;
#216 = SURFACE_STYLE_FILL_AREA ( #337 ) ;
#217 = CARTESIAN_POINT ( 'NONE',  ( 0.000000000000000000, 0.09375000000000001388, 0.000000000000000000 ) ) ;
#218 =( NAMED_UNIT ( * ) PLANE_ANGLE_UNIT ( ) SI_UNIT ( $, .RADIAN. ) );
#219 =( GEOMETRIC_REPRESENTATION_CONTEXT ( 3 ) GLOBAL_UNCERTAINTY_ASSIGNED_CONTEXT ( ( #179 ) ) GLOBAL_UNIT_ASSIGNED_CONTEXT ( ( #134, #365, #99 ) ) REPRESENTATION_CONTEXT ( 'NONE', 'WORKASPACE' ) );
#220 = CARTESIAN_POINT ( 'NONE',  ( 0.000000000000000000, 0.09375000000000001388, -0.09374999999999998612 ) ) ;
#221 = EDGE_LOOP ( 'NONE', ( #184, #94, #303, #100 ) ) ;
#222 = AXIS2_PLACEMENT_3D ( 'NONE', #113, #203, #296 ) ;
#223 = AXIS2_PLACEMENT_3D ( 'NONE', #229, #262, #83 ) ;
#224 = CARTESIAN_POINT ( 'NONE',  ( 1.148106374200642938E-17, 0.4375000000000000000, 0.09374999999999994449 ) ) ;
#225 = DIRECTION ( 'NONE',  ( -1.214281582932884309E-16, 1.000000000000000000, -0.000000000000000000 ) ) ;
#226 = ADVANCED_FACE ( 'NONE', ( #138 ), #351, .T. ) ;
#227 = FACE_OUTER_BOUND ( 'NONE', #316, .T. ) ;
#228 = AXIS2_PLACEMENT_3D ( 'NONE', #66, #128, #123 ) ;
#229 = CARTESIAN_POINT ( 'NONE',  ( 0.000000000000000000, 0.000000000000000000, 0.000000000000000000 ) ) ;
#230 = FILL_AREA_STYLE_COLOUR ( '', #292 ) ;
#231 = DIRECTION ( 'NONE',  ( -0.000000000000000000, -1.000000000000000000, -0.000000000000000000 ) ) ;
#232 = AXIS2_PLACEMENT_3D ( 'NONE', #13, #173, #331 ) ;
#233 = PRODUCT_DEFINITION_FORMATION_WITH_SPECIFIED_SOURCE ( 'ANY', '', #121, .NOT_KNOWN. ) ;
#234 = LINE ( 'NONE', #243, #326 ) ;
#235 = ORIENTED_EDGE ( 'NONE', *, *, #108, .T. ) ;
#236 = APPLICATION_CONTEXT ( 'automotive_design' ) ;
#237 = CARTESIAN_POINT ( 'NONE',  ( 0.09374999999999991673, 2.000000000000000000, 1.148106374200641552E-17 ) ) ;
#238 = ORIENTED_EDGE ( 'NONE', *, *, #37, .T. ) ;
#239 = MANIFOLD_SOLID_BREP ( 'Revolve - Cutting Edge', #75 ) ;
#240 = EDGE_CURVE ( 'NONE', #348, #247, #169, .T. ) ;
#241 = ADVANCED_FACE ( 'NONE', ( #341 ), #28, .F. ) ;
#242 = DIMENSIONAL_EXPONENTS ( 1.000000000000000000, 0.000000000000000000, 0.000000000000000000, 0.000000000000000000, 0.000000000000000000, 0.000000000000000000, 0.000000000000000000 ) ;
#243 = CARTESIAN_POINT ( 'NONE',  ( 0.09374999999999984734, 2.000000000000000000, 1.148106374200640935E-17 ) ) ;
#244 = EDGE_LOOP ( 'NONE', ( #368, #141 ) ) ;
#245 = AXIS2_PLACEMENT_3D ( 'NONE', #290, #110, #77 ) ;
#246 = PLANE ( 'NONE',  #97 ) ;
#247 = VERTEX_POINT ( 'NONE', #220 ) ;
#248 = DIRECTION ( 'NONE',  ( -1.000000000000000000, 0.000000000000000000, 0.000000000000000000 ) ) ;
#249 = FILL_AREA_STYLE_COLOUR ( '', #133 ) ;
#250 = VERTEX_POINT ( 'NONE', #224 ) ;
#251 = EDGE_LOOP ( 'NONE', ( #369, #235, #126, #105, #279 ) ) ;
#252 = CIRCLE ( 'NONE', #317, 0.09374999999999968081 ) ;
#253 = FILL_AREA_STYLE_COLOUR ( '', #177 ) ;
#254 = CIRCLE ( 'NONE', #84, 0.09374999999999968081 ) ;
#255 = SURFACE_SIDE_STYLE ('',( #288 ) ) ;
#256 = PRESENTATION_STYLE_ASSIGNMENT (( #320 ) ) ;
#257 =( LENGTH_UNIT ( ) NAMED_UNIT ( * ) SI_UNIT ( $, .METRE. ) );
#258 = CIRCLE ( 'NONE', #232, 0.09374999999999994449 ) ;
#259 = CARTESIAN_POINT ( 'NONE',  ( -0.09374999999999943101, 0.4374999999999998890, 0.000000000000000000 ) ) ;
#260 = CARTESIAN_POINT ( 'NONE',  ( 1.148106374200643555E-17, 0.09375000000000001388, 0.09374999999999998612 ) ) ;
#261 = EDGE_CURVE ( 'NONE', #247, #16, #181, .T. ) ;
#262 = DIRECTION ( 'NONE',  ( -0.000000000000000000, -1.000000000000000000, -0.000000000000000000 ) ) ;
#263 = SURFACE_STYLE_USAGE ( .BOTH. , #146 ) ;
#264 = PRESENTATION_STYLE_ASSIGNMENT (( #294 ) ) ;
#265 = STYLED_ITEM ( 'NONE', ( #264 ), #127 ) ;
#266 = SURFACE_SIDE_STYLE ('',( #107 ) ) ;
#267 =( LENGTH_UNIT ( ) NAMED_UNIT ( * ) SI_UNIT ( $, .METRE. ) );
#268 = FACE_OUTER_BOUND ( 'NONE', #72, .T. ) ;
#269 = PRESENTATION_LAYER_ASSIGNMENT (  '', '', ( #265 ) ) ;
#270 = CIRCLE ( 'NONE', #7, 0.09374999999999987510 ) ;
#271 =( LENGTH_UNIT ( ) NAMED_UNIT ( * ) SI_UNIT ( $, .METRE. ) );
#272 = ORIENTED_EDGE ( 'NONE', *, *, #43, .F. ) ;
#273 = PRESENTATION_STYLE_ASSIGNMENT (( #45 ) ) ;
#274 = LINE ( 'NONE', #18, #88 ) ;
#275 = LENGTH_MEASURE_WITH_UNIT ( LENGTH_MEASURE( 0.02539999999999999897 ), #73 );
#276 = DIRECTION ( 'NONE',  ( -1.214281582932884309E-16, 1.000000000000000000, -0.000000000000000000 ) ) ;
#277 = MECHANICAL_DESIGN_GEOMETRIC_PRESENTATION_REPRESENTATION (  '', ( #6 ), #219 ) ;
#278 = CARTESIAN_POINT ( 'NONE',  ( 0.000000000000000000, 0.09375000000000001388, 0.000000000000000000 ) ) ;
#279 = ORIENTED_EDGE ( 'NONE', *, *, #33, .F. ) ;
#280 = SURFACE_SIDE_STYLE ('',( #216 ) ) ;
#281 = DIRECTION ( 'NONE',  ( 0.000000000000000000, 0.000000000000000000, -1.000000000000000000 ) ) ;
#282 = EDGE_CURVE ( 'NONE', #250, #46, #53, .T. ) ;
#283 = DIRECTION ( 'NONE',  ( -0.000000000000000000, -1.000000000000000000, -0.000000000000000000 ) ) ;
#284 = ADVANCED_BREP_SHAPE_REPRESENTATION ( '83413', ( #239, #109, #228 ), #340 ) ;
#285 = CLOSED_SHELL ( 'NONE', ( #371, #359, #185, #241 ) ) ;
#286 = FILL_AREA_STYLE_COLOUR ( '', #80 ) ;
#287 = UNCERTAINTY_MEASURE_WITH_UNIT (LENGTH_MEASURE( 1.000000000000000082E-05 ), #186, 'distance_accuracy_value', 'NONE');
#288 = SURFACE_STYLE_FILL_AREA ( #194 ) ;
#289 = CARTESIAN_POINT ( 'NONE',  ( 0.000000000000000000, 0.000000000000000000, -0.09374999999999995837 ) ) ;
#290 = CARTESIAN_POINT ( 'NONE',  ( -1.148106374200643401E-17, 0.09374999999999998612, 0.000000000000000000 ) ) ;
#291 = AXIS2_PLACEMENT_3D ( 'NONE', #350, #231, #174 ) ;
#292 = COLOUR_RGB ( '',1.000000000000000000, 0.000000000000000000, 0.000000000000000000 ) ;
#293 = PRESENTATION_STYLE_ASSIGNMENT (( #328 ) ) ;
#294 = SURFACE_STYLE_USAGE ( .BOTH. , #59 ) ;
#295 = CARTESIAN_POINT ( 'NONE',  ( 6.123233995736766036E-17, 2.000000000000000000, 0.000000000000000000 ) ) ;
#296 = DIRECTION ( 'NONE',  ( -1.000000000000000000, 0.000000000000000000, 0.000000000000000000 ) ) ;
#297 = SURFACE_STYLE_FILL_AREA ( #149 ) ;
#298 = FILL_AREA_STYLE_COLOUR ( '', #171 ) ;
#299 = STYLED_ITEM ( 'NONE', ( #256 ), #239 ) ;
#300 = CIRCLE ( 'NONE', #172, 0.09374999999999998612 ) ;
#301 = ADVANCED_FACE ( 'NONE', ( #25 ), #86, .T. ) ;
#302 = SURFACE_STYLE_FILL_AREA ( #85 ) ;
#303 = ORIENTED_EDGE ( 'NONE', *, *, #261, .T. ) ;
#304 = PRODUCT_CONTEXT ( 'NONE', #353, 'mechanical' ) ;
#305 = FACE_OUTER_BOUND ( 'NONE', #251, .T. ) ;
#306 = VERTEX_POINT ( 'NONE', #142 ) ;
#307 = MECHANICAL_DESIGN_GEOMETRIC_PRESENTATION_REPRESENTATION (  '', ( #265 ), #356 ) ;
#308 =( GEOMETRIC_REPRESENTATION_CONTEXT ( 3 ) GLOBAL_UNCERTAINTY_ASSIGNED_CONTEXT ( ( #122 ) ) GLOBAL_UNIT_ASSIGNED_CONTEXT ( ( #2, #54, #196 ) ) REPRESENTATION_CONTEXT ( 'NONE', 'WORKASPACE' ) );
#309 = LENGTH_MEASURE_WITH_UNIT ( LENGTH_MEASURE( 0.02539999999999999897 ), #131 );
#310 = ORIENTED_EDGE ( 'NONE', *, *, #321, .T. ) ;
#311 = CARTESIAN_POINT ( 'NONE',  ( 6.123233995736766036E-17, 2.000000000000000000, 0.000000000000000000 ) ) ;
#312 = FACE_OUTER_BOUND ( 'NONE', #313, .T. ) ;
#313 = EDGE_LOOP ( 'NONE', ( #180, #159, #238, #162 ) ) ;
#314 = DIRECTION ( 'NONE',  ( -1.214281582932884309E-16, 1.000000000000000000, -0.000000000000000000 ) ) ;
#315 = CARTESIAN_POINT ( 'NONE',  ( 0.000000000000000000, 0.000000000000000000, 0.000000000000000000 ) ) ;
#316 = EDGE_LOOP ( 'NONE', ( #39, #272 ) ) ;
#317 = AXIS2_PLACEMENT_3D ( 'NONE', #213, #193, #32 ) ;
#318 = SURFACE_SIDE_STYLE ('',( #189 ) ) ;
#319 = ORIENTED_EDGE ( 'NONE', *, *, #29, .T. ) ;
#320 = SURFACE_STYLE_USAGE ( .BOTH. , #255 ) ;
#321 = EDGE_CURVE ( 'NONE', #306, #9, #300, .T. ) ;
#322 = MECHANICAL_DESIGN_GEOMETRIC_PRESENTATION_REPRESENTATION (  '', ( #210 ), #35 ) ;
#323 =( CONVERSION_BASED_UNIT ( 'INCH', #27 ) LENGTH_UNIT ( ) NAMED_UNIT ( #36 ) );
#324 = PRESENTATION_STYLE_ASSIGNMENT (( #41 ) ) ;
#325 = DIRECTION ( 'NONE',  ( 1.000000000000000000, 0.000000000000000000, 0.000000000000000000 ) ) ;
#326 = VECTOR ( 'NONE', #153, 39.37007874015748143 ) ;
#327 = FILL_AREA_STYLE_COLOUR ( '', #57 ) ;
#328 = SURFACE_STYLE_USAGE ( .BOTH. , #266 ) ;
#329 = CARTESIAN_POINT ( 'NONE',  ( -1.148106374200643401E-17, 0.09374999999999998612, 0.000000000000000000 ) ) ;
#330 = DIRECTION ( 'NONE',  ( 1.224646799147353207E-16, -0.000000000000000000, 1.000000000000000000 ) ) ;
#331 = DIRECTION ( 'NONE',  ( 0.000000000000000000, 0.000000000000000000, -1.000000000000000000 ) ) ;
#332 = CIRCLE ( 'NONE', #222, 0.09374999999999998612 ) ;
#333 = PRESENTATION_LAYER_ASSIGNMENT (  '', '', ( #40 ) ) ;
#334 = UNCERTAINTY_MEASURE_WITH_UNIT (LENGTH_MEASURE( 1.000000000000000082E-05 ), #120, 'distance_accuracy_value', 'NONE');
#335 =( LENGTH_UNIT ( ) NAMED_UNIT ( * ) SI_UNIT ( $, .METRE. ) );
#336 = EDGE_CURVE ( 'NONE', #342, #183, #270, .T. ) ;
#337 = FILL_AREA_STYLE ('',( #91 ) ) ;
#338 = VERTEX_POINT ( 'NONE', #259 ) ;
#339 = AXIS2_PLACEMENT_3D ( 'NONE', #207, #158, #163 ) ;
#340 =( GEOMETRIC_REPRESENTATION_CONTEXT ( 3 ) GLOBAL_UNCERTAINTY_ASSIGNED_CONTEXT ( ( #47 ) ) GLOBAL_UNIT_ASSIGNED_CONTEXT ( ( #362, #48, #17 ) ) REPRESENTATION_CONTEXT ( 'NONE', 'WORKASPACE' ) );
#341 = FACE_OUTER_BOUND ( 'NONE', #244, .T. ) ;
#342 = VERTEX_POINT ( 'NONE', #145 ) ;
#343 = DIRECTION ( 'NONE',  ( -0.000000000000000000, -1.000000000000000000, -0.000000000000000000 ) ) ;
#344 = ADVANCED_FACE ( 'NONE', ( #176 ), #3, .T. ) ;
#345 = FILL_AREA_STYLE ('',( #249 ) ) ;
#346 = CARTESIAN_POINT ( 'NONE',  ( 6.123233995736766036E-17, 2.000000000000000000, 0.000000000000000000 ) ) ;
#347 = MECHANICAL_DESIGN_GEOMETRIC_PRESENTATION_REPRESENTATION (  '', ( #40 ), #143 ) ;
#348 = VERTEX_POINT ( 'NONE', #198 ) ;
#349 = EDGE_CURVE ( 'NONE', #338, #130, #254, .T. ) ;
#350 = CARTESIAN_POINT ( 'NONE',  ( 0.000000000000000000, 0.09375000000000001388, 0.000000000000000000 ) ) ;
#351 = SPHERICAL_SURFACE ( 'NONE', #245, 0.09374999999999998612 ) ;
#352 = CIRCLE ( 'NONE', #50, 0.09374999999999987510 ) ;
#353 = APPLICATION_CONTEXT ( 'automotive_design' ) ;
#354 = LENGTH_MEASURE_WITH_UNIT ( LENGTH_MEASURE( 0.02539999999999999897 ), #147 );
#355 =( CONVERSION_BASED_UNIT ( 'INCH', #116 ) LENGTH_UNIT ( ) NAMED_UNIT ( #44 ) );
#356 =( GEOMETRIC_REPRESENTATION_CONTEXT ( 3 ) GLOBAL_UNCERTAINTY_ASSIGNED_CONTEXT ( ( #287 ) ) GLOBAL_UNIT_ASSIGNED_CONTEXT ( ( #186, #218, #208 ) ) REPRESENTATION_CONTEXT ( 'NONE', 'WORKASPACE' ) );
#357 = CIRCLE ( 'NONE', #291, 0.09374999999999998612 ) ;
#358 = UNCERTAINTY_MEASURE_WITH_UNIT (LENGTH_MEASURE( 1.000000000000000082E-05 ), #355, 'distance_accuracy_value', 'NONE');
#359 = ADVANCED_FACE ( 'NONE', ( #227 ), #246, .F. ) ;
#360 = CYLINDRICAL_SURFACE ( 'NONE', #55, 0.09374999999999979183 ) ;
#361 = DIRECTION ( 'NONE',  ( -1.000000000000000000, 0.000000000000000000, 0.000000000000000000 ) ) ;
#362 =( CONVERSION_BASED_UNIT ( 'INCH', #309 ) LENGTH_UNIT ( ) NAMED_UNIT ( #215 ) );
#363 = DIRECTION ( 'NONE',  ( -1.214281582932884309E-16, 1.000000000000000000, -0.000000000000000000 ) ) ;
#364 = DIRECTION ( 'NONE',  ( -1.214281582932884309E-16, 1.000000000000000000, 0.000000000000000000 ) ) ;
#365 =( NAMED_UNIT ( * ) PLANE_ANGLE_UNIT ( ) SI_UNIT ( $, .RADIAN. ) );
#366 = DIRECTION ( 'NONE',  ( 0.000000000000000000, 0.000000000000000000, -1.000000000000000000 ) ) ;
#367 = DIRECTION ( 'NONE',  ( -0.000000000000000000, -1.000000000000000000, -0.000000000000000000 ) ) ;
#368 = ORIENTED_EDGE ( 'NONE', *, *, #336, .T. ) ;
#369 = ORIENTED_EDGE ( 'NONE', *, *, #282, .F. ) ;
#370 = CIRCLE ( 'NONE', #200, 0.09374999999999998612 ) ;
#371 = ADVANCED_FACE ( 'NONE', ( #95 ), #137, .T. ) ;
#372 =( GEOMETRIC_REPRESENTATION_CONTEXT ( 3 ) GLOBAL_UNCERTAINTY_ASSIGNED_CONTEXT ( ( #136 ) ) GLOBAL_UNIT_ASSIGNED_CONTEXT ( ( #11, #87, #119 ) ) REPRESENTATION_CONTEXT ( 'NONE', 'WORKASPACE' ) );
#373 = CARTESIAN_POINT ( 'NONE',  ( 0.09374999999999994449, 2.000000000000000000, 0.000000000000000000 ) ) ;
ENDSEC;
END-ISO-10303-21;
