ISO-10303-21;
HEADER;
FILE_DESCRIPTION (( 'STEP AP214' ),
    '1' );
FILE_NAME ('Micro_DC-6.STEP',
    '2021-08-31T17:22:44',
    ( '' ),
    ( '' ),
    'SwSTEP 2.0',
    'SolidWorks 2020',
    '' );
FILE_SCHEMA (( 'AUTOMOTIVE_DESIGN' ));
ENDSEC;

DATA;
#1 = EDGE_CURVE ( 'NONE', #178, #206, #12, .T. ) ;
#2 = VECTOR ( 'NONE', #98, 39.37007874015748143 ) ;
#3 = EDGE_LOOP ( 'NONE', ( #154, #322, #44, #156 ) ) ;
#4 = ORIENTED_EDGE ( 'NONE', *, *, #235, .T. ) ;
#5 = VECTOR ( 'NONE', #292, 39.37007874015748854 ) ;
#6 = EDGE_LOOP ( 'NONE', ( #41, #97, #113, #81 ) ) ;
#7 = DIRECTION ( 'NONE',  ( -1.252096997096120642E-16, -0.0000000000000000000, -1.000000000000000000 ) ) ;
#8 = EDGE_LOOP ( 'NONE', ( #274, #348, #65, #320 ) ) ;
#9 = DIRECTION ( 'NONE',  ( 1.252096997096120642E-16, 0.0000000000000000000, -1.000000000000000000 ) ) ;
#10 = LINE ( 'NONE', #33, #278 ) ;
#11 = VERTEX_POINT ( 'NONE', #335 ) ;
#12 = CIRCLE ( 'NONE', #71, 0.2499999999999999167 ) ;
#13 = AXIS2_PLACEMENT_3D ( 'NONE', #282, #9, #69 ) ;
#14 = FACE_OUTER_BOUND ( 'NONE', #332, .T. ) ;
#15 = FACE_OUTER_BOUND ( 'NONE', #213, .T. ) ;
#16 =( LENGTH_UNIT ( ) NAMED_UNIT ( * ) SI_UNIT ( $, .METRE. ) );
#17 = DIRECTION ( 'NONE',  ( -1.000000000000000000, 0.0000000000000000000, 0.0000000000000000000 ) ) ;
#18 = FACE_OUTER_BOUND ( 'NONE', #130, .T. ) ;
#19 = DIRECTION ( 'NONE',  ( -1.252096997096120642E-16, -0.0000000000000000000, -1.000000000000000000 ) ) ;
#20 = CARTESIAN_POINT ( 'NONE',  ( -0.2499999999999998612, 0.0000000000000000000, 0.5282604952657976582 ) ) ;
#21 = CIRCLE ( 'NONE', #263, 0.1093999999999999972 ) ;
#22 = CARTESIAN_POINT ( 'NONE',  ( 3.565147763413449670E-17, 0.0000000000000000000, 0.2847341517216147033 ) ) ;
#23 = DIRECTION ( 'NONE',  ( -1.000000000000000000, 0.0000000000000000000, 1.252096997096120642E-16 ) ) ;
#24 = EDGE_CURVE ( 'NONE', #11, #234, #375, .T. ) ;
#25 =( NAMED_UNIT ( * ) PLANE_ANGLE_UNIT ( ) SI_UNIT ( $, .RADIAN. ) );
#26 = EDGE_CURVE ( 'NONE', #234, #11, #140, .T. ) ;
#27 = AXIS2_PLACEMENT_3D ( 'NONE', #127, #187, #377 ) ;
#28 =( GEOMETRIC_REPRESENTATION_CONTEXT ( 3 ) GLOBAL_UNCERTAINTY_ASSIGNED_CONTEXT ( ( #200 ) ) GLOBAL_UNIT_ASSIGNED_CONTEXT ( ( #168, #199, #355 ) ) REPRESENTATION_CONTEXT ( 'NONE', 'WORKASPACE' ) );
#29 = ORIENTED_EDGE ( 'NONE', *, *, #311, .T. ) ;
#30 = ADVANCED_FACE ( 'NONE', ( #253 ), #208, .T. ) ;
#31 = ORIENTED_EDGE ( 'NONE', *, *, #100, .F. ) ;
#32 = APPLICATION_CONTEXT ( 'automotive_design' ) ;
#33 = CARTESIAN_POINT ( 'NONE',  ( 0.1094000000000000389, 0.0000000000000000000, 0.2847341517216147033 ) ) ;
#34 = ORIENTED_EDGE ( 'NONE', *, *, #112, .T. ) ;
#35 =( LENGTH_UNIT ( ) NAMED_UNIT ( * ) SI_UNIT ( $, .METRE. ) );
#36 = AXIS2_PLACEMENT_3D ( 'NONE', #255, #349, #72 ) ;
#37 = DIRECTION ( 'NONE',  ( 1.252096997096120642E-16, 0.0000000000000000000, 1.000000000000000000 ) ) ;
#38 = ORIENTED_EDGE ( 'NONE', *, *, #289, .T. ) ;
#39 = DIRECTION ( 'NONE',  ( -1.252096997096120642E-16, -0.0000000000000000000, -1.000000000000000000 ) ) ;
#40 = DIRECTION ( 'NONE',  ( 0.5000000000000017764, 0.0000000000000000000, 0.8660254037844374864 ) ) ;
#41 = ORIENTED_EDGE ( 'NONE', *, *, #88, .T. ) ;
#42 = CYLINDRICAL_SURFACE ( 'NONE', #175, 0.1093999999999999972 ) ;
#43 = CARTESIAN_POINT ( 'NONE',  ( 0.0000000000000000000, 0.0000000000000000000, 3.000000000000000444 ) ) ;
#44 = ORIENTED_EDGE ( 'NONE', *, *, #312, .T. ) ;
#45 = CARTESIAN_POINT ( 'NONE',  ( -0.1093999999999999695, 1.339763598267204431E-17, 0.2847341517216147033 ) ) ;
#46 = CARTESIAN_POINT ( 'NONE',  ( -0.2499999999999998612, 0.0000000000000000000, 2.471739504734202786 ) ) ;
#47 = LENGTH_MEASURE_WITH_UNIT ( LENGTH_MEASURE( 0.02539999999999999897 ), #16 );
#48 = CARTESIAN_POINT ( 'NONE',  ( -0.2500000000000000000, 0.0000000000000000000, 3.000000000000000444 ) ) ;
#49 = DIRECTION ( 'NONE',  ( 0.0000000000000000000, 0.0000000000000000000, 1.000000000000000000 ) ) ;
#50 =( GEOMETRIC_REPRESENTATION_CONTEXT ( 3 ) GLOBAL_UNCERTAINTY_ASSIGNED_CONTEXT ( ( #137 ) ) GLOBAL_UNIT_ASSIGNED_CONTEXT ( ( #145, #152, #376 ) ) REPRESENTATION_CONTEXT ( 'NONE', 'WORKASPACE' ) );
#51 = SURFACE_SIDE_STYLE ('',( #393 ) ) ;
#52 = ADVANCED_FACE ( 'NONE', ( #99 ), #53, .T. ) ;
#53 = CONICAL_SURFACE ( 'NONE', #186, 0.1093999999999999972, 0.5235987755983008141 ) ;
#54 = VECTOR ( 'NONE', #342, 39.37007874015748143 ) ;
#55 = ADVANCED_FACE ( 'NONE', ( #146 ), #391, .T. ) ;
#56 = ORIENTED_EDGE ( 'NONE', *, *, #326, .F. ) ;
#57 = VERTEX_POINT ( 'NONE', #161 ) ;
#58 = EDGE_CURVE ( 'NONE', #115, #11, #347, .T. ) ;
#59 = VERTEX_POINT ( 'NONE', #89 ) ;
#60 = ADVANCED_BREP_SHAPE_REPRESENTATION ( 'Micro_DC-6', ( #232, #361 ), #28 ) ;
#61 =( GEOMETRIC_REPRESENTATION_CONTEXT ( 3 ) GLOBAL_UNCERTAINTY_ASSIGNED_CONTEXT ( ( #264 ) ) GLOBAL_UNIT_ASSIGNED_CONTEXT ( ( #171, #25, #106 ) ) REPRESENTATION_CONTEXT ( 'NONE', 'WORKASPACE' ) );
#62 = AXIS2_PLACEMENT_3D ( 'NONE', #381, #19, #392 ) ;
#63 = CARTESIAN_POINT ( 'NONE',  ( 0.1093999999999999972, -1.339763598267204431E-17, 3.000000000000000444 ) ) ;
#64 = CYLINDRICAL_SURFACE ( 'NONE', #327, 0.2500000000000000000 ) ;
#65 = ORIENTED_EDGE ( 'NONE', *, *, #24, .F. ) ;
#66 = FACE_OUTER_BOUND ( 'NONE', #210, .T. ) ;
#67 = CARTESIAN_POINT ( 'NONE',  ( 3.565147763413449670E-17, 0.0000000000000000000, 0.2847341517216147033 ) ) ;
#68 = ORIENTED_EDGE ( 'NONE', *, *, #100, .T. ) ;
#69 = DIRECTION ( 'NONE',  ( 1.000000000000000000, 0.0000000000000000000, 1.334178587669835812E-16 ) ) ;
#70 = DIRECTION ( 'NONE',  ( -0.8571673007021136659, 1.049727191138620298E-16, 0.5150380749100519351 ) ) ;
#71 = AXIS2_PLACEMENT_3D ( 'NONE', #286, #7, #333 ) ;
#72 = DIRECTION ( 'NONE',  ( 1.000000000000000000, 0.0000000000000000000, 0.0000000000000000000 ) ) ;
#73 = CARTESIAN_POINT ( 'NONE',  ( -0.1093999999999999695, -1.339763598267204431E-17, 2.715265848278385796 ) ) ;
#74 = ORIENTED_EDGE ( 'NONE', *, *, #24, .T. ) ;
#75 = DIRECTION ( 'NONE',  ( -1.000000000000000000, 0.0000000000000000000, 0.0000000000000000000 ) ) ;
#76 = CIRCLE ( 'NONE', #267, 0.2499999999999999167 ) ;
#77 = CARTESIAN_POINT ( 'NONE',  ( 0.0000000000000000000, 0.0000000000000000000, 0.0000000000000000000 ) ) ;
#78 = DIMENSIONAL_EXPONENTS ( 1.000000000000000000, 0.0000000000000000000, 0.0000000000000000000, 0.0000000000000000000, 0.0000000000000000000, 0.0000000000000000000, 0.0000000000000000000 ) ;
#79 = SURFACE_SIDE_STYLE ('',( #397 ) ) ;
#80 = AXIS2_PLACEMENT_3D ( 'NONE', #167, #160, #293 ) ;
#81 = ORIENTED_EDGE ( 'NONE', *, *, #235, .F. ) ;
#82 = EDGE_LOOP ( 'NONE', ( #336, #68, #4, #122 ) ) ;
#83 = VECTOR ( 'NONE', #124, 39.37007874015748143 ) ;
#84 = FACE_OUTER_BOUND ( 'NONE', #277, .T. ) ;
#85 = ORIENTED_EDGE ( 'NONE', *, *, #58, .F. ) ;
#86 = VERTEX_POINT ( 'NONE', #46 ) ;
#87 = CARTESIAN_POINT ( 'NONE',  ( 0.1094000000000000389, 0.0000000000000000000, 2.715265848278385796 ) ) ;
#88 = EDGE_CURVE ( 'NONE', #371, #59, #184, .T. ) ;
#89 = CARTESIAN_POINT ( 'NONE',  ( -0.1093999999999999695, 0.0000000000000000000, 2.715265848278385796 ) ) ;
#90 = ORIENTED_EDGE ( 'NONE', *, *, #58, .T. ) ;
#91 = CARTESIAN_POINT ( 'NONE',  ( 6.614333798068146346E-17, 0.0000000000000000000, 2.471739504734202786 ) ) ;
#92 = DIRECTION ( 'NONE',  ( 1.252096997096120642E-16, 0.0000000000000000000, 1.000000000000000000 ) ) ;
#93 = ORIENTED_EDGE ( 'NONE', *, *, #169, .F. ) ;
#94 = AXIS2_PLACEMENT_3D ( 'NONE', #77, #103, #23 ) ;
#95 = FACE_OUTER_BOUND ( 'NONE', #8, .T. ) ;
#96 = DIRECTION ( 'NONE',  ( -0.0000000000000000000, -0.0000000000000000000, -1.000000000000000000 ) ) ;
#97 = ORIENTED_EDGE ( 'NONE', *, *, #302, .T. ) ;
#98 = DIRECTION ( 'NONE',  ( -1.252096997096120642E-16, -0.0000000000000000000, 1.000000000000000000 ) ) ;
#99 = FACE_OUTER_BOUND ( 'NONE', #273, .T. ) ;
#100 = EDGE_CURVE ( 'NONE', #59, #371, #21, .T. ) ;
#101 = ADVANCED_FACE ( 'NONE', ( #84 ), #299, .T. ) ;
#102 = DIRECTION ( 'NONE',  ( -1.000000000000000000, 0.0000000000000000000, 1.252096997096120642E-16 ) ) ;
#103 = DIRECTION ( 'NONE',  ( -1.252096997096120642E-16, -0.0000000000000000000, -1.000000000000000000 ) ) ;
#104 = FACE_OUTER_BOUND ( 'NONE', #192, .T. ) ;
#105 = AXIS2_PLACEMENT_3D ( 'NONE', #43, #383, #180 ) ;
#106 =( NAMED_UNIT ( * ) SI_UNIT ( $, .STERADIAN. ) SOLID_ANGLE_UNIT ( ) );
#107 = APPLICATION_PROTOCOL_DEFINITION ( 'draft international standard', 'automotive_design', 1998, #324 ) ;
#108 = FILL_AREA_STYLE ('',( #129 ) ) ;
#109 = VECTOR ( 'NONE', #357, 39.37007874015748143 ) ;
#110 = CIRCLE ( 'NONE', #237, 0.2499999999999999167 ) ;
#111 = CONICAL_SURFACE ( 'NONE', #36, 0.1093999999999999972, 0.5235987755983008141 ) ;
#112 = EDGE_CURVE ( 'NONE', #283, #178, #10, .T. ) ;
#113 = ORIENTED_EDGE ( 'NONE', *, *, #270, .F. ) ;
#114 = DIRECTION ( 'NONE',  ( -1.000000000000000000, 0.0000000000000000000, 0.0000000000000000000 ) ) ;
#115 = VERTEX_POINT ( 'NONE', #276 ) ;
#116 = ORIENTED_EDGE ( 'NONE', *, *, #345, .T. ) ;
#117 = FACE_OUTER_BOUND ( 'NONE', #6, .T. ) ;
#118 = DIRECTION ( 'NONE',  ( 1.000000000000000000, 0.0000000000000000000, 0.0000000000000000000 ) ) ;
#119 = ORIENTED_EDGE ( 'NONE', *, *, #112, .F. ) ;
#120 = CARTESIAN_POINT ( 'NONE',  ( -0.1093999999999999972, 0.0000000000000000000, 1.369794114823156026E-17 ) ) ;
#121 = CARTESIAN_POINT ( 'NONE',  ( 3.565147763413449670E-17, 0.0000000000000000000, 2.715265848278385796 ) ) ;
#122 = ORIENTED_EDGE ( 'NONE', *, *, #363, .F. ) ;
#123 = VECTOR ( 'NONE', #215, 39.37007874015748854 ) ;
#124 = DIRECTION ( 'NONE',  ( -1.252096997096120642E-16, -0.0000000000000000000, -1.000000000000000000 ) ) ;
#125 = CARTESIAN_POINT ( 'NONE',  ( 8.230553397729456370E-18, 0.0000000000000000000, 0.06573415172161470310 ) ) ;
#126 = ADVANCED_FACE ( 'NONE', ( #370 ), #64, .T. ) ;
#127 = CARTESIAN_POINT ( 'NONE',  ( 4.929515736598900023E-15, 0.0000000000000000000, -36.37007874015748143 ) ) ;
#128 = DIRECTION ( 'NONE',  ( -1.252096997096120642E-16, -0.0000000000000000000, 1.000000000000000000 ) ) ;
#129 = FILL_AREA_STYLE_COLOUR ( '', #323 ) ;
#130 = EDGE_LOOP ( 'NONE', ( #217, #380, #221, #239 ) ) ;
#131 = DIRECTION ( 'NONE',  ( -1.252096997096120642E-16, -0.0000000000000000000, -1.000000000000000000 ) ) ;
#132 = DIRECTION ( 'NONE',  ( -1.000000000000000000, 0.0000000000000000000, 0.0000000000000000000 ) ) ;
#133 = LENGTH_MEASURE_WITH_UNIT ( LENGTH_MEASURE( 0.02539999999999999897 ), #233 );
#134 = AXIS2_PLACEMENT_3D ( 'NONE', #288, #249, #306 ) ;
#135 = AXIS2_PLACEMENT_3D ( 'NONE', #195, #138, #132 ) ;
#136 = CIRCLE ( 'NONE', #238, 0.1093999999999999972 ) ;
#137 = UNCERTAINTY_MEASURE_WITH_UNIT (LENGTH_MEASURE( 1.000000000000000082E-05 ), #145, 'distance_accuracy_value', 'NONE');
#138 = DIRECTION ( 'NONE',  ( 1.252096997096120642E-16, 0.0000000000000000000, -1.000000000000000000 ) ) ;
#139 = ADVANCED_FACE ( 'NONE', ( #223 ), #231, .T. ) ;
#140 = CIRCLE ( 'NONE', #395, 0.1093999999999999972 ) ;
#141 = PRODUCT_RELATED_PRODUCT_CATEGORY ( 'part', '', ( #279 ) ) ;
#142 = PRESENTATION_STYLE_ASSIGNMENT (( #325 ) ) ;
#143 = AXIS2_PLACEMENT_3D ( 'NONE', #121, #339, #114 ) ;
#144 = VERTEX_POINT ( 'NONE', #317 ) ;
#145 =( CONVERSION_BASED_UNIT ( 'INCH', #284 ) LENGTH_UNIT ( ) NAMED_UNIT ( #362 ) );
#146 = FACE_OUTER_BOUND ( 'NONE', #254, .T. ) ;
#147 = VECTOR ( 'NONE', #295, 39.37007874015748143 ) ;
#148 = VERTEX_POINT ( 'NONE', #261 ) ;
#149 = VECTOR ( 'NONE', #314, 39.37007874015748143 ) ;
#150 = AXIS2_PLACEMENT_3D ( 'NONE', #22, #310, #157 ) ;
#151 = ORIENTED_EDGE ( 'NONE', *, *, #158, .F. ) ;
#152 =( NAMED_UNIT ( * ) PLANE_ANGLE_UNIT ( ) SI_UNIT ( $, .RADIAN. ) );
#153 = LINE ( 'NONE', #162, #83 ) ;
#154 = ORIENTED_EDGE ( 'NONE', *, *, #179, .F. ) ;
#155 = LINE ( 'NONE', #48, #54 ) ;
#156 = ORIENTED_EDGE ( 'NONE', *, *, #1, .F. ) ;
#157 = DIRECTION ( 'NONE',  ( -1.000000000000000000, 0.0000000000000000000, 0.0000000000000000000 ) ) ;
#158 = EDGE_CURVE ( 'NONE', #344, #144, #136, .T. ) ;
#159 = DIRECTION ( 'NONE',  ( -0.5000000000000014433, 6.123233995736785757E-17, 0.8660254037844377084 ) ) ;
#160 = DIRECTION ( 'NONE',  ( 1.252096997096120642E-16, 0.0000000000000000000, -1.000000000000000000 ) ) ;
#161 = CARTESIAN_POINT ( 'NONE',  ( 0.2500000000000000000, 3.061616997868382402E-17, 2.471739504734202786 ) ) ;
#162 = CARTESIAN_POINT ( 'NONE',  ( 0.1093999999999999972, 1.339763598267204431E-17, -1.369794114823156026E-17 ) ) ;
#163 = SHAPE_DEFINITION_REPRESENTATION ( #174, #60 ) ;
#164 = DIRECTION ( 'NONE',  ( 1.252096997096120642E-16, 0.0000000000000000000, -1.000000000000000000 ) ) ;
#165 = CYLINDRICAL_SURFACE ( 'NONE', #94, 0.1093999999999999972 ) ;
#166 = ADVANCED_FACE ( 'NONE', ( #18 ), #356, .T. ) ;
#167 = CARTESIAN_POINT ( 'NONE',  ( 3.565147763413449670E-17, 0.0000000000000000000, 2.715265848278385796 ) ) ;
#168 =( CONVERSION_BASED_UNIT ( 'INCH', #47 ) LENGTH_UNIT ( ) NAMED_UNIT ( #78 ) );
#169 = EDGE_CURVE ( 'NONE', #272, #344, #197, .T. ) ;
#170 = CONICAL_SURFACE ( 'NONE', #80, 0.1093999999999999972, 0.5235987755983008141 ) ;
#171 =( CONVERSION_BASED_UNIT ( 'INCH', #133 ) LENGTH_UNIT ( ) NAMED_UNIT ( #364 ) );
#172 = EDGE_CURVE ( 'NONE', #283, #148, #224, .T. ) ;
#173 = CONICAL_SURFACE ( 'NONE', #296, 0.1093999999999999972, 0.5235987755983008141 ) ;
#174 = PRODUCT_DEFINITION_SHAPE ( 'NONE', 'NONE',  #189 ) ;
#175 = AXIS2_PLACEMENT_3D ( 'NONE', #190, #194, #102 ) ;
#176 = AXIS2_PLACEMENT_3D ( 'NONE', #91, #290, #17 ) ;
#177 = EDGE_CURVE ( 'NONE', #272, #144, #218, .T. ) ;
#178 = VERTEX_POINT ( 'NONE', #225 ) ;
#179 = EDGE_CURVE ( 'NONE', #57, #178, #321, .T. ) ;
#180 = DIRECTION ( 'NONE',  ( -1.000000000000000000, 0.0000000000000000000, 0.0000000000000000000 ) ) ;
#181 = ORIENTED_EDGE ( 'NONE', *, *, #366, .F. ) ;
#182 = DIRECTION ( 'NONE',  ( 0.5000000000000017764, 0.0000000000000000000, -0.8660254037844374864 ) ) ;
#183 = CARTESIAN_POINT ( 'NONE',  ( 4.929515736598900023E-15, 0.0000000000000000000, 39.37007874015748143 ) ) ;
#184 = CIRCLE ( 'NONE', #143, 0.1093999999999999972 ) ;
#185 = ORIENTED_EDGE ( 'NONE', *, *, #205, .T. ) ;
#186 = AXIS2_PLACEMENT_3D ( 'NONE', #67, #37, #118 ) ;
#187 = DIRECTION ( 'NONE',  ( 1.252096997096120642E-16, 0.0000000000000000000, -1.000000000000000000 ) ) ;
#188 = ORIENTED_EDGE ( 'NONE', *, *, #177, .T. ) ;
#189 = PRODUCT_DEFINITION ( 'UNKNOWN', '', #368, #298 ) ;
#190 = CARTESIAN_POINT ( 'NONE',  ( 0.0000000000000000000, 0.0000000000000000000, 0.0000000000000000000 ) ) ;
#191 = EDGE_CURVE ( 'NONE', #148, #283, #297, .T. ) ;
#192 = EDGE_LOOP ( 'NONE', ( #304, #331, #369 ) ) ;
#193 = CARTESIAN_POINT ( 'NONE',  ( 0.0000000000000000000, 0.0000000000000000000, 3.000000000000000444 ) ) ;
#194 = DIRECTION ( 'NONE',  ( -1.252096997096120642E-16, -0.0000000000000000000, -1.000000000000000000 ) ) ;
#195 = CARTESIAN_POINT ( 'NONE',  ( 8.230553397729456370E-18, 0.0000000000000000000, 2.934265848278385658 ) ) ;
#196 = DIRECTION ( 'NONE',  ( 1.000000000000000000, 0.0000000000000000000, 0.0000000000000000000 ) ) ;
#197 = LINE ( 'NONE', #228, #5 ) ;
#198 = APPLICATION_PROTOCOL_DEFINITION ( 'draft international standard', 'automotive_design', 1998, #32 ) ;
#199 =( NAMED_UNIT ( * ) PLANE_ANGLE_UNIT ( ) SI_UNIT ( $, .RADIAN. ) );
#200 = UNCERTAINTY_MEASURE_WITH_UNIT (LENGTH_MEASURE( 1.000000000000000082E-05 ), #168, 'distance_accuracy_value', 'NONE');
#201 = DIRECTION ( 'NONE',  ( -0.0000000000000000000, -0.0000000000000000000, -1.000000000000000000 ) ) ;
#202 = ADVANCED_FACE ( 'NONE', ( #14 ), #111, .T. ) ;
#203 = FILL_AREA_STYLE_COLOUR ( '', #275 ) ;
#204 = PRESENTATION_LAYER_ASSIGNMENT (  '', '', ( #389 ) ) ;
#205 = EDGE_CURVE ( 'NONE', #144, #344, #341, .T. ) ;
#206 = VERTEX_POINT ( 'NONE', #20 ) ;
#207 = ADVANCED_FACE ( 'NONE', ( #394 ), #170, .T. ) ;
#208 = CYLINDRICAL_SURFACE ( 'NONE', #105, 0.1093999999999999972 ) ;
#209 = ORIENTED_EDGE ( 'NONE', *, *, #191, .F. ) ;
#210 = EDGE_LOOP ( 'NONE', ( #56, #340, #116, #367 ) ) ;
#211 = ORIENTED_EDGE ( 'NONE', *, *, #158, .T. ) ;
#212 = CARTESIAN_POINT ( 'NONE',  ( -0.1093999999999997058, -1.339763598267201041E-17, 2.934265848278385658 ) ) ;
#213 = EDGE_LOOP ( 'NONE', ( #93, #188, #151 ) ) ;
#214 = PRESENTATION_LAYER_ASSIGNMENT (  '', '', ( #251 ) ) ;
#215 = DIRECTION ( 'NONE',  ( -0.5000000000000014433, -6.123233995736785757E-17, -0.8660254037844377084 ) ) ;
#216 = DIRECTION ( 'NONE',  ( 1.000000000000000000, 0.0000000000000000000, -1.334178587669835812E-16 ) ) ;
#217 = ORIENTED_EDGE ( 'NONE', *, *, #363, .T. ) ;
#218 = LINE ( 'NONE', #193, #109 ) ;
#219 = DIRECTION ( 'NONE',  ( -1.000000000000000000, 0.0000000000000000000, 0.0000000000000000000 ) ) ;
#220 = CARTESIAN_POINT ( 'NONE',  ( 4.929515736598900023E-15, 0.0000000000000000000, 39.37007874015748143 ) ) ;
#221 = ORIENTED_EDGE ( 'NONE', *, *, #289, .F. ) ;
#222 = CARTESIAN_POINT ( 'NONE',  ( 0.1094000000000000389, 1.339763598267204739E-17, 0.2847341517216147033 ) ) ;
#223 = FACE_OUTER_BOUND ( 'NONE', #390, .T. ) ;
#224 = CIRCLE ( 'NONE', #62, 0.1093999999999999972 ) ;
#225 = CARTESIAN_POINT ( 'NONE',  ( 0.2500000000000000000, 3.061616997868382402E-17, 0.5282604952657976582 ) ) ;
#226 = VECTOR ( 'NONE', #159, 39.37007874015748854 ) ;
#227 = AXIS2_PLACEMENT_3D ( 'NONE', #183, #92, #216 ) ;
#228 = CARTESIAN_POINT ( 'NONE',  ( 0.0000000000000000000, 0.0000000000000000000, 3.000000000000000444 ) ) ;
#229 = CARTESIAN_POINT ( 'NONE',  ( 0.1094000000000000111, 0.0000000000000000000, 0.06573415172161468922 ) ) ;
#230 = LINE ( 'NONE', #87, #236 ) ;
#231 = CYLINDRICAL_SURFACE ( 'NONE', #328, 0.1093999999999999972 ) ;
#232 = MANIFOLD_SOLID_BREP ( 'Mirror1', #313 ) ;
#233 =( LENGTH_UNIT ( ) NAMED_UNIT ( * ) SI_UNIT ( $, .METRE. ) );
#234 = VERTEX_POINT ( 'NONE', #229 ) ;
#235 = EDGE_CURVE ( 'NONE', #371, #57, #230, .T. ) ;
#236 = VECTOR ( 'NONE', #182, 39.37007874015748143 ) ;
#237 = AXIS2_PLACEMENT_3D ( 'NONE', #256, #39, #372 ) ;
#238 = AXIS2_PLACEMENT_3D ( 'NONE', #354, #164, #291 ) ;
#239 = ORIENTED_EDGE ( 'NONE', *, *, #312, .F. ) ;
#240 = EDGE_CURVE ( 'NONE', #115, #234, #248, .T. ) ;
#241 = CARTESIAN_POINT ( 'NONE',  ( 0.0000000000000000000, 0.0000000000000000000, 0.0000000000000000000 ) ) ;
#242 = ORIENTED_EDGE ( 'NONE', *, *, #1, .T. ) ;
#243 = DIRECTION ( 'NONE',  ( -1.000000000000000000, 0.0000000000000000000, 0.0000000000000000000 ) ) ;
#244 = ORIENTED_EDGE ( 'NONE', *, *, #271, .T. ) ;
#245 = CARTESIAN_POINT ( 'NONE',  ( 0.0000000000000000000, 0.0000000000000000000, 0.0000000000000000000 ) ) ;
#246 = DIRECTION ( 'NONE',  ( 1.000000000000000000, 0.0000000000000000000, -1.334178587669835812E-16 ) ) ;
#247 = ORIENTED_EDGE ( 'NONE', *, *, #172, .F. ) ;
#248 = LINE ( 'NONE', #245, #294 ) ;
#249 = DIRECTION ( 'NONE',  ( -1.252096997096120642E-16, -0.0000000000000000000, -1.000000000000000000 ) ) ;
#250 = ORIENTED_EDGE ( 'NONE', *, *, #311, .F. ) ;
#251 = STYLED_ITEM ( 'NONE', ( #386 ), #60 ) ;
#252 = LINE ( 'NONE', #120, #378 ) ;
#253 = FACE_OUTER_BOUND ( 'NONE', #281, .T. ) ;
#254 = EDGE_LOOP ( 'NONE', ( #300, #90, #74 ) ) ;
#255 = CARTESIAN_POINT ( 'NONE',  ( 3.565147763413449670E-17, 0.0000000000000000000, 0.2847341517216147033 ) ) ;
#256 = CARTESIAN_POINT ( 'NONE',  ( 6.614333798068146346E-17, 0.0000000000000000000, 0.5282604952657976582 ) ) ;
#257 = ORIENTED_EDGE ( 'NONE', *, *, #26, .T. ) ;
#258 = DIRECTION ( 'NONE',  ( -1.000000000000000000, 0.0000000000000000000, 0.0000000000000000000 ) ) ;
#259 = ADVANCED_FACE ( 'NONE', ( #66 ), #42, .T. ) ;
#260 = LINE ( 'NONE', #382, #2 ) ;
#261 = CARTESIAN_POINT ( 'NONE',  ( -0.1093999999999999695, 0.0000000000000000000, 0.2847341517216147033 ) ) ;
#262 = DIRECTION ( 'NONE',  ( 1.000000000000000000, 0.0000000000000000000, 0.0000000000000000000 ) ) ;
#263 = AXIS2_PLACEMENT_3D ( 'NONE', #280, #373, #243 ) ;
#264 = UNCERTAINTY_MEASURE_WITH_UNIT (LENGTH_MEASURE( 1.000000000000000082E-05 ), #171, 'distance_accuracy_value', 'NONE');
#265 = ADVANCED_FACE ( 'NONE', ( #15 ), #337, .T. ) ;
#266 = ADVANCED_FACE ( 'NONE', ( #117 ), #173, .T. ) ;
#267 = AXIS2_PLACEMENT_3D ( 'NONE', #287, #305, #219 ) ;
#268 = FILL_AREA_STYLE ('',( #203 ) ) ;
#269 = AXIS2_PLACEMENT_3D ( 'NONE', #329, #201, #258 ) ;
#270 = EDGE_CURVE ( 'NONE', #57, #86, #76, .T. ) ;
#271 = EDGE_CURVE ( 'NONE', #148, #206, #308, .T. ) ;
#272 = VERTEX_POINT ( 'NONE', #285 ) ;
#273 = EDGE_LOOP ( 'NONE', ( #209, #244, #38, #119 ) ) ;
#274 = ORIENTED_EDGE ( 'NONE', *, *, #191, .T. ) ;
#275 = COLOUR_RGB ( '',0.7921568627450980005, 0.8196078431372548767, 0.9333333333333333481 ) ;
#276 = CARTESIAN_POINT ( 'NONE',  ( 0.0000000000000000000, 0.0000000000000000000, 0.0000000000000000000 ) ) ;
#277 = EDGE_LOOP ( 'NONE', ( #85, #374, #257 ) ) ;
#278 = VECTOR ( 'NONE', #40, 39.37007874015748143 ) ;
#279 = PRODUCT ( 'Micro_DC-6', 'Micro_DC-6', '', ( #319 ) ) ;
#280 = CARTESIAN_POINT ( 'NONE',  ( 3.565147763413449670E-17, 0.0000000000000000000, 2.715265848278385796 ) ) ;
#281 = EDGE_LOOP ( 'NONE', ( #303, #29, #185, #181 ) ) ;
#282 = CARTESIAN_POINT ( 'NONE',  ( 4.929515736598900023E-15, 0.0000000000000000000, -36.37007874015748143 ) ) ;
#283 = VERTEX_POINT ( 'NONE', #222 ) ;
#284 = LENGTH_MEASURE_WITH_UNIT ( LENGTH_MEASURE( 0.02539999999999999897 ), #35 );
#285 = CARTESIAN_POINT ( 'NONE',  ( 0.0000000000000000000, 0.0000000000000000000, 3.000000000000000444 ) ) ;
#286 = CARTESIAN_POINT ( 'NONE',  ( 6.614333798068146346E-17, 0.0000000000000000000, 0.5282604952657976582 ) ) ;
#287 = CARTESIAN_POINT ( 'NONE',  ( 6.614333798068146346E-17, 0.0000000000000000000, 2.471739504734202786 ) ) ;
#288 = CARTESIAN_POINT ( 'NONE',  ( 8.230553397729456370E-18, 0.0000000000000000000, 0.06573415172161470310 ) ) ;
#289 = EDGE_CURVE ( 'NONE', #206, #178, #110, .T. ) ;
#290 = DIRECTION ( 'NONE',  ( 1.252096997096120642E-16, 0.0000000000000000000, -1.000000000000000000 ) ) ;
#291 = DIRECTION ( 'NONE',  ( -1.000000000000000000, 0.0000000000000000000, 0.0000000000000000000 ) ) ;
#292 = DIRECTION ( 'NONE',  ( -0.8571673007021136659, -1.049727191138620298E-16, -0.5150380749100519351 ) ) ;
#293 = DIRECTION ( 'NONE',  ( 1.000000000000000000, 0.0000000000000000000, 0.0000000000000000000 ) ) ;
#294 = VECTOR ( 'NONE', #350, 39.37007874015748143 ) ;
#295 = DIRECTION ( 'NONE',  ( -0.0000000000000000000, -0.0000000000000000000, -1.000000000000000000 ) ) ;
#296 = AXIS2_PLACEMENT_3D ( 'NONE', #316, #346, #196 ) ;
#297 = CIRCLE ( 'NONE', #150, 0.1093999999999999972 ) ;
#298 = PRODUCT_DEFINITION_CONTEXT ( 'detailed design', #324, 'design' ) ;
#299 = CONICAL_SURFACE ( 'NONE', #227, 65.52281426576882950, 1.029744258676657198 ) ;
#300 = ORIENTED_EDGE ( 'NONE', *, *, #240, .F. ) ;
#301 = DIRECTION ( 'NONE',  ( -1.000000000000000000, 0.0000000000000000000, 1.560699265118980274E-16 ) ) ;
#302 = EDGE_CURVE ( 'NONE', #59, #86, #384, .T. ) ;
#303 = ORIENTED_EDGE ( 'NONE', *, *, #88, .F. ) ;
#304 = ORIENTED_EDGE ( 'NONE', *, *, #177, .F. ) ;
#305 = DIRECTION ( 'NONE',  ( 1.252096997096120642E-16, 0.0000000000000000000, -1.000000000000000000 ) ) ;
#306 = DIRECTION ( 'NONE',  ( -1.000000000000000000, 0.0000000000000000000, 1.560699265118980274E-16 ) ) ;
#307 = ORIENTED_EDGE ( 'NONE', *, *, #271, .F. ) ;
#308 = LINE ( 'NONE', #45, #226 ) ;
#309 = DIRECTION ( 'NONE',  ( -1.252096997096120642E-16, -0.0000000000000000000, -1.000000000000000000 ) ) ;
#310 = DIRECTION ( 'NONE',  ( -1.252096997096120642E-16, -0.0000000000000000000, -1.000000000000000000 ) ) ;
#311 = EDGE_CURVE ( 'NONE', #371, #144, #338, .T. ) ;
#312 = EDGE_CURVE ( 'NONE', #86, #206, #155, .T. ) ;
#313 = CLOSED_SHELL ( 'NONE', ( #266, #30, #387, #52, #396, #55, #166, #126, #101, #259, #202, #265, #139, #207 ) ) ;
#314 = DIRECTION ( 'NONE',  ( -1.252096997096120642E-16, -0.0000000000000000000, 1.000000000000000000 ) ) ;
#315 = CIRCLE ( 'NONE', #176, 0.2499999999999999167 ) ;
#316 = CARTESIAN_POINT ( 'NONE',  ( 3.565147763413449670E-17, 0.0000000000000000000, 2.715265848278385796 ) ) ;
#317 = CARTESIAN_POINT ( 'NONE',  ( 0.1093999999999997197, 0.0000000000000000000, 2.934265848278385658 ) ) ;
#318 = DIRECTION ( 'NONE',  ( -1.000000000000000000, 0.0000000000000000000, 0.0000000000000000000 ) ) ;
#319 = PRODUCT_CONTEXT ( 'NONE', #32, 'mechanical' ) ;
#320 = ORIENTED_EDGE ( 'NONE', *, *, #345, .F. ) ;
#321 = LINE ( 'NONE', #359, #147 ) ;
#322 = ORIENTED_EDGE ( 'NONE', *, *, #270, .T. ) ;
#323 = COLOUR_RGB ( '',0.7921568627450980005, 0.8196078431372548767, 0.9333333333333333481 ) ;
#324 = APPLICATION_CONTEXT ( 'automotive_design' ) ;
#325 = SURFACE_STYLE_USAGE ( .BOTH. , #79 ) ;
#326 = EDGE_CURVE ( 'NONE', #283, #234, #153, .T. ) ;
#327 = AXIS2_PLACEMENT_3D ( 'NONE', #379, #96, #318 ) ;
#328 = AXIS2_PLACEMENT_3D ( 'NONE', #385, #128, #75 ) ;
#329 = CARTESIAN_POINT ( 'NONE',  ( 0.0000000000000000000, 0.0000000000000000000, 3.000000000000000444 ) ) ;
#330 = MECHANICAL_DESIGN_GEOMETRIC_PRESENTATION_REPRESENTATION (  '', ( #251 ), #61 ) ;
#331 = ORIENTED_EDGE ( 'NONE', *, *, #169, .T. ) ;
#332 = EDGE_LOOP ( 'NONE', ( #307, #247, #34, #242 ) ) ;
#333 = DIRECTION ( 'NONE',  ( -1.000000000000000000, 0.0000000000000000000, 0.0000000000000000000 ) ) ;
#334 = ORIENTED_EDGE ( 'NONE', *, *, #366, .T. ) ;
#335 = CARTESIAN_POINT ( 'NONE',  ( -0.1093999999999999834, 1.339763598267204431E-17, 0.06573415172161470310 ) ) ;
#336 = ORIENTED_EDGE ( 'NONE', *, *, #302, .F. ) ;
#337 = CONICAL_SURFACE ( 'NONE', #27, 65.52281426576882950, 1.029744258676657198 ) ;
#338 = LINE ( 'NONE', #63, #149 ) ;
#339 = DIRECTION ( 'NONE',  ( 1.252096997096120642E-16, 0.0000000000000000000, -1.000000000000000000 ) ) ;
#340 = ORIENTED_EDGE ( 'NONE', *, *, #172, .T. ) ;
#341 = CIRCLE ( 'NONE', #135, 0.1093999999999999972 ) ;
#342 = DIRECTION ( 'NONE',  ( -0.0000000000000000000, -0.0000000000000000000, -1.000000000000000000 ) ) ;
#343 = DIRECTION ( 'NONE',  ( 1.252096997096120642E-16, 0.0000000000000000000, 1.000000000000000000 ) ) ;
#344 = VERTEX_POINT ( 'NONE', #212 ) ;
#345 = EDGE_CURVE ( 'NONE', #148, #11, #252, .T. ) ;
#346 = DIRECTION ( 'NONE',  ( 1.252096997096120642E-16, 0.0000000000000000000, -1.000000000000000000 ) ) ;
#347 = LINE ( 'NONE', #241, #360 ) ;
#348 = ORIENTED_EDGE ( 'NONE', *, *, #326, .T. ) ;
#349 = DIRECTION ( 'NONE',  ( 1.252096997096120642E-16, 0.0000000000000000000, 1.000000000000000000 ) ) ;
#350 = DIRECTION ( 'NONE',  ( 0.8571673007021137769, 0.0000000000000000000, 0.5150380749100517130 ) ) ;
#351 = SURFACE_STYLE_USAGE ( .BOTH. , #51 ) ;
#352 = CONICAL_SURFACE ( 'NONE', #13, 65.52281426576882950, 1.029744258676657198 ) ;
#353 = MECHANICAL_DESIGN_GEOMETRIC_PRESENTATION_REPRESENTATION (  '', ( #389 ), #50 ) ;
#354 = CARTESIAN_POINT ( 'NONE',  ( 8.230553397729456370E-18, 0.0000000000000000000, 2.934265848278385658 ) ) ;
#355 =( NAMED_UNIT ( * ) SI_UNIT ( $, .STERADIAN. ) SOLID_ANGLE_UNIT ( ) );
#356 = CYLINDRICAL_SURFACE ( 'NONE', #269, 0.2500000000000000000 ) ;
#357 = DIRECTION ( 'NONE',  ( 0.8571673007021137769, 0.0000000000000000000, -0.5150380749100517130 ) ) ;
#358 = CARTESIAN_POINT ( 'NONE',  ( 0.0000000000000000000, 0.0000000000000000000, 0.0000000000000000000 ) ) ;
#359 = CARTESIAN_POINT ( 'NONE',  ( 0.2500000000000000000, 3.061616997868382402E-17, 3.000000000000000444 ) ) ;
#360 = VECTOR ( 'NONE', #70, 39.37007874015748854 ) ;
#361 = AXIS2_PLACEMENT_3D ( 'NONE', #358, #49, #262 ) ;
#362 = DIMENSIONAL_EXPONENTS ( 1.000000000000000000, 0.0000000000000000000, 0.0000000000000000000, 0.0000000000000000000, 0.0000000000000000000, 0.0000000000000000000, 0.0000000000000000000 ) ;
#363 = EDGE_CURVE ( 'NONE', #86, #57, #315, .T. ) ;
#364 = DIMENSIONAL_EXPONENTS ( 1.000000000000000000, 0.0000000000000000000, 0.0000000000000000000, 0.0000000000000000000, 0.0000000000000000000, 0.0000000000000000000, 0.0000000000000000000 ) ;
#365 = AXIS2_PLACEMENT_3D ( 'NONE', #220, #343, #246 ) ;
#366 = EDGE_CURVE ( 'NONE', #59, #344, #260, .T. ) ;
#367 = ORIENTED_EDGE ( 'NONE', *, *, #26, .F. ) ;
#368 = PRODUCT_DEFINITION_FORMATION_WITH_SPECIFIED_SOURCE ( 'ANY', '', #279, .NOT_KNOWN. ) ;
#369 = ORIENTED_EDGE ( 'NONE', *, *, #205, .F. ) ;
#370 = FACE_OUTER_BOUND ( 'NONE', #3, .T. ) ;
#371 = VERTEX_POINT ( 'NONE', #388 ) ;
#372 = DIRECTION ( 'NONE',  ( -1.000000000000000000, 0.0000000000000000000, 0.0000000000000000000 ) ) ;
#373 = DIRECTION ( 'NONE',  ( 1.252096997096120642E-16, 0.0000000000000000000, -1.000000000000000000 ) ) ;
#374 = ORIENTED_EDGE ( 'NONE', *, *, #240, .T. ) ;
#375 = CIRCLE ( 'NONE', #134, 0.1093999999999999972 ) ;
#376 =( NAMED_UNIT ( * ) SI_UNIT ( $, .STERADIAN. ) SOLID_ANGLE_UNIT ( ) );
#377 = DIRECTION ( 'NONE',  ( 1.000000000000000000, 0.0000000000000000000, 1.334178587669835812E-16 ) ) ;
#378 = VECTOR ( 'NONE', #131, 39.37007874015748143 ) ;
#379 = CARTESIAN_POINT ( 'NONE',  ( 0.0000000000000000000, 0.0000000000000000000, 3.000000000000000444 ) ) ;
#380 = ORIENTED_EDGE ( 'NONE', *, *, #179, .T. ) ;
#381 = CARTESIAN_POINT ( 'NONE',  ( 3.565147763413449670E-17, 0.0000000000000000000, 0.2847341517216147033 ) ) ;
#382 = CARTESIAN_POINT ( 'NONE',  ( -0.1093999999999999972, 0.0000000000000000000, 3.000000000000000444 ) ) ;
#383 = DIRECTION ( 'NONE',  ( -1.252096997096120642E-16, -0.0000000000000000000, 1.000000000000000000 ) ) ;
#384 = LINE ( 'NONE', #73, #123 ) ;
#385 = CARTESIAN_POINT ( 'NONE',  ( 0.0000000000000000000, 0.0000000000000000000, 3.000000000000000444 ) ) ;
#386 = PRESENTATION_STYLE_ASSIGNMENT (( #351 ) ) ;
#387 = ADVANCED_FACE ( 'NONE', ( #104 ), #352, .T. ) ;
#388 = CARTESIAN_POINT ( 'NONE',  ( 0.1094000000000000389, -1.339763598267204739E-17, 2.715265848278385796 ) ) ;
#389 = STYLED_ITEM ( 'NONE', ( #142 ), #232 ) ;
#390 = EDGE_LOOP ( 'NONE', ( #250, #31, #334, #211 ) ) ;
#391 = CONICAL_SURFACE ( 'NONE', #365, 65.52281426576882950, 1.029744258676657198 ) ;
#392 = DIRECTION ( 'NONE',  ( -1.000000000000000000, 0.0000000000000000000, 0.0000000000000000000 ) ) ;
#393 = SURFACE_STYLE_FILL_AREA ( #108 ) ;
#394 = FACE_OUTER_BOUND ( 'NONE', #82, .T. ) ;
#395 = AXIS2_PLACEMENT_3D ( 'NONE', #125, #309, #301 ) ;
#396 = ADVANCED_FACE ( 'NONE', ( #95 ), #165, .T. ) ;
#397 = SURFACE_STYLE_FILL_AREA ( #268 ) ;
ENDSEC;
END-ISO-10303-21;
