ISO-10303-21;
HEADER;
FILE_DESCRIPTION (( 'STEP AP214' ),
    '1' );
FILE_NAME ('Micro_AECM-0605-4.STEP',
    '2021-09-03T16:57:44',
    ( '' ),
    ( '' ),
    'SwSTEP 2.0',
    'SolidWorks 2020',
    '' );
FILE_SCHEMA (( 'AUTOMOTIVE_DESIGN' ));
ENDSEC;

DATA;
#1 = AXIS2_PLACEMENT_3D ( 'NONE', #109, #91, #339 ) ;
#2 = DIRECTION ( 'NONE',  ( -0.0000000000000000000, -0.0000000000000000000, -1.000000000000000000 ) ) ;
#3 = VERTEX_POINT ( 'NONE', #131 ) ;
#4 = ADVANCED_FACE ( 'NONE', ( #150 ), #15, .T. ) ;
#5 = DIRECTION ( 'NONE',  ( 1.000000000000000000, 0.0000000000000000000, 0.0000000000000000000 ) ) ;
#6 = DIMENSIONAL_EXPONENTS ( 1.000000000000000000, 0.0000000000000000000, 0.0000000000000000000, 0.0000000000000000000, 0.0000000000000000000, 0.0000000000000000000, 0.0000000000000000000 ) ;
#7 = EDGE_LOOP ( 'NONE', ( #72, #66 ) ) ;
#8 = CARTESIAN_POINT ( 'NONE',  ( -0.1031100000000002570, 0.0000000000000000000, 2.244094000000000033 ) ) ;
#9 = AXIS2_PLACEMENT_3D ( 'NONE', #73, #14, #253 ) ;
#10 = EDGE_LOOP ( 'NONE', ( #265, #155, #274, #231 ) ) ;
#11 = PRODUCT_DEFINITION ( 'UNKNOWN', '', #123, #116 ) ;
#12 =( NAMED_UNIT ( * ) SI_UNIT ( $, .STERADIAN. ) SOLID_ANGLE_UNIT ( ) );
#13 = ADVANCED_FACE ( 'NONE', ( #348 ), #239, .T. ) ;
#14 = DIRECTION ( 'NONE',  ( -0.0000000000000000000, -0.0000000000000000000, -1.000000000000000000 ) ) ;
#15 = CONICAL_SURFACE ( 'NONE', #204, 0.1031100000000002570, 0.7853981633974318477 ) ;
#16 = DIRECTION ( 'NONE',  ( 1.000000000000000000, 0.0000000000000000000, 0.0000000000000000000 ) ) ;
#17 = AXIS2_PLACEMENT_3D ( 'NONE', #61, #134, #159 ) ;
#18 = LINE ( 'NONE', #278, #237 ) ;
#19 = DIRECTION ( 'NONE',  ( 0.0000000000000000000, 0.0000000000000000000, -1.000000000000000000 ) ) ;
#20 = CIRCLE ( 'NONE', #213, 0.1181100000000000066 ) ;
#21 =( GEOMETRIC_REPRESENTATION_CONTEXT ( 3 ) GLOBAL_UNCERTAINTY_ASSIGNED_CONTEXT ( ( #249 ) ) GLOBAL_UNIT_ASSIGNED_CONTEXT ( ( #132, #130, #238 ) ) REPRESENTATION_CONTEXT ( 'NONE', 'WORKASPACE' ) );
#22 =( GEOMETRIC_REPRESENTATION_CONTEXT ( 3 ) GLOBAL_UNCERTAINTY_ASSIGNED_CONTEXT ( ( #144 ) ) GLOBAL_UNIT_ASSIGNED_CONTEXT ( ( #346, #285, #100 ) ) REPRESENTATION_CONTEXT ( 'NONE', 'WORKASPACE' ) );
#23 = CARTESIAN_POINT ( 'NONE',  ( -0.1179918899999999049, 1.444983904138465938E-17, 0.6299209999999999532 ) ) ;
#24 = FACE_OUTER_BOUND ( 'NONE', #331, .T. ) ;
#25 = DIRECTION ( 'NONE',  ( -1.224646799147353207E-16, -0.0000000000000000000, -1.000000000000000000 ) ) ;
#26 = FACE_OUTER_BOUND ( 'NONE', #55, .T. ) ;
#27 = APPLICATION_CONTEXT ( 'automotive_design' ) ;
#28 = VERTEX_POINT ( 'NONE', #101 ) ;
#29 = DIRECTION ( 'NONE',  ( 0.0000000000000000000, 0.0000000000000000000, -1.000000000000000000 ) ) ;
#30 = AXIS2_PLACEMENT_3D ( 'NONE', #256, #121, #227 ) ;
#31 = AXIS2_PLACEMENT_3D ( 'NONE', #54, #263, #156 ) ;
#32 = ORIENTED_EDGE ( 'NONE', *, *, #200, .T. ) ;
#33 = DIRECTION ( 'NONE',  ( 1.224646799147353207E-16, 0.0000000000000000000, 1.000000000000000000 ) ) ;
#34 = UNCERTAINTY_MEASURE_WITH_UNIT (LENGTH_MEASURE( 1.000000000000000082E-05 ), #268, 'distance_accuracy_value', 'NONE');
#35 = DIRECTION ( 'NONE',  ( 1.000000000000000000, 0.0000000000000000000, 0.0000000000000000000 ) ) ;
#36 = AXIS2_PLACEMENT_3D ( 'NONE', #340, #220, #92 ) ;
#37 = ADVANCED_FACE ( 'NONE', ( #24 ), #163, .T. ) ;
#38 = CARTESIAN_POINT ( 'NONE',  ( 7.722510477716240475E-17, 0.0000000000000000000, 0.6305908350957151187 ) ) ;
#39 = ADVANCED_FACE ( 'NONE', ( #26 ), #119, .F. ) ;
#40 =( LENGTH_UNIT ( ) NAMED_UNIT ( * ) SI_UNIT ( $, .METRE. ) );
#41 = ORIENTED_EDGE ( 'NONE', *, *, #324, .F. ) ;
#42 = CARTESIAN_POINT ( 'NONE',  ( -0.1179918899999999882, 0.0000000000000000000, 0.01968500000000000458 ) ) ;
#43 = DIRECTION ( 'NONE',  ( -0.0000000000000000000, -0.0000000000000000000, -1.000000000000000000 ) ) ;
#44 = DIRECTION ( 'NONE',  ( -0.7071067811865358044, 0.0000000000000000000, -0.7071067811865590080 ) ) ;
#45 = FACE_OUTER_BOUND ( 'NONE', #197, .T. ) ;
#46 = VECTOR ( 'NONE', #330, 39.37007874015748854 ) ;
#47 = CIRCLE ( 'NONE', #1, 0.1179918899999999882 ) ;
#48 = FACE_OUTER_BOUND ( 'NONE', #211, .T. ) ;
#49 = DIRECTION ( 'NONE',  ( -0.1736481776669312471, 2.126576849575783933E-17, 0.9848077530122077983 ) ) ;
#50 = VERTEX_POINT ( 'NONE', #87 ) ;
#51 = TOROIDAL_SURFACE ( 'NONE', #84, 0.09830688999999999400, 0.01968500000000000111 ) ;
#52 = CARTESIAN_POINT ( 'NONE',  ( 0.0000000000000000000, 0.0000000000000000000, 0.0000000000000000000 ) ) ;
#53 = VERTEX_POINT ( 'NONE', #212 ) ;
#54 = CARTESIAN_POINT ( 'NONE',  ( 0.0000000000000000000, 0.0000000000000000000, 0.0000000000000000000 ) ) ;
#55 = EDGE_LOOP ( 'NONE', ( #224, #82 ) ) ;
#56 = APPLICATION_PROTOCOL_DEFINITION ( 'draft international standard', 'automotive_design', 1998, #343 ) ;
#57 = ORIENTED_EDGE ( 'NONE', *, *, #128, .F. ) ;
#58 = VECTOR ( 'NONE', #162, 39.37007874015748143 ) ;
#59 = VERTEX_POINT ( 'NONE', #271 ) ;
#60 = LENGTH_MEASURE_WITH_UNIT ( LENGTH_MEASURE( 0.02539999999999999897 ), #40 );
#61 = CARTESIAN_POINT ( 'NONE',  ( 7.722510477716240475E-17, 0.0000000000000000000, 0.6305908350957151187 ) ) ;
#62 = CARTESIAN_POINT ( 'NONE',  ( 0.1031100000000002570, 1.262733314600838667E-17, 2.244094000000000033 ) ) ;
#63 = ORIENTED_EDGE ( 'NONE', *, *, #314, .T. ) ;
#64 = DIRECTION ( 'NONE',  ( 1.000000000000000000, 0.0000000000000000000, 0.0000000000000000000 ) ) ;
#65 = CYLINDRICAL_SURFACE ( 'NONE', #79, 0.1179918899999999882 ) ;
#66 = ORIENTED_EDGE ( 'NONE', *, *, #327, .T. ) ;
#67 = LINE ( 'NONE', #168, #74 ) ;
#68 = EDGE_LOOP ( 'NONE', ( #325, #170, #318, #206 ) ) ;
#69 = EDGE_CURVE ( 'NONE', #288, #3, #186, .T. ) ;
#70 = DIMENSIONAL_EXPONENTS ( 1.000000000000000000, 0.0000000000000000000, 0.0000000000000000000, 0.0000000000000000000, 0.0000000000000000000, 0.0000000000000000000, 0.0000000000000000000 ) ;
#71 = DIRECTION ( 'NONE',  ( -1.224646799147353207E-16, -0.0000000000000000000, -1.000000000000000000 ) ) ;
#72 = ORIENTED_EDGE ( 'NONE', *, *, #324, .T. ) ;
#73 = CARTESIAN_POINT ( 'NONE',  ( 0.0000000000000000000, 0.0000000000000000000, 2.244094000000000033 ) ) ;
#74 = VECTOR ( 'NONE', #95, 39.37007874015748143 ) ;
#75 = EDGE_CURVE ( 'NONE', #53, #3, #236, .T. ) ;
#76 = ORIENTED_EDGE ( 'NONE', *, *, #160, .F. ) ;
#77 = FILL_AREA_STYLE ('',( #105 ) ) ;
#78 = EDGE_LOOP ( 'NONE', ( #235, #32, #210, #233 ) ) ;
#79 = AXIS2_PLACEMENT_3D ( 'NONE', #307, #71, #305 ) ;
#80 = EDGE_LOOP ( 'NONE', ( #140, #63, #284, #90 ) ) ;
#81 = EDGE_CURVE ( 'NONE', #111, #157, #20, .T. ) ;
#82 = ORIENTED_EDGE ( 'NONE', *, *, #115, .T. ) ;
#83 = DIRECTION ( 'NONE',  ( -0.0000000000000000000, -0.0000000000000000000, -1.000000000000000000 ) ) ;
#84 = AXIS2_PLACEMENT_3D ( 'NONE', #280, #275, #311 ) ;
#85 = DIRECTION ( 'NONE',  ( -1.224646799147353207E-16, -0.0000000000000000000, -1.000000000000000000 ) ) ;
#86 = ORIENTED_EDGE ( 'NONE', *, *, #252, .F. ) ;
#87 = CARTESIAN_POINT ( 'NONE',  ( 0.1179918900000000853, 0.0000000000000000000, 0.6299209999999999532 ) ) ;
#88 = CIRCLE ( 'NONE', #294, 0.1179918899999999882 ) ;
#89 = DIRECTION ( 'NONE',  ( 0.0000000000000000000, 0.0000000000000000000, -1.000000000000000000 ) ) ;
#90 = ORIENTED_EDGE ( 'NONE', *, *, #266, .F. ) ;
#91 = DIRECTION ( 'NONE',  ( 0.0000000000000000000, 0.0000000000000000000, 1.000000000000000000 ) ) ;
#92 = DIRECTION ( 'NONE',  ( 1.000000000000000000, 0.0000000000000000000, 0.0000000000000000000 ) ) ;
#93 = MECHANICAL_DESIGN_GEOMETRIC_PRESENTATION_REPRESENTATION (  '', ( #107 ), #22 ) ;
#94 = DIRECTION ( 'NONE',  ( 1.224646799147353207E-16, 0.0000000000000000000, 1.000000000000000000 ) ) ;
#95 = DIRECTION ( 'NONE',  ( -1.224646799147353207E-16, -0.0000000000000000000, -1.000000000000000000 ) ) ;
#96 = DIRECTION ( 'NONE',  ( -1.000000000000000000, 0.0000000000000000000, 0.0000000000000000000 ) ) ;
#97 = AXIS2_PLACEMENT_3D ( 'NONE', #350, #83, #315 ) ;
#98 = CIRCLE ( 'NONE', #222, 0.09830688999999999400 ) ;
#99 = DIRECTION ( 'NONE',  ( 1.000000000000000000, 0.0000000000000000000, -0.0000000000000000000 ) ) ;
#100 =( NAMED_UNIT ( * ) SI_UNIT ( $, .STERADIAN. ) SOLID_ANGLE_UNIT ( ) );
#101 = CARTESIAN_POINT ( 'NONE',  ( -0.1179918899999999049, 1.445707119305702357E-17, 0.6299209999999999532 ) ) ;
#102 = AXIS2_PLACEMENT_3D ( 'NONE', #296, #33, #217 ) ;
#103 = VERTEX_POINT ( 'NONE', #8 ) ;
#104 = ORIENTED_EDGE ( 'NONE', *, *, #148, .T. ) ;
#105 = FILL_AREA_STYLE_COLOUR ( '', #259 ) ;
#106 = SURFACE_STYLE_USAGE ( .BOTH. , #191 ) ;
#107 = STYLED_ITEM ( 'NONE', ( #261 ), #221 ) ;
#108 = DIRECTION ( 'NONE',  ( -1.000000000000000000, 1.224646799147352468E-16, 0.0000000000000000000 ) ) ;
#109 = CARTESIAN_POINT ( 'NONE',  ( 2.410717224121565012E-18, 0.0000000000000000000, 0.01968500000000000458 ) ) ;
#110 = DIMENSIONAL_EXPONENTS ( 1.000000000000000000, 0.0000000000000000000, 0.0000000000000000000, 0.0000000000000000000, 0.0000000000000000000, 0.0000000000000000000, 0.0000000000000000000 ) ;
#111 = VERTEX_POINT ( 'NONE', #113 ) ;
#112 = CARTESIAN_POINT ( 'NONE',  ( 0.09830688999999999400, 0.0000000000000000000, 0.0000000000000000000 ) ) ;
#113 = CARTESIAN_POINT ( 'NONE',  ( 0.1181100000000000899, 1.446430334472940009E-17, 0.6305908350957151187 ) ) ;
#114 = CONICAL_SURFACE ( 'NONE', #102, 0.1179918899999999882, 0.1745329251994339748 ) ;
#115 = EDGE_CURVE ( 'NONE', #59, #181, #257, .T. ) ;
#116 = PRODUCT_DEFINITION_CONTEXT ( 'detailed design', #343, 'design' ) ;
#117 = DIRECTION ( 'NONE',  ( 0.0000000000000000000, 0.0000000000000000000, 1.000000000000000000 ) ) ;
#118 = CARTESIAN_POINT ( 'NONE',  ( -0.1181100000000000066, 0.0000000000000000000, 2.244094000000000033 ) ) ;
#119 = PLANE ( 'NONE',  #297 ) ;
#120 = DIRECTION ( 'NONE',  ( 0.0000000000000000000, 0.0000000000000000000, 1.000000000000000000 ) ) ;
#121 = DIRECTION ( 'NONE',  ( 0.0000000000000000000, 0.0000000000000000000, 1.000000000000000000 ) ) ;
#122 = VECTOR ( 'NONE', #49, 39.37007874015748143 ) ;
#123 = PRODUCT_DEFINITION_FORMATION_WITH_SPECIFIED_SOURCE ( 'ANY', '', #175, .NOT_KNOWN. ) ;
#124 = DIRECTION ( 'NONE',  ( -1.000000000000000000, 0.0000000000000000000, 1.224646799147353454E-16 ) ) ;
#125 = ORIENTED_EDGE ( 'NONE', *, *, #81, .T. ) ;
#126 = ADVANCED_FACE ( 'NONE', ( #193 ), #114, .T. ) ;
#127 = DIRECTION ( 'NONE',  ( -1.000000000000000000, 0.0000000000000000000, 0.0000000000000000000 ) ) ;
#128 = EDGE_CURVE ( 'NONE', #59, #219, #317, .T. ) ;
#129 = MECHANICAL_DESIGN_GEOMETRIC_PRESENTATION_REPRESENTATION (  '', ( #209 ), #347 ) ;
#130 =( NAMED_UNIT ( * ) PLANE_ANGLE_UNIT ( ) SI_UNIT ( $, .RADIAN. ) );
#131 = CARTESIAN_POINT ( 'NONE',  ( 0.1181100000000000066, 1.446430334472939084E-17, 2.229093999999999465 ) ) ;
#132 =( CONVERSION_BASED_UNIT ( 'INCH', #240 ) LENGTH_UNIT ( ) NAMED_UNIT ( #70 ) );
#133 = CARTESIAN_POINT ( 'NONE',  ( -0.09830688999999999400, 1.203912181726309167E-17, 0.01968500000000000111 ) ) ;
#134 = DIRECTION ( 'NONE',  ( -1.224646799147353207E-16, -0.0000000000000000000, -1.000000000000000000 ) ) ;
#135 = PRESENTATION_LAYER_ASSIGNMENT (  '', '', ( #209 ) ) ;
#136 = DIRECTION ( 'NONE',  ( -0.0000000000000000000, -0.0000000000000000000, -1.000000000000000000 ) ) ;
#137 = CARTESIAN_POINT ( 'NONE',  ( -0.1181099999999999234, 0.0000000000000000000, 0.6305908350957151187 ) ) ;
#138 = ORIENTED_EDGE ( 'NONE', *, *, #160, .T. ) ;
#139 = CARTESIAN_POINT ( 'NONE',  ( 2.410717224121564627E-18, 0.0000000000000000000, 0.0000000000000000000 ) ) ;
#140 = ORIENTED_EDGE ( 'NONE', *, *, #75, .T. ) ;
#141 = DIRECTION ( 'NONE',  ( 1.000000000000000000, 0.0000000000000000000, 0.0000000000000000000 ) ) ;
#142 = DIRECTION ( 'NONE',  ( 1.000000000000000000, 0.0000000000000000000, -0.0000000000000000000 ) ) ;
#143 = PLANE ( 'NONE',  #328 ) ;
#144 = UNCERTAINTY_MEASURE_WITH_UNIT (LENGTH_MEASURE( 1.000000000000000082E-05 ), #346, 'distance_accuracy_value', 'NONE');
#145 = CARTESIAN_POINT ( 'NONE',  ( 0.1179918899999999882, 1.444983904138465938E-17, 0.01968500000000000458 ) ) ;
#146 = AXIS2_PLACEMENT_3D ( 'NONE', #244, #247, #295 ) ;
#147 = CARTESIAN_POINT ( 'NONE',  ( 0.0000000000000000000, 0.0000000000000000000, 2.244094000000000033 ) ) ;
#148 = EDGE_CURVE ( 'NONE', #50, #111, #161, .T. ) ;
#149 = SURFACE_STYLE_USAGE ( .BOTH. , #153 ) ;
#150 = FACE_OUTER_BOUND ( 'NONE', #192, .T. ) ;
#151 = EDGE_CURVE ( 'NONE', #28, #50, #281, .T. ) ;
#152 = AXIS2_PLACEMENT_3D ( 'NONE', #139, #136, #5 ) ;
#153 = SURFACE_SIDE_STYLE ('',( #234 ) ) ;
#154 = ORIENTED_EDGE ( 'NONE', *, *, #81, .F. ) ;
#155 = ORIENTED_EDGE ( 'NONE', *, *, #252, .T. ) ;
#156 = DIRECTION ( 'NONE',  ( 1.000000000000000000, 0.0000000000000000000, 0.0000000000000000000 ) ) ;
#157 = VERTEX_POINT ( 'NONE', #137 ) ;
#158 = CIRCLE ( 'NONE', #286, 0.1179918899999999882 ) ;
#159 = DIRECTION ( 'NONE',  ( 1.000000000000000000, 0.0000000000000000000, 0.0000000000000000000 ) ) ;
#160 = EDGE_CURVE ( 'NONE', #3, #53, #299, .T. ) ;
#161 = LINE ( 'NONE', #326, #58 ) ;
#162 = DIRECTION ( 'NONE',  ( 0.1736481776669314692, 0.0000000000000000000, 0.9848077530122077983 ) ) ;
#163 = CONICAL_SURFACE ( 'NONE', #188, 0.1179918899999999882, 0.1745329251994339748 ) ;
#164 = VECTOR ( 'NONE', #44, 39.37007874015748854 ) ;
#165 = DIRECTION ( 'NONE',  ( 1.224646799147353207E-16, 1.000000000000000000, -0.0000000000000000000 ) ) ;
#166 = EDGE_CURVE ( 'NONE', #157, #111, #190, .T. ) ;
#167 = CARTESIAN_POINT ( 'NONE',  ( 2.410717224121564627E-18, 0.0000000000000000000, 0.01968500000000000111 ) ) ;
#168 = CARTESIAN_POINT ( 'NONE',  ( -0.1179918899999999882, 0.0000000000000000000, 1.444983904138465938E-17 ) ) ;
#169 = DIRECTION ( 'NONE',  ( -1.224646799147353207E-16, -0.0000000000000000000, -1.000000000000000000 ) ) ;
#170 = ORIENTED_EDGE ( 'NONE', *, *, #342, .T. ) ;
#171 = FACE_OUTER_BOUND ( 'NONE', #7, .T. ) ;
#172 = VECTOR ( 'NONE', #223, 39.37007874015748143 ) ;
#173 = PRODUCT_RELATED_PRODUCT_CATEGORY ( 'part', '', ( #175 ) ) ;
#174 = DIRECTION ( 'NONE',  ( 0.0000000000000000000, 0.0000000000000000000, 1.000000000000000000 ) ) ;
#175 = PRODUCT ( 'Micro_AECM-0605-4', 'Micro_AECM-0605-4', '', ( #289 ) ) ;
#176 = ORIENTED_EDGE ( 'NONE', *, *, #314, .F. ) ;
#177 = AXIS2_PLACEMENT_3D ( 'NONE', #147, #19, #201 ) ;
#178 = ORIENTED_EDGE ( 'NONE', *, *, #266, .T. ) ;
#179 = APPLICATION_PROTOCOL_DEFINITION ( 'draft international standard', 'automotive_design', 1998, #27 ) ;
#180 = ORIENTED_EDGE ( 'NONE', *, *, #189, .F. ) ;
#181 = VERTEX_POINT ( 'NONE', #112 ) ;
#182 = CIRCLE ( 'NONE', #276, 0.01968500000000000111 ) ;
#183 = ADVANCED_FACE ( 'NONE', ( #214 ), #336, .T. ) ;
#184 = EDGE_CURVE ( 'NONE', #181, #59, #98, .T. ) ;
#185 = MANIFOLD_SOLID_BREP ( 'Fillet1', #316 ) ;
#186 = LINE ( 'NONE', #62, #46 ) ;
#187 = DIRECTION ( 'NONE',  ( 1.000000000000000000, 0.0000000000000000000, 0.0000000000000000000 ) ) ;
#188 = AXIS2_PLACEMENT_3D ( 'NONE', #292, #94, #16 ) ;
#189 = EDGE_CURVE ( 'NONE', #207, #219, #47, .T. ) ;
#190 = CIRCLE ( 'NONE', #17, 0.1181100000000000066 ) ;
#191 = SURFACE_SIDE_STYLE ('',( #273 ) ) ;
#192 = EDGE_LOOP ( 'NONE', ( #208, #41, #290, #76 ) ) ;
#193 = FACE_OUTER_BOUND ( 'NONE', #68, .T. ) ;
#194 = ORIENTED_EDGE ( 'NONE', *, *, #335, .T. ) ;
#195 = FACE_OUTER_BOUND ( 'NONE', #10, .T. ) ;
#196 = CARTESIAN_POINT ( 'NONE',  ( 0.0000000000000000000, 0.0000000000000000000, 2.244094000000000033 ) ) ;
#197 = EDGE_LOOP ( 'NONE', ( #57, #260, #194, #254 ) ) ;
#198 = CIRCLE ( 'NONE', #36, 0.1031100000000002570 ) ;
#199 = FACE_OUTER_BOUND ( 'NONE', #78, .T. ) ;
#200 = EDGE_CURVE ( 'NONE', #50, #207, #18, .T. ) ;
#201 = DIRECTION ( 'NONE',  ( -1.000000000000000000, 0.0000000000000000000, 0.0000000000000000000 ) ) ;
#202 = ADVANCED_FACE ( 'NONE', ( #45 ), #51, .T. ) ;
#203 = LINE ( 'NONE', #309, #270 ) ;
#204 = AXIS2_PLACEMENT_3D ( 'NONE', #344, #319, #127 ) ;
#205 = CIRCLE ( 'NONE', #30, 0.1031100000000002570 ) ;
#206 = ORIENTED_EDGE ( 'NONE', *, *, #148, .F. ) ;
#207 = VERTEX_POINT ( 'NONE', #145 ) ;
#208 = ORIENTED_EDGE ( 'NONE', *, *, #69, .F. ) ;
#209 = STYLED_ITEM ( 'NONE', ( #321 ), #185 ) ;
#210 = ORIENTED_EDGE ( 'NONE', *, *, #189, .T. ) ;
#211 = EDGE_LOOP ( 'NONE', ( #264, #287, #301, #279 ) ) ;
#212 = CARTESIAN_POINT ( 'NONE',  ( -0.1181100000000000066, 0.0000000000000000000, 2.229093999999999465 ) ) ;
#213 = AXIS2_PLACEMENT_3D ( 'NONE', #38, #267, #300 ) ;
#214 = FACE_OUTER_BOUND ( 'NONE', #262, .T. ) ;
#215 = FILL_AREA_STYLE_COLOUR ( '', #312 ) ;
#216 = CONICAL_SURFACE ( 'NONE', #177, 0.1031100000000002570, 0.7853981633974318477 ) ;
#217 = DIRECTION ( 'NONE',  ( 1.000000000000000000, 0.0000000000000000000, 0.0000000000000000000 ) ) ;
#218 = LINE ( 'NONE', #118, #172 ) ;
#219 = VERTEX_POINT ( 'NONE', #42 ) ;
#220 = DIRECTION ( 'NONE',  ( 0.0000000000000000000, 0.0000000000000000000, 1.000000000000000000 ) ) ;
#221 = ADVANCED_BREP_SHAPE_REPRESENTATION ( 'Micro_AECM-0605-4', ( #185, #31 ), #21 ) ;
#222 = AXIS2_PLACEMENT_3D ( 'NONE', #269, #2, #64 ) ;
#223 = DIRECTION ( 'NONE',  ( -0.0000000000000000000, -0.0000000000000000000, -1.000000000000000000 ) ) ;
#224 = ORIENTED_EDGE ( 'NONE', *, *, #184, .T. ) ;
#225 = EDGE_CURVE ( 'NONE', #219, #207, #88, .T. ) ;
#226 = DIRECTION ( 'NONE',  ( -1.224646799147353207E-16, -0.0000000000000000000, -1.000000000000000000 ) ) ;
#227 = DIRECTION ( 'NONE',  ( 1.000000000000000000, 0.0000000000000000000, 0.0000000000000000000 ) ) ;
#228 = PRODUCT_DEFINITION_SHAPE ( 'NONE', 'NONE',  #11 ) ;
#229 = AXIS2_PLACEMENT_3D ( 'NONE', #52, #25, #124 ) ;
#230 = DIRECTION ( 'NONE',  ( 0.0000000000000000000, -1.000000000000000000, 0.0000000000000000000 ) ) ;
#231 = ORIENTED_EDGE ( 'NONE', *, *, #225, .T. ) ;
#232 = LINE ( 'NONE', #23, #122 ) ;
#233 = ORIENTED_EDGE ( 'NONE', *, *, #303, .F. ) ;
#234 = SURFACE_STYLE_FILL_AREA ( #77 ) ;
#235 = ORIENTED_EDGE ( 'NONE', *, *, #151, .T. ) ;
#236 = CIRCLE ( 'NONE', #293, 0.1181100000000000066 ) ;
#237 = VECTOR ( 'NONE', #169, 39.37007874015748143 ) ;
#238 =( NAMED_UNIT ( * ) SI_UNIT ( $, .STERADIAN. ) SOLID_ANGLE_UNIT ( ) );
#239 = CYLINDRICAL_SURFACE ( 'NONE', #97, 0.1181100000000000066 ) ;
#240 = LENGTH_MEASURE_WITH_UNIT ( LENGTH_MEASURE( 0.02539999999999999897 ), #283 );
#241 = DIRECTION ( 'NONE',  ( -1.000000000000000000, 0.0000000000000000000, 0.0000000000000000000 ) ) ;
#242 = PRESENTATION_LAYER_ASSIGNMENT (  '', '', ( #107 ) ) ;
#243 = ADVANCED_FACE ( 'NONE', ( #250 ), #277, .T. ) ;
#244 = CARTESIAN_POINT ( 'NONE',  ( 0.0000000000000000000, 0.0000000000000000000, 2.229093999999999465 ) ) ;
#245 = ADVANCED_FACE ( 'NONE', ( #171 ), #143, .T. ) ;
#246 = EDGE_LOOP ( 'NONE', ( #176, #138, #178, #154 ) ) ;
#247 = DIRECTION ( 'NONE',  ( 0.0000000000000000000, 0.0000000000000000000, -1.000000000000000000 ) ) ;
#248 = AXIS2_PLACEMENT_3D ( 'NONE', #167, #351, #187 ) ;
#249 = UNCERTAINTY_MEASURE_WITH_UNIT (LENGTH_MEASURE( 1.000000000000000082E-05 ), #132, 'distance_accuracy_value', 'NONE');
#250 = FACE_OUTER_BOUND ( 'NONE', #80, .T. ) ;
#251 = CARTESIAN_POINT ( 'NONE',  ( 2.410717224121565012E-18, 0.0000000000000000000, 0.01968500000000000458 ) ) ;
#252 = EDGE_CURVE ( 'NONE', #50, #28, #158, .T. ) ;
#253 = DIRECTION ( 'NONE',  ( -1.000000000000000000, 0.0000000000000000000, 0.0000000000000000000 ) ) ;
#254 = ORIENTED_EDGE ( 'NONE', *, *, #225, .F. ) ;
#255 =( NAMED_UNIT ( * ) PLANE_ANGLE_UNIT ( ) SI_UNIT ( $, .RADIAN. ) );
#256 = CARTESIAN_POINT ( 'NONE',  ( 0.0000000000000000000, 0.0000000000000000000, 2.244094000000000033 ) ) ;
#257 = CIRCLE ( 'NONE', #152, 0.09830688999999999400 ) ;
#258 = LENGTH_MEASURE_WITH_UNIT ( LENGTH_MEASURE( 0.02539999999999999897 ), #291 );
#259 = COLOUR_RGB ( '',0.7921568627450980005, 0.8196078431372548767, 0.9333333333333333481 ) ;
#260 = ORIENTED_EDGE ( 'NONE', *, *, #184, .F. ) ;
#261 = PRESENTATION_STYLE_ASSIGNMENT (( #149 ) ) ;
#262 = EDGE_LOOP ( 'NONE', ( #338, #334, #180, #272 ) ) ;
#263 = DIRECTION ( 'NONE',  ( 0.0000000000000000000, 0.0000000000000000000, 1.000000000000000000 ) ) ;
#264 = ORIENTED_EDGE ( 'NONE', *, *, #327, .F. ) ;
#265 = ORIENTED_EDGE ( 'NONE', *, *, #200, .F. ) ;
#266 = EDGE_CURVE ( 'NONE', #53, #157, #218, .T. ) ;
#267 = DIRECTION ( 'NONE',  ( -1.224646799147353207E-16, -0.0000000000000000000, -1.000000000000000000 ) ) ;
#268 =( CONVERSION_BASED_UNIT ( 'INCH', #60 ) LENGTH_UNIT ( ) NAMED_UNIT ( #6 ) );
#269 = CARTESIAN_POINT ( 'NONE',  ( 2.410717224121564627E-18, 0.0000000000000000000, 0.0000000000000000000 ) ) ;
#270 = VECTOR ( 'NONE', #43, 39.37007874015748143 ) ;
#271 = CARTESIAN_POINT ( 'NONE',  ( -0.09830688999999999400, 1.324448042932387475E-17, 0.0000000000000000000 ) ) ;
#272 = ORIENTED_EDGE ( 'NONE', *, *, #335, .F. ) ;
#273 = SURFACE_STYLE_FILL_AREA ( #323 ) ;
#274 = ORIENTED_EDGE ( 'NONE', *, *, #303, .T. ) ;
#275 = DIRECTION ( 'NONE',  ( 0.0000000000000000000, 0.0000000000000000000, 1.000000000000000000 ) ) ;
#276 = AXIS2_PLACEMENT_3D ( 'NONE', #320, #230, #29 ) ;
#277 = CYLINDRICAL_SURFACE ( 'NONE', #9, 0.1181100000000000066 ) ;
#278 = CARTESIAN_POINT ( 'NONE',  ( 0.1179918899999999882, 1.444983904138465938E-17, -1.444983904138465938E-17 ) ) ;
#279 = ORIENTED_EDGE ( 'NONE', *, *, #298, .F. ) ;
#280 = CARTESIAN_POINT ( 'NONE',  ( 2.410717224121564627E-18, 0.0000000000000000000, 0.01968500000000000111 ) ) ;
#281 = CIRCLE ( 'NONE', #341, 0.1179918899999999882 ) ;
#282 = LINE ( 'NONE', #333, #164 ) ;
#283 =( LENGTH_UNIT ( ) NAMED_UNIT ( * ) SI_UNIT ( $, .METRE. ) );
#284 = ORIENTED_EDGE ( 'NONE', *, *, #166, .F. ) ;
#285 =( NAMED_UNIT ( * ) PLANE_ANGLE_UNIT ( ) SI_UNIT ( $, .RADIAN. ) );
#286 = AXIS2_PLACEMENT_3D ( 'NONE', #304, #226, #96 ) ;
#287 = ORIENTED_EDGE ( 'NONE', *, *, #69, .T. ) ;
#288 = VERTEX_POINT ( 'NONE', #337 ) ;
#289 = PRODUCT_CONTEXT ( 'NONE', #27, 'mechanical' ) ;
#290 = ORIENTED_EDGE ( 'NONE', *, *, #298, .T. ) ;
#291 =( LENGTH_UNIT ( ) NAMED_UNIT ( * ) SI_UNIT ( $, .METRE. ) );
#292 = CARTESIAN_POINT ( 'NONE',  ( 7.714307363656999460E-17, 0.0000000000000000000, 0.6299209999999999532 ) ) ;
#293 = AXIS2_PLACEMENT_3D ( 'NONE', #322, #89, #35 ) ;
#294 = AXIS2_PLACEMENT_3D ( 'NONE', #251, #120, #141 ) ;
#295 = DIRECTION ( 'NONE',  ( 1.000000000000000000, 0.0000000000000000000, 0.0000000000000000000 ) ) ;
#296 = CARTESIAN_POINT ( 'NONE',  ( 7.714307363656999460E-17, 0.0000000000000000000, 0.6299209999999999532 ) ) ;
#297 = AXIS2_PLACEMENT_3D ( 'NONE', #313, #174, #99 ) ;
#298 = EDGE_CURVE ( 'NONE', #103, #53, #282, .T. ) ;
#299 = CIRCLE ( 'NONE', #146, 0.1181100000000000066 ) ;
#300 = DIRECTION ( 'NONE',  ( 1.000000000000000000, 0.0000000000000000000, 0.0000000000000000000 ) ) ;
#301 = ORIENTED_EDGE ( 'NONE', *, *, #75, .F. ) ;
#302 = CARTESIAN_POINT ( 'NONE',  ( 7.714307363656999460E-17, 0.0000000000000000000, 0.6299209999999999532 ) ) ;
#303 = EDGE_CURVE ( 'NONE', #28, #219, #67, .T. ) ;
#304 = CARTESIAN_POINT ( 'NONE',  ( 7.714307363656999460E-17, 0.0000000000000000000, 0.6299209999999999532 ) ) ;
#305 = DIRECTION ( 'NONE',  ( -1.000000000000000000, 0.0000000000000000000, 1.224646799147353454E-16 ) ) ;
#306 = AXIS2_PLACEMENT_3D ( 'NONE', #133, #165, #108 ) ;
#307 = CARTESIAN_POINT ( 'NONE',  ( 0.0000000000000000000, 0.0000000000000000000, 0.0000000000000000000 ) ) ;
#308 = ADVANCED_FACE ( 'NONE', ( #48 ), #216, .T. ) ;
#309 = CARTESIAN_POINT ( 'NONE',  ( 0.1181100000000000066, 1.446430334472939084E-17, 2.244094000000000033 ) ) ;
#310 = CYLINDRICAL_SURFACE ( 'NONE', #229, 0.1179918899999999882 ) ;
#311 = DIRECTION ( 'NONE',  ( 1.000000000000000000, 0.0000000000000000000, 0.0000000000000000000 ) ) ;
#312 = COLOUR_RGB ( '',0.7921568627450980005, 0.8196078431372548767, 0.9333333333333333481 ) ;
#313 = CARTESIAN_POINT ( 'NONE',  ( 0.0000000000000000000, 0.0000000000000000000, 0.0000000000000000000 ) ) ;
#314 = EDGE_CURVE ( 'NONE', #3, #111, #203, .T. ) ;
#315 = DIRECTION ( 'NONE',  ( -1.000000000000000000, 0.0000000000000000000, 0.0000000000000000000 ) ) ;
#316 = CLOSED_SHELL ( 'NONE', ( #183, #329, #126, #308, #243, #13, #245, #4, #37, #332, #39, #202 ) ) ;
#317 = CIRCLE ( 'NONE', #306, 0.01968500000000000458 ) ;
#318 = ORIENTED_EDGE ( 'NONE', *, *, #166, .T. ) ;
#319 = DIRECTION ( 'NONE',  ( 0.0000000000000000000, 0.0000000000000000000, -1.000000000000000000 ) ) ;
#320 = CARTESIAN_POINT ( 'NONE',  ( 0.09830688999999999400, 0.0000000000000000000, 0.01968500000000000111 ) ) ;
#321 = PRESENTATION_STYLE_ASSIGNMENT (( #106 ) ) ;
#322 = CARTESIAN_POINT ( 'NONE',  ( 0.0000000000000000000, 0.0000000000000000000, 2.229093999999999465 ) ) ;
#323 = FILL_AREA_STYLE ('',( #215 ) ) ;
#324 = EDGE_CURVE ( 'NONE', #103, #288, #205, .T. ) ;
#325 = ORIENTED_EDGE ( 'NONE', *, *, #151, .F. ) ;
#326 = CARTESIAN_POINT ( 'NONE',  ( 0.1179918900000000853, 0.0000000000000000000, 0.6299209999999999532 ) ) ;
#327 = EDGE_CURVE ( 'NONE', #288, #103, #198, .T. ) ;
#328 = AXIS2_PLACEMENT_3D ( 'NONE', #196, #117, #142 ) ;
#329 = ADVANCED_FACE ( 'NONE', ( #199 ), #65, .T. ) ;
#330 = DIRECTION ( 'NONE',  ( 0.7071067811865358044, 8.659560562354788645E-17, -0.7071067811865590080 ) ) ;
#331 = EDGE_LOOP ( 'NONE', ( #345, #86, #104, #125 ) ) ;
#332 = ADVANCED_FACE ( 'NONE', ( #195 ), #310, .T. ) ;
#333 = CARTESIAN_POINT ( 'NONE',  ( -0.1031100000000002570, 0.0000000000000000000, 2.244094000000000033 ) ) ;
#334 = ORIENTED_EDGE ( 'NONE', *, *, #128, .T. ) ;
#335 = EDGE_CURVE ( 'NONE', #181, #207, #182, .T. ) ;
#336 = TOROIDAL_SURFACE ( 'NONE', #248, 0.09830688999999999400, 0.01968500000000000111 ) ;
#337 = CARTESIAN_POINT ( 'NONE',  ( 0.1031100000000002570, 1.354581824536888722E-17, 2.244094000000000033 ) ) ;
#338 = ORIENTED_EDGE ( 'NONE', *, *, #115, .F. ) ;
#339 = DIRECTION ( 'NONE',  ( 1.000000000000000000, 0.0000000000000000000, 0.0000000000000000000 ) ) ;
#340 = CARTESIAN_POINT ( 'NONE',  ( 0.0000000000000000000, 0.0000000000000000000, 2.244094000000000033 ) ) ;
#341 = AXIS2_PLACEMENT_3D ( 'NONE', #302, #85, #241 ) ;
#342 = EDGE_CURVE ( 'NONE', #28, #157, #232, .T. ) ;
#343 = APPLICATION_CONTEXT ( 'automotive_design' ) ;
#344 = CARTESIAN_POINT ( 'NONE',  ( 0.0000000000000000000, 0.0000000000000000000, 2.244094000000000033 ) ) ;
#345 = ORIENTED_EDGE ( 'NONE', *, *, #342, .F. ) ;
#346 =( CONVERSION_BASED_UNIT ( 'INCH', #258 ) LENGTH_UNIT ( ) NAMED_UNIT ( #110 ) );
#347 =( GEOMETRIC_REPRESENTATION_CONTEXT ( 3 ) GLOBAL_UNCERTAINTY_ASSIGNED_CONTEXT ( ( #34 ) ) GLOBAL_UNIT_ASSIGNED_CONTEXT ( ( #268, #255, #12 ) ) REPRESENTATION_CONTEXT ( 'NONE', 'WORKASPACE' ) );
#348 = FACE_OUTER_BOUND ( 'NONE', #246, .T. ) ;
#349 = SHAPE_DEFINITION_REPRESENTATION ( #228, #221 ) ;
#350 = CARTESIAN_POINT ( 'NONE',  ( 0.0000000000000000000, 0.0000000000000000000, 2.244094000000000033 ) ) ;
#351 = DIRECTION ( 'NONE',  ( 0.0000000000000000000, 0.0000000000000000000, 1.000000000000000000 ) ) ;
ENDSEC;
END-ISO-10303-21;
